  0
SECTION
  2
HEADER
  9
$ACADVER
  1
AC1009
  9
$INSBASE
 10
0.0
 20
0.0
 30
0.0
  9
$EXTMIN
 10
760.0683660630406848
 20
-182.1870550826220096
 30
-0.0000000000112497
  9
$EXTMAX
 10
998.1275702642263923
 20
91.0984942280541645
 30
0.0000000000002956
  9
$LIMMIN
 10
0.0
 20
0.0
  9
$LIMMAX
 10
297.0
 20
210.0
  9
$ORTHOMODE
 70
     0
  9
$REGENMODE
 70
     1
  9
$FILLMODE
 70
     1
  9
$QTEXTMODE
 70
     0
  9
$MIRRTEXT
 70
     0
  9
$DRAGMODE
 70
     2
  9
$LTSCALE
 40
0.4
  9
$OSMODE
 70
  1447
  9
$ATTMODE
 70
     1
  9
$TEXTSIZE
 40
5.0
  9
$TRACEWID
 40
1.0
  9
$TEXTSTYLE
  7
STANDARD
  9
$CLAYER
  8
0
  9
$CELTYPE
  6
BYLAYER
  9
$CECOLOR
 62
   256
  9
$DIMSCALE
 40
1.0
  9
$DIMASZ
 40
2.5
  9
$DIMEXO
 40
1.0
  9
$DIMDLI
 40
10.0
  9
$DIMRND
 40
0.0
  9
$DIMDLE
 40
0.0
  9
$DIMEXE
 40
1.0
  9
$DIMTP
 40
0.1
  9
$DIMTM
 40
0.1
  9
$DIMTXT
 40
2.5
  9
$DIMCEN
 40
0.0
  9
$DIMTSZ
 40
0.0
  9
$DIMTOL
 70
     0
  9
$DIMLIM
 70
     0
  9
$DIMTIH
 70
     0
  9
$DIMTOH
 70
     0
  9
$DIMSE1
 70
     0
  9
$DIMSE2
 70
     0
  9
$DIMTAD
 70
     3
  9
$DIMZIN
 70
     8
  9
$DIMBLK
  1

  9
$DIMASO
 70
     1
  9
$DIMSHO
 70
     1
  9
$DIMPOST
  1

  9
$DIMAPOST
  1

  9
$DIMALT
 70
     0
  9
$DIMALTD
 70
     2
  9
$DIMALTF
 40
25.3999999999999986
  9
$DIMLFAC
 40
1.0
  9
$DIMTOFL
 70
     1
  9
$DIMTVP
 40
0.0
  9
$DIMTIX
 70
     0
  9
$DIMSOXD
 70
     0
  9
$DIMSAH
 70
     0
  9
$DIMBLK1
  1

  9
$DIMBLK2
  1

  9
$DIMSTYLE
  2
部品図用_1_1
  9
$DIMCLRD
 70
   256
  9
$DIMCLRE
 70
   256
  9
$DIMCLRT
 70
   256
  9
$DIMTFAC
 40
0.7
  9
$DIMGAP
 40
1.0
  9
$LUNITS
 70
     2
  9
$LUPREC
 70
     2
  9
$SKETCHINC
 40
1.0
  9
$FILLETRAD
 40
0.0
  9
$AUNITS
 70
     1
  9
$AUPREC
 70
     3
  9
$MENU
  1
.
  9
$ELEVATION
 40
0.0
  9
$PELEVATION
 40
0.0
  9
$THICKNESS
 40
0.0
  9
$LIMCHECK
 70
     0
  9
$BLIPMODE
 70
     0
  9
$CHAMFERA
 40
0.0
  9
$CHAMFERB
 40
0.0
  9
$SKPOLY
 70
     0
  9
$TDCREATE
 40
2457049.11047453712672
  9
$TDUPDATE
 40
2460132.4781134258955717
  9
$TDINDWG
 40
0.412475
  9
$TDUSRTIMER
 40
0.4124748148
  9
$USRTIMER
 70
     1
  9
$ANGBASE
 50
0.0
  9
$ANGDIR
 70
     0
  9
$PDMODE
 70
     3
  9
$PDSIZE
 40
0.0
  9
$PLINEWID
 40
0.0
  9
$COORDS
 70
     1
  9
$SPLFRAME
 70
     0
  9
$SPLINETYPE
 70
     6
  9
$SPLINESEGS
 70
     8
  9
$ATTDIA
 70
     1
  9
$ATTREQ
 70
     1
  9
$HANDLING
 70
     1
  9
$HANDSEED
  5
DAA3
  9
$SURFTAB1
 70
     6
  9
$SURFTAB2
 70
     6
  9
$SURFTYPE
 70
     6
  9
$SURFU
 70
     6
  9
$SURFV
 70
     6
  9
$UCSNAME
  2

  9
$UCSORG
 10
0.0
 20
0.0
 30
0.0
  9
$UCSXDIR
 10
1.0
 20
0.0
 30
0.0
  9
$UCSYDIR
 10
0.0
 20
1.0
 30
0.0
  9
$PUCSNAME
  2

  9
$PUCSORG
 10
0.0
 20
0.0
 30
0.0
  9
$PUCSXDIR
 10
1.0
 20
0.0
 30
0.0
  9
$PUCSYDIR
 10
0.0
 20
1.0
 30
0.0
  9
$USERI1
 70
     0
  9
$USERI2
 70
     0
  9
$USERI3
 70
     0
  9
$USERI4
 70
     0
  9
$USERI5
 70
     0
  9
$USERR1
 40
0.0
  9
$USERR2
 40
0.0
  9
$USERR3
 40
0.0
  9
$USERR4
 40
0.0
  9
$USERR5
 40
0.0
  9
$WORLDVIEW
 70
     1
  9
$SHADEDGE
 70
     3
  9
$SHADEDIF
 70
    70
  9
$TILEMODE
 70
     1
  9
$MAXACTVP
 70
    64
  9
$PLIMCHECK
 70
     0
  9
$PEXTMIN
 10
1.0000000000000000E+20
 20
1.0000000000000000E+20
 30
1.0000000000000000E+20
  9
$PEXTMAX
 10
-1.0000000000000000E+20
 20
-1.0000000000000000E+20
 30
-1.0000000000000000E+20
  9
$PLIMMIN
 10
-5.873748779296875
 20
-5.8737497329711914
  9
$PLIMMAX
 10
291.1369018554688068
 20
204.0995779037475018
  9
$UNITMODE
 70
     0
  9
$VISRETAIN
 70
     1
  9
$PLINEGEN
 70
     0
  9
$PSLTSCALE
 70
     1
  0
ENDSEC
  0
SECTION
  2
TABLES
  0
TABLE
  2
VPORT
 70
     1
  0
VPORT
  2
*ACTIVE
 70
     0
 10
0.0
 20
0.0
 11
1.0
 21
1.0
 12
879.0979681636335954
 22
-45.5442804272839226
 13
0.0
 23
0.0
 14
10.0
 24
10.0
 15
10.0
 25
10.0
 16
0.0
 26
0.0
 36
1.0
 17
0.0
 27
0.0
 37
0.0
 40
275.2365809335636868
 41
1.765830346475507
 42
50.0
 43
0.0
 44
0.0
 50
0.0
 51
0.0
 71
     0
 72
  1000
 73
     1
 74
     3
 75
     0
 76
     0
 77
     0
 78
     0
  0
ENDTAB
  0
TABLE
  2
LTYPE
 70
     3
  0
LTYPE
  2
CONTINUOUS
 70
     0
  3
Solid line
 72
    65
 73
     0
 40
0.0
  0
LTYPE
  2
CENTER
 70
     0
  3
Center ____ _ ____ _ ____ _ ____ _ ____ _ ____
 72
    65
 73
     4
 40
50.7999999999999972
 49
31.75
 49
-6.3499999999999979
 49
6.3499999999999979
 49
-6.3499999999999979
  0
ENDTAB
  0
TABLE
  2
LAYER
 70
     7
  0
LAYER
  2
0
 70
     0
 62
     7
  6
CONTINUOUS
  0
LAYER
  2
01_表面形状
 70
     0
 62
     7
  6
CONTINUOUS
  0
LAYER
  2
04_中心線
 70
     0
 62
     4
  6
CENTER
  0
LAYER
  2
12_文字
 70
     0
 62
     2
  6
CONTINUOUS
  0
LAYER
  2
DEFPOINTS
 70
     0
 62
     7
  6
CONTINUOUS
  0
ENDTAB
  0
TABLE
  2
STYLE
 70
     2
  0
STYLE
  2
STANDARD
 70
     0
 40
0.0
 41
1.0
 50
0.0
 71
     0
 42
5.0
  3
isocp.shx
  4
extfont2.shx
  0
STYLE
  2
MX_NOTE_STANDARD
 70
     0
 40
0.0
 41
1.0
 50
0.0
 71
     0
 42
3.299999999999998
  3
txt.shx
  4
extfont.shx
  0
ENDTAB
  0
TABLE
  2
VIEW
 70
     1
  0
ENDTAB
  0
TABLE
  2
UCS
 70
     0
  0
ENDTAB
  0
TABLE
  2
APPID
 70
    38
  0
APPID
  2
ACAD
 70
     0
  0
APPID
  2
ACAECLAYERSTANDARD
 70
     0
  0
APPID
  2
ACAD_PSEXT
 70
     0
  0
APPID
  2
ACAD_EXEMPT_FROM_CAD_STANDARDS
 70
     0
  0
APPID
  2
GENIUS_GENODEF_13
 70
     0
  0
APPID
  2
GENIUS_GENOBJ-N-CEN_13
 70
     0
  0
APPID
  2
GENIUS_GENCEN_19
 70
     0
  0
APPID
  2
GENIUS_GENTRA_14
 70
     0
  0
APPID
  2
GENIUS_GENOREF_13
 70
     0
  0
APPID
  2
GENIUS_GENSCREG_15
 70
     0
  0
APPID
  2
GENIUS_GENOBJ-N-SDF_13
 70
     0
  0
APPID
  2
GENIUS_GENOBJ-N-LIB_13
 70
     0
  0
APPID
  2
GENIUS_GENOBJ-N-RSBK_13
 70
     0
  0
APPID
  2
GENIUS_GENSCALE_13
 70
     0
  0
APPID
  2
GENIUS_AMGTXT_16
 70
     0
  0
APPID
  2
GENIUS_GENFIL_13
 70
     0
  0
APPID
  2
GENIUS_GENOBJ-N-CHA_13
 70
     0
  0
APPID
  2
GENIUS_GENOBJ-N-FIL_13
 70
     0
  0
APPID
  2
GENIUS_GENDTOL_13
 70
     0
  0
APPID
  2
ACAD_DIMASSOC_DIMLFAC
 70
     0
  0
APPID
  2
ACAD_DIMASSOC_CALC_DIMLFAC
 70
     0
  0
APPID
  2
ACAD_DIMASSOC_OVERRIDDEN_D
 70
     0
  0
APPID
  2
GENIUS_GENOBJ-N-ZOO_13
 70
     0
  0
APPID
  2
GENIUS_GENZOO_16
 70
     0
  0
APPID
  2
ACAD_DSTYLE_DIMJAG
 70
     0
  0
APPID
  2
ACAD_DSTYLE_DIMTALN
 70
     0
  0
APPID
  2
ACAD_DSTYLE_DIMBREAK
 70
     0
  0
APPID
  2
ACAD_DSTYLE_DIMARC_LENGTH_
 70
     0
  0
APPID
  2
ACAD_DSTYLE_DIMJOGGED_JOGA
 70
     0
  0
APPID
  2
ACAD_DSTYLE_DIM_LINETYPE
 70
     0
  0
APPID
  2
ACAD_DSTYLE_DIM_EXT1_LINETYPE
 70
     0
  0
APPID
  2
ACAD_DSTYLE_DIM_EXT2_LINETYPE
 70
     0
  0
APPID
  2
ACDBATTR
 70
     0
  0
APPID
  2
ACAD_MLEADERVER
 70
     0
  0
APPID
  2
ACAD_DSTYLE_DIMRADIAL_EXTENSION
 70
     0
  0
APPID
  2
ACADANNOPO
 70
     0
  0
APPID
  2
ACAUTHENVIRON
 70
     0
  0
APPID
  2
ACAD_NAV_VCDISPLAY
 70
     0
  0
ENDTAB
  0
TABLE
  2
DIMSTYLE
 70
     2
  0
DIMSTYLE
  2
部品図用_1_1
 70
     0
  3

  4

  5

  6

  7

 40
1.0
 41
2.5
 42
1.0
 43
10.0
 44
1.0
 45
0.0
 46
0.0
 47
0.1
 48
0.1
140
2.5
141
0.0
142
0.0
143
25.3999999999999986
144
1.0
145
0.0
146
0.7
147
1.0
 71
     0
 72
     0
 73
     0
 74
     0
 75
     0
 76
     0
 77
     3
 78
     8
170
     0
171
     2
172
     1
173
     0
174
     0
175
     0
176
   256
177
   256
178
   256
  0
DIMSTYLE
  2
STANDARD
 70
     0
  3

  4

  5
OPEN30
  6

  7

 40
1.0
 41
0.18
 42
0.0625
 43
0.38
 44
0.18
 45
0.0
 46
0.0
 47
0.0
 48
0.0
140
0.18
141
0.09
142
0.0
143
25.3999999999999986
144
1.0
145
0.0
146
1.0
147
0.09
 71
     0
 72
     0
 73
     0
 74
     0
 75
     0
 76
     0
 77
     1
 78
     0
170
     0
171
     2
172
     1
173
     0
174
     0
175
     0
176
     0
177
     0
178
     0
  0
ENDTAB
  0
ENDSEC
  0
SECTION
  2
BLOCKS
  0
BLOCK
  8
0
  2
$MODEL_SPACE
 70
     2
 10
0.0
 20
0.0
 30
0.0
  3
$MODEL_SPACE
  1

  0
ENDBLK
  5
39
  8
0
  0
BLOCK
 67
     1
  8
0
  2
$PAPER_SPACE
 70
     0
 10
0.0
 20
0.0
 30
0.0
  3
$PAPER_SPACE
  1

  0
ENDBLK
  5
35
 67
     1
  8
0
  0
BLOCK
  8
0
  2
_OPEN30
 70
     0
 10
0.0
 20
0.0
 30
0.0
  3
_OPEN30
  1

  0
LINE
  5
93EB
  8
0
  6
BYBLOCK
 62
     0
 10
-1.0
 20
0.26794919
 30
0.0
 11
0.0
 21
0.0
 31
0.0
  0
LINE
  5
93EC
  8
0
  6
BYBLOCK
 62
     0
 10
0.0
 20
0.0
 30
0.0
 11
-1.0
 21
-0.26794919
 31
0.0
  0
LINE
  5
93ED
  8
0
  6
BYBLOCK
 62
     0
 10
0.0
 20
0.0
 30
0.0
 11
-1.0
 21
0.0
 31
0.0
  0
ENDBLK
  5
93EE
  8
0
  0
ENDSEC
  0
SECTION
  2
ENTITIES
  0
ARC
  5
D6A0
  8
01_表面形状
 62
     3
 10
953.1123351659912259
 20
-91.8076406971711236
 30
0.0
 40
40.0
 50
156.7183484556875896
 51
23.2816515443213312
  0
LINE
  5
D6A1
  8
01_表面形状
 62
     3
 10
790.544981047025658
 20
78.5860771746202431
 30
0.0
 11
779.6904323549341598
 21
78.5860771746201294
 31
0.0
  0
LINE
  5
D6A2
  8
01_表面形状
 62
     3
 10
789.8188534516847312
 20
13.5860771746200708
 30
0.0
 11
779.6904323549341598
 21
13.5860771746202396
 31
0.0
  0
LINE
  5
D6A3
  8
04_中心線
 62
   110
 10
760.0923561435806732
 20
46.0860771746201721
 30
0.0
 11
880.0923561435816964
 21
46.0860771746201721
 31
0.0
  0
ARC
  5
D6A4
  8
01_表面形状
 62
     3
 10
779.6904323549341598
 20
11.5860771746202396
 30
0.0
 40
2.0
 50
90.0
 51
150.0000000000082991
  0
LINE
  5
D6A5
  8
01_表面形状
 62
     3
 10
777.9583815473655477
 20
12.5860771746205309
 30
0.0
 11
777.092356143581128
 21
10.3671345649711899
 31
0.0
  0
ARC
  5
D6A6
  8
01_表面形状
 62
     3
 10
779.6904323549341598
 20
80.5860771746201294
 30
0.0
 40
2.0
 50
209.9999999999901945
 51
270.0
  0
LINE
  5
D6A7
  8
01_表面形状
 62
     3
 10
777.9583815473653203
 20
79.5860771746201863
 30
0.0
 11
777.092356143581128
 21
81.8050197842692342
 31
0.0
  0
ARC
  5
D6A8
  8
01_表面形状
 62
     3
 10
819.5923561435812417
 20
46.0860771746201721
 30
0.0
 40
33.798146041179713
 50
238.7060303253958011
 51
206.35195351509131
  0
LINE
  5
D6A9
  8
04_中心線
 62
   110
 10
819.5923561435812417
 20
1.086077174620186
 30
0.0
 11
819.5923561435812417
 21
91.0860771746202147
 31
0.0
  0
ARC
  5
D6AA
  8
01_表面形状
 62
     3
 10
819.5923561435812417
 20
106.0860771746202005
 30
0.0
 40
100.0
 50
270.0
 51
291.4784178410794198
  0
LINE
  5
D6AB
  8
01_表面形状
 62
     3
 10
789.3063680157235922
 20
31.0836240772038686
 30
0.0
 11
790.067523659561175
 21
16.5599091964991203
 31
0.0
  0
ARC
  5
D6AC
  8
01_表面形状
 62
     3
 10
819.5923561435812417
 20
56.0860771746201721
 30
0.0
 40
50.0
 50
242.1532332423849994
 51
270.0
  0
ARC
  5
D6AD
  8
01_表面形状
 62
     3
 10
800.6178738602235399
 20
16.5860771746199589
 30
0.0
 40
0.5
 50
270.0
 51
356.999999999994202
  0
LINE
  5
D6AE
  8
01_表面形状
 62
     3
 10
795.5923561435807869
 20
16.0860771746203
 30
0.0
 11
800.6178738602239946
 21
16.0860771746201792
 31
0.0
  0
ARC
  5
D6AF
  8
01_表面形状
 62
     3
 10
790.5668384269382614
 20
16.5860771746199589
 30
0.0
 40
0.5
 50
183.0000000000057128
 51
270.0
  0
LINE
  5
D6B0
  8
01_表面形状
 62
     3
 10
795.5923561435807869
 20
16.0860771746203
 30
0.0
 11
790.5668384269382614
 21
16.0860771746201792
 31
0.0
  0
LINE
  5
D6B1
  8
01_表面形状
 62
     3
 10
795.5923561435809006
 20
11.8760771746203204
 30
0.0
 11
790.5668384269386024
 21
11.8760771746201996
 31
0.0
  0
ARC
  5
D6B2
  8
01_表面形状
 62
     3
 10
801.7249554194308985
 20
16.6923968600871113
 30
0.0
 40
0.6
 50
58.7060303253974993
 51
176.9999999999845102
  0
LINE
  5
D6B3
  8
01_表面形状
 62
     3
 10
801.117188627601081
 20
16.5599091964991203
 30
0.0
 11
801.1257776985781902
 21
16.7237984338330499
 31
0.0
  0
LINE
  5
D6B4
  8
01_表面形状
 62
     3
 10
860.4942799322279825
 20
13.5860771746201898
 30
0.0
 11
859.1366351229734164
 21
13.5860771746201898
 31
0.0
  0
ARC
  5
D6B5
  8
01_表面形状
 62
     3
 10
859.1366351229734164
 20
5.5860771746201863
 30
0.0
 40
8.0
 50
90.0
 51
111.4784178410800024
  0
LINE
  5
D6B6
  8
01_表面形状
 62
     3
 10
862.226330739797163
 20
12.5860771746199607
 30
0.0
 11
863.0923561435812417
 21
10.3671345649711899
 31
0.0
  0
ARC
  5
D6B7
  8
01_表面形状
 62
     3
 10
860.4942799322279825
 20
11.5860771746201792
 30
0.0
 40
2.0
 50
29.9999999999859988
 51
90.0
  0
LINE
  5
D6B8
  8
01_表面形状
 62
     3
 10
920.3123351659903619
 20
-35.8076406971726229
 30
0.0
 11
920.3123351659903619
 21
-47.9422516138879971
 31
0.0
  0
LINE
  5
D6B9
  8
01_表面形状
 62
     3
 10
985.9123351659904984
 20
-35.8076406971726229
 30
0.0
 11
985.9123351659904984
 21
-47.9422516138877199
 31
0.0
  0
LINE
  5
D6BA
  8
04_中心線
 62
   110
 10
953.1123351659912259
 20
-19.8076406971713403
 30
0.0
 11
953.1123351659912259
 21
-136.8076406971711094
 31
0.0
  0
LINE
  5
D6BB
  8
01_表面形状
 62
     3
 10
920.3123351659903619
 20
-47.9422516138881605
 30
0.0
 11
916.3694150012378259
 21
-75.9975863719462268
 31
0.0
  0
LINE
  5
D6BC
  8
04_中心線
 62
   110
 10
908.1123351659916807
 20
-91.8076406971712942
 30
0.0
 11
998.1123351659916807
 21
-91.8076406971712942
 31
0.0
  0
LINE
  5
D6BD
  8
04_中心線
 62
   110
 10
952.1123351659912259
 20
-91.8076406971712942
 30
0.0
 11
954.1123351659914533
 21
-91.8076406971712942
 31
0.0
  0
LINE
  5
D6BE
  8
04_中心線
 62
   110
 10
953.1123351659912259
 20
-90.8076406971712942
 30
0.0
 11
953.1123351659912259
 21
-92.8076406971712942
 31
0.0
  0
LINE
  5
D6BF
  8
01_表面形状
 62
     3
 10
985.9123351659904984
 20
-47.9422516138878265
 30
0.0
 11
989.8552553307418975
 21
-75.9975863719393203
 31
0.0
  0
ARC
  5
D6C0
  8
01_表面形状
 62
     3
 10
819.5923561435812417
 20
-13.9139228253798102
 30
0.0
 40
100.0
 50
68.5215821589205802
 51
90.0
  0
ARC
  5
D6C1
  8
01_表面形状
 62
     3
 10
819.5923561435812417
 20
36.0860771746201934
 30
0.0
 40
50.0
 50
90.0
 51
118.9550243718607021
  0
ARC
  5
D6C2
  8
01_表面形状
 62
     3
 10
790.544981047025658
 20
88.5860771746202431
 30
0.0
 40
10.0
 50
270.0
 51
298.9550243718607021
  0
LINE
  5
D6C3
  8
01_表面形状
 62
     3
 10
860.4942799322279825
 20
78.5860771746201863
 30
0.0
 11
859.1366351229734164
 21
78.5860771746201863
 31
0.0
  0
ARC
  5
D6C4
  8
01_表面形状
 62
     3
 10
859.1366351229734164
 20
86.5860771746201863
 30
0.0
 40
8.0
 50
248.5215821589198981
 51
270.0
  0
ARC
  5
D6C5
  8
01_表面形状
 62
     3
 10
860.4942799322279825
 20
80.5860771746200868
 30
0.0
 40
2.0
 50
270.0
 51
330.0000000000139835
  0
LINE
  5
D6C6
  8
01_表面形状
 62
     3
 10
862.226330739797163
 20
79.5860771746202857
 30
0.0
 11
863.0923561435812417
 21
81.8050197842692342
 31
0.0
  0
LINE
  5
D6C7
  8
01_表面形状
 62
     3
 10
782.5909141110811333
 20
-59.307640697171351
 30
0.0
 11
779.6904323549812261
 21
-59.307640697171351
 31
0.0
  0
LINE
  5
D6C8
  8
01_表面形状
 62
     3
 10
779.6904323549812261
 20
-124.3076406971711947
 30
0.0
 11
790.5449810470254306
 21
-124.3076406971711947
 31
0.0
  0
LINE
  5
D6C9
  8
01_表面形状
 62
     3
 10
765.092356143581128
 20
-90.1763385661712249
 30
0.0
 11
765.092356143581128
 21
-68.947203156771252
 31
0.0
  0
LINE
  5
D6CA
  8
01_表面形状
 62
     3
 10
777.092356143581128
 20
-127.5265833068201999
 30
0.0
 11
777.9583815473812365
 21
-125.3076406971711947
 31
0.0
  0
LINE
  5
D6CB
  8
01_表面形状
 62
     3
 10
765.092356143581128
 20
-114.6680782375711942
 30
0.0
 11
765.092356143581128
 21
-93.4389428281713066
 31
0.0
  0
ARC
  5
D6CC
  8
01_表面形状
 62
     3
 10
779.6904323549811124
 20
-126.3076406971711947
 30
0.0
 40
2.0
 50
90.0
 51
149.9999999999994031
  0
LINE
  5
D6CD
  8
01_表面形状
 62
     3
 10
777.092356143581128
 20
-115.2103881866711959
 30
0.0
 11
777.092356143581128
 21
-117.8328478998711972
 31
0.0
  0
LINE
  5
D6CE
  8
01_表面形状
 62
     3
 10
765.092356143581128
 20
-125.9416152934025064
 30
0.0
 11
765.092356143581128
 21
-116.9750878354712995
 31
0.0
  0
LINE
  5
D6CF
  8
01_表面形状
 62
     3
 10
765.092356143581128
 20
-125.8076406971711947
 30
0.0
 11
765.092356143581128
 21
-125.7684836395713006
 31
0.0
  0
LINE
  5
D6D0
  8
01_表面形状
 62
     3
 10
765.092356143581128
 20
-116.9750878354712995
 30
0.0
 11
765.092356143581128
 21
-114.6680782375711942
 31
0.0
  0
LINE
  5
D6D1
  8
01_表面形状
 62
     3
 10
777.092356143581128
 20
-89.9532816505712844
 30
0.0
 11
777.092356143581128
 21
-93.6619997437713039
 31
0.0
  0
LINE
  5
D6D2
  8
01_表面形状
 62
     3
 10
765.092356143581128
 20
-93.4389428281713066
 30
0.0
 11
765.092356143581128
 21
-90.1763385661712249
 31
0.0
  0
LINE
  5
D6D3
  8
01_表面形状
 62
     3
 10
765.092356143581128
 20
-57.6736661009401814
 30
0.0
 11
765.092356143581128
 21
-66.6401935588713883
 31
0.0
  0
LINE
  5
D6D4
  8
01_表面形状
 62
     3
 10
765.092356143581128
 20
-66.6401935588712604
 30
0.0
 11
765.092356143581128
 21
-57.8467977547712735
 31
0.0
  0
LINE
  5
D6D5
  8
01_表面形状
 62
     3
 10
777.092356143581128
 20
-65.7824334944712064
 30
0.0
 11
777.092356143581128
 21
-68.404893207671293
 31
0.0
  0
LINE
  5
D6D6
  8
01_表面形状
 62
     3
 10
765.092356143581128
 20
-66.6401935588713883
 30
0.0
 11
765.092356143581128
 21
-68.9472031567713657
 31
0.0
  0
LINE
  5
D6D7
  8
01_表面形状
 62
     3
 10
765.092356143581128
 20
-68.947203156771252
 30
0.0
 11
765.092356143581128
 21
-66.6401935588712604
 31
0.0
  0
ARC
  5
D6D8
  8
01_表面形状
 62
     3
 10
779.6904323549811124
 20
-57.3076406971713368
 30
0.0
 40
2.0
 50
210.0000000000005116
 51
270.0
  0
LINE
  5
D6D9
  8
01_表面形状
 62
     3
 10
777.9583815473812365
 20
-58.3076406971713226
 30
0.0
 11
777.092356143581128
 21
-56.0886980875222321
 31
0.0
  0
LINE
  5
D6DA
  8
01_表面形状
 62
     3
 10
765.092356143581128
 20
-57.8076406971713226
 30
0.0
 11
765.092356143581128
 21
-57.8467977547713872
 31
0.0
  0
LINE
  5
D6DB
  8
04_中心線
 62
   110
 10
819.5923561435812417
 20
-19.80764069717128
 30
0.0
 11
819.5923561435812417
 21
-136.8076406971713084
 31
0.0
  0
LINE
  5
D6DC
  8
01_表面形状
 62
     3
 10
875.092356143581469
 20
-90.1763385661712249
 30
0.0
 11
875.092356143581469
 21
-68.947203156771252
 31
0.0
  0
LINE
  5
D6DD
  8
04_中心線
 62
   110
 10
760.092356143581128
 20
-91.8076406971712942
 30
0.0
 11
880.0923561435813554
 21
-91.8076406971712942
 31
0.0
  0
ARC
  5
D6DE
  8
01_表面形状
 62
     3
 10
819.5923561435812417
 20
-81.8076406971713368
 30
0.0
 40
50.0
 50
241.0449756281392979
 51
270.0
  0
ARC
  5
D6DF
  8
01_表面形状
 62
     3
 10
819.5923561435812417
 20
-31.8076406971713403
 30
0.0
 40
100.0
 50
270.0
 51
291.4784178410799882
  0
LINE
  5
D6E0
  8
01_表面形状
 62
     3
 10
862.2263307398808365
 20
-125.3076406971711947
 30
0.0
 11
863.0923561435812417
 21
-127.5265833068202994
 31
0.0
  0
LINE
  5
D6E1
  8
01_表面形状
 62
     3
 10
863.0923561435812417
 20
-126.8076406971711947
 30
0.0
 11
863.0923561435812417
 21
-126.7584826401712945
 31
0.0
  0
ARC
  5
D6E4
  8
01_表面形状
 62
     3
 10
790.5449810470253169
 20
-134.3076406971711947
 30
0.0
 40
10.0
 50
61.0449756281393334
 51
90.0
  0
ARC
  5
D704
  8
01_表面形状
 62
     3
 10
860.4942799322810743
 20
-126.3076406971711947
 30
0.0
 40
2.0
 50
30.0000000000005507
 51
90.0
  0
ARC
  5
D705
  8
01_表面形状
 62
     3
 10
859.1366351229735301
 20
-132.3076406971711947
 30
0.0
 40
8.0
 50
90.0
 51
111.4784178410800024
  0
LINE
  5
D706
  8
01_表面形状
 62
     3
 10
859.1366351229735301
 20
-124.3076406971711947
 30
0.0
 11
860.4942799322810743
 21
-124.3076406971711947
 31
0.0
  0
LINE
  5
D707
  8
01_表面形状
 62
     3
 10
863.0923561435812417
 20
-117.8328478998711972
 30
0.0
 11
863.0923561435812417
 21
-115.2103881866711959
 31
0.0
  0
LINE
  5
D713
  8
01_表面形状
 62
     3
 10
863.0923561435812417
 20
-93.6619997437713039
 30
0.0
 11
863.0923561435812417
 21
-89.9532816505712844
 31
0.0
  0
LINE
  5
D714
  8
01_表面形状
 62
     3
 10
875.092356143581469
 20
-114.6680782375711942
 30
0.0
 11
875.092356143581469
 21
-93.4389428281713066
 31
0.0
  0
LINE
  5
D715
  8
01_表面形状
 62
     3
 10
875.092356143581469
 20
-125.9416152934025064
 30
0.0
 11
875.092356143581469
 21
-116.9750878354712995
 31
0.0
  0
LINE
  5
D716
  8
01_表面形状
 62
     3
 10
875.092356143581469
 20
-125.8076406971711947
 30
0.0
 11
875.092356143581469
 21
-125.7684836395713006
 31
0.0
  0
LINE
  5
D717
  8
01_表面形状
 62
     3
 10
875.092356143581469
 20
-116.9750878354712995
 30
0.0
 11
875.092356143581469
 21
-114.6680782375711942
 31
0.0
  0
LINE
  5
D718
  8
01_表面形状
 62
     3
 10
875.092356143581469
 20
-93.4389428281713066
 30
0.0
 11
875.092356143581469
 21
-90.1763385661712249
 31
0.0
  0
LINE
  5
D719
  8
01_表面形状
 62
     3
 10
786.7923561435809461
 20
-35.807640697171351
 30
0.0
 11
786.7923561435809461
 21
-47.9422516139148911
 31
0.0
  0
LINE
  5
D71A
  8
01_表面形状
 62
     3
 10
852.3923561435810825
 20
-47.9422516139326333
 30
0.0
 11
852.3923561435810825
 21
-35.8076406971713084
 31
0.0
  0
LINE
  5
D71B
  8
04_中心線
 62
   110
 10
795.5923561435812417
 20
-63.7153487727282482
 30
0.0
 11
795.5923561435812417
 21
-44.9264891436215521
 31
0.0
  0
LINE
  5
D71C
  8
04_中心線
 62
   110
 10
786.2290580273468095
 20
-54.307640697171351
 30
0.0
 11
805.0216482899936636
 21
-54.307640697171351
 31
0.0
  0
LINE
  5
D71D
  8
01_表面形状
 62
     3
 10
786.7923561435753754
 20
-47.9422516139323989
 30
0.0
 11
785.5530258071811431
 21
-56.7605451655713296
 31
0.0
  0
POLYLINE
  5
D71E
  8
01_表面形状
 62
     3
 66
     1
 10
0.0
 20
0.0
 30
0.0
 70
   128
  0
VERTEX
  5
DA36
  8
01_表面形状
 62
     3
 10
785.5530258071811431
 20
-56.7605451655713296
 30
0.0
  0
VERTEX
  5
DA37
  8
01_表面形状
 62
     3
 10
785.5339953460809284
 20
-56.8701194434712534
 30
0.0
  0
VERTEX
  5
DA38
  8
01_表面形状
 62
     3
 10
785.3646181896812095
 20
-57.4416320561713292
 30
0.0
  0
VERTEX
  5
DA39
  8
01_表面形状
 62
     3
 10
785.0709636461812124
 20
-57.9901715358712408
 30
0.0
  0
VERTEX
  5
DA3A
  8
01_表面形状
 62
     3
 10
784.6617951864811857
 20
-58.4746780244712383
 30
0.0
  0
VERTEX
  5
DA3B
  8
01_表面形状
 62
     3
 10
784.1129395264813411
 20
-58.8906853151712468
 30
0.0
  0
VERTEX
  5
DA3C
  8
01_表面形状
 62
     3
 10
783.5444663074812297
 20
-59.1508160339713029
 30
0.0
  0
VERTEX
  5
DA3D
  8
01_表面形状
 62
     3
 10
782.9856544124809261
 20
-59.2810633896713171
 30
0.0
  0
VERTEX
  5
DA3E
  8
01_表面形状
 62
     3
 10
782.5902907477810686
 20
-59.307640697171351
 30
0.0
  0
SEQEND
  5
DA3F
  8
01_表面形状
 62
     3
  0
POLYLINE
  5
D71F
  8
01_表面形状
 62
     3
 66
     1
 10
0.0
 20
0.0
 30
0.0
 70
   128
  0
VERTEX
  5
DA40
  8
01_表面形状
 62
     3
 10
789.2974919564810534
 20
-53.4045164781712174
 30
0.0
  0
VERTEX
  5
DA41
  8
01_表面形状
 62
     3
 10
789.3057854146809404
 20
-53.348248484371311
 30
0.0
  0
VERTEX
  5
DA42
  8
01_表面形状
 62
     3
 10
789.5355565099811201
 20
-52.372261668571241
 30
0.0
  0
VERTEX
  5
DA43
  8
01_表面形状
 62
     3
 10
790.0447755542810455
 20
-51.2084336247712599
 30
0.0
  0
VERTEX
  5
DA44
  8
01_表面形状
 62
     3
 10
790.707808235581183
 20
-50.2485366628712811
 30
0.0
  0
VERTEX
  5
DA45
  8
01_表面形状
 62
     3
 10
791.6252557264813277
 20
-49.34716869207125
 30
0.0
  0
VERTEX
  5
DA46
  8
01_表面形状
 62
     3
 10
792.6424012959811307
 20
-48.679426764871323
 30
0.0
  0
VERTEX
  5
DA47
  8
01_表面形状
 62
     3
 10
794.1399979562809222
 20
-48.1081856960712528
 30
0.0
  0
VERTEX
  5
DA48
  8
01_表面形状
 62
     3
 10
795.7659030826811204
 20
-47.925833973771212
 30
0.0
  0
VERTEX
  5
DA49
  8
01_表面形状
 62
     3
 10
797.0884213402811156
 20
-48.0865415672712899
 30
0.0
  0
VERTEX
  5
DA4A
  8
01_表面形状
 62
     3
 10
798.4156275006811256
 20
-48.5498459573712822
 30
0.0
  0
VERTEX
  5
DA4B
  8
01_表面形状
 62
     3
 10
799.2599397329809108
 20
-49.0379780176713211
 30
0.0
  0
VERTEX
  5
DA4C
  8
01_表面形状
 62
     3
 10
800.0519929409811084
 20
-49.6792302647712702
 30
0.0
  0
VERTEX
  5
DA4D
  8
01_表面形状
 62
     3
 10
800.6676150480809611
 20
-50.3566867151712216
 30
0.0
  0
VERTEX
  5
DA4E
  8
01_表面形状
 62
     3
 10
801.1978554610810761
 20
-51.1446727502713117
 30
0.0
  0
VERTEX
  5
DA4F
  8
01_表面形状
 62
     3
 10
801.8676267419810983
 20
-52.8472050449712469
 30
0.0
  0
VERTEX
  5
DA50
  8
01_表面形状
 62
     3
 10
802.017703090181044
 20
-53.7963598587712113
 30
0.0
  0
VERTEX
  5
DA51
  8
01_表面形状
 62
     3
 10
802.0250898566811202
 20
-54.7748543519712712
 30
0.0
  0
VERTEX
  5
DA52
  8
01_表面形状
 62
     3
 10
801.9670837943810966
 20
-55.2998611889712492
 30
0.0
  0
VERTEX
  5
DA53
  8
01_表面形状
 62
     3
 10
801.757883655981118
 20
-56.21506946787121
 30
0.0
  0
VERTEX
  5
DA54
  8
01_表面形状
 62
     3
 10
801.4197851602809806
 20
-57.0885830589712668
 30
0.0
  0
VERTEX
  5
DA55
  8
01_表面形状
 62
     3
 10
800.8922232203810836
 20
-57.9970078098713202
 30
0.0
  0
VERTEX
  5
DA56
  8
01_表面形状
 62
     3
 10
800.2425501303811188
 20
-58.7892508234713205
 30
0.0
  0
VERTEX
  5
DA57
  8
01_表面形状
 62
     3
 10
799.5131136543808452
 20
-59.4357075676712228
 30
0.0
  0
VERTEX
  5
DA58
  8
01_表面形状
 62
     3
 10
798.7297922842810749
 20
-59.9441373124712911
 30
0.0
  0
VERTEX
  5
DA59
  8
01_表面形状
 62
     3
 10
797.721691264481251
 20
-60.3869686986712324
 30
0.0
  0
VERTEX
  5
DA5A
  8
01_表面形状
 62
     3
 10
796.7152471439811734
 20
-60.6390704863713168
 30
0.0
  0
VERTEX
  5
DA5B
  8
01_表面形状
 62
     3
 10
795.446103330780943
 20
-60.7186282468712619
 30
0.0
  0
VERTEX
  5
DA5C
  8
01_表面形状
 62
     3
 10
794.2615146261812242
 20
-60.5620597310712512
 30
0.0
  0
VERTEX
  5
DA5D
  8
01_表面形状
 62
     3
 10
792.7906235914813351
 20
-60.0308585552712515
 30
0.0
  0
VERTEX
  5
DA5E
  8
01_表面形状
 62
     3
 10
791.5306855839811533
 20
-59.1945771740712416
 30
0.0
  0
VERTEX
  5
DA5F
  8
01_表面形状
 62
     3
 10
790.567758534481186
 20
-58.1884551367712675
 30
0.0
  0
VERTEX
  5
DA60
  8
01_表面形状
 62
     3
 10
789.8113288129810599
 20
-56.9264207392712791
 30
0.0
  0
VERTEX
  5
DA61
  8
01_表面形状
 62
     3
 10
789.5282124176810612
 20
-56.1906140443712729
 30
0.0
  0
VERTEX
  5
DA62
  8
01_表面形状
 62
     3
 10
789.325862273580924
 20
-55.3538449067712008
 30
0.0
  0
VERTEX
  5
DA63
  8
01_表面形状
 62
     3
 10
789.2348963482811541
 20
-54.2543228351712514
 30
0.0
  0
VERTEX
  5
DA64
  8
01_表面形状
 62
     3
 10
789.2974919564810534
 20
-53.4045164781712174
 30
0.0
  0
SEQEND
  5
DA65
  8
01_表面形状
 62
     3
  0
LINE
  5
D720
  8
01_表面形状
 62
     3
 10
863.0923561435812417
 20
-68.404893207671293
 30
0.0
 11
863.0923561435812417
 21
-65.7824334944712064
 31
0.0
  0
LINE
  5
D721
  8
01_表面形状
 62
     3
 10
853.5009755414813526
 20
-55.8304885107712465
 30
0.0
 11
852.3923561435810825
 21
-47.9422516137631121
 31
0.0
  0
ARC
  5
D722
  8
01_表面形状
 62
     3
 10
860.4942799322810743
 20
-57.3076406971713368
 30
0.0
 40
2.0
 50
270.0
 51
329.9999999999994884
  0
ARC
  5
D723
  8
01_表面形状
 62
     3
 10
859.7937546543811322
 20
-51.3076406971713368
 30
0.0
 40
8.0
 50
248.5232243257964058
 51
270.0
  0
LINE
  5
D724
  8
01_表面形状
 62
     3
 10
860.4942799322810743
 20
-59.307640697171351
 30
0.0
 11
859.7937546543811322
 21
-59.307640697171351
 31
0.0
  0
ARC
  5
D725
  8
01_表面形状
 62
     3
 10
820.2523561435812098
 20
-151.808774043071196
 30
0.0
 40
100.0
 50
68.523224325699033
 51
69.4309953125989949
  0
POLYLINE
  5
D726
  8
01_表面形状
 62
     3
 66
     1
 10
0.0
 20
0.0
 30
0.0
 70
   128
  0
VERTEX
  5
DA66
  8
01_表面形状
 62
     3
 10
855.3858778014050586
 20
-58.1838005802220621
 30
0.0
  0
VERTEX
  5
DA67
  8
01_表面形状
 62
     3
 10
854.8936941552811959
 20
-57.93935908437129
 30
0.0
  0
VERTEX
  5
DA68
  8
01_表面形状
 62
     3
 10
854.3953711736811556
 20
-57.5545670468712771
 30
0.0
  0
VERTEX
  5
DA69
  8
01_表面形状
 62
     3
 10
853.9842066512810561
 20
-57.0681737664713182
 30
0.0
  0
VERTEX
  5
DA6A
  8
01_表面形状
 62
     3
 10
853.6773340568807953
 20
-56.4867503260712667
 30
0.0
  0
VERTEX
  5
DA6B
  8
01_表面形状
 62
     3
 10
853.5140084836810956
 20
-55.9093622972712865
 30
0.0
  0
VERTEX
  5
DA6C
  8
01_表面形状
 62
     3
 10
853.5009755414813526
 20
-55.8304885107712465
 30
0.0
  0
SEQEND
  5
DA6D
  8
01_表面形状
 62
     3
  0
LINE
  5
D727
  8
01_表面形状
 62
     3
 10
863.0923561435812417
 20
-56.0886980875222321
 30
0.0
 11
862.2263307398808365
 21
-58.3076406971713226
 31
0.0
  0
LINE
  5
D728
  8
01_表面形状
 62
     3
 10
786.7923561435809461
 20
-35.807640697171351
 30
0.0
 11
852.3923561435810825
 21
-35.807640697171351
 31
0.0
  0
LINE
  5
D729
  8
01_表面形状
 62
     3
 10
786.7923561435809461
 20
-38.8076406971713368
 30
0.0
 11
852.3923561435810825
 21
-38.8076406971713368
 31
0.0
  0
LINE
  5
D72A
  8
01_表面形状
 62
     3
 10
875.092356143581469
 20
-66.6401935588712604
 30
0.0
 11
875.092356143581469
 21
-57.8467977547712735
 31
0.0
  0
LINE
  5
D72B
  8
01_表面形状
 62
     3
 10
875.092356143581469
 20
-57.6736661009401814
 30
0.0
 11
875.092356143581469
 21
-66.6401935588713883
 31
0.0
  0
LINE
  5
D72C
  8
01_表面形状
 62
     3
 10
875.092356143581469
 20
-68.947203156771252
 30
0.0
 11
875.092356143581469
 21
-66.6401935588712604
 31
0.0
  0
LINE
  5
D72D
  8
01_表面形状
 62
     3
 10
875.092356143581469
 20
-66.6401935588713883
 30
0.0
 11
875.092356143581469
 21
-68.9472031567713657
 31
0.0
  0
LINE
  5
D72E
  8
01_表面形状
 62
     3
 10
875.092356143581469
 20
-57.8076406971713226
 30
0.0
 11
875.092356143581469
 21
-57.8467977547713872
 31
0.0
  0
LINE
  5
D72F
  8
01_表面形状
 62
     3
 10
793.0923561435807869
 20
-28.3574228306968088
 30
0.0
 11
793.0923561435807869
 21
-35.807640697171351
 31
0.0
  0
LINE
  5
D730
  8
01_表面形状
 62
     3
 10
846.0923561435809006
 20
-35.807640697171351
 30
0.0
 11
846.0923561435809006
 21
-28.3574228306965814
 31
0.0
  0
POLYLINE
  5
D731
  8
01_表面形状
 62
     3
 66
     1
 10
0.0
 20
0.0
 30
0.0
  0
VERTEX
  5
DA6E
  8
01_表面形状
 62
     3
 10
842.5420293438686485
 20
-26.3076406971713403
 30
0.0
  0
VERTEX
  5
DA6F
  8
01_表面形状
 62
     3
 10
796.6426829432937211
 20
-26.3076406971713403
 30
0.0
  0
SEQEND
  5
DA70
  8
01_表面形状
 62
     3
  0
LINE
  5
D732
  8
01_表面形状
 62
     3
 10
842.5420293438686485
 20
-26.3076406971713403
 30
0.0
 11
846.0923561435809006
 21
-28.3574228306964713
 31
0.0
  0
LINE
  5
D733
  8
01_表面形状
 62
     3
 10
832.8423561435807869
 20
-28.3574228306966916
 30
0.0
 11
832.8423561435807869
 21
-35.807640697171351
 31
0.0
  0
LINE
  5
D734
  8
01_表面形状
 62
     3
 10
806.3423561435807869
 20
-28.3574228306966916
 30
0.0
 11
806.3423561435807869
 21
-35.807640697171351
 31
0.0
  0
ARC
  5
D735
  8
01_表面形状
 62
     3
 10
839.4673561435809006
 20
-38.0387000640054111
 30
0.0
 40
11.7310593668339997
 50
55.6157525319613129
 51
124.3842474680458992
  0
ARC
  5
D736
  8
01_表面形状
 62
     3
 10
819.5923561435807869
 20
-70.1572049642171578
 30
0.0
 40
43.8495642670457499
 50
72.4120462260023459
 51
107.5879537739976968
  0
LINE
  5
D737
  8
01_表面形状
 62
     3
 10
796.6426829432932664
 20
-26.3076406971716814
 30
0.0
 11
793.0923561435807869
 21
-28.3574228306968088
 31
0.0
  0
ARC
  5
D738
  8
01_表面形状
 62
     3
 10
799.7173561435809006
 20
-38.0387000640057522
 30
0.0
 40
11.7310593668339997
 50
55.6157525319541008
 51
124.3842474680458992
  0
POLYLINE
  5
D739
  8
01_表面形状
 62
     3
 66
     1
 10
0.0
 20
0.0
 30
0.0
  0
VERTEX
  5
DA71
  8
01_表面形状
 62
     3
 10
976.0620083662786328
 20
-26.3076406971725909
 30
0.0
  0
VERTEX
  5
DA72
  8
01_表面形状
 62
     3
 10
930.1626619657040465
 20
-26.3076406971725909
 30
0.0
  0
SEQEND
  5
DA73
  8
01_表面形状
 62
     3
  0
CIRCLE
  5
D73A
  8
01_表面形状
 62
     3
 10
819.5923561435812417
 20
46.0860771746201721
 30
0.0
 40
32.8000000000000114
  0
POLYLINE
  5
D73B
  8
01_表面形状
 62
     3
 66
     1
 10
0.0
 20
0.0
 30
0.0
 70
     1
  0
VERTEX
  5
DA74
  8
01_表面形状
 62
     3
 10
793.0923561435812417
 20
46.0860771746201721
 30
0.0
  0
VERTEX
  5
DA75
  8
01_表面形状
 62
     3
 10
806.342356143581128
 20
23.1364039743325485
 30
0.0
  0
VERTEX
  5
DA76
  8
01_表面形状
 62
     3
 10
832.8423561435813554
 20
23.1364039743325485
 30
0.0
  0
VERTEX
  5
DA77
  8
01_表面形状
 62
     3
 10
846.0923561435813554
 20
46.0860771746201721
 30
0.0
  0
VERTEX
  5
DA78
  8
01_表面形状
 62
     3
 10
832.8423561435813554
 20
69.0357503749078205
 30
0.0
  0
VERTEX
  5
DA79
  8
01_表面形状
 62
     3
 10
806.342356143581128
 20
69.0357503749078205
 30
0.0
  0
SEQEND
  5
DA7A
  8
01_表面形状
 62
     3
  0
CIRCLE
  5
D73C
  8
01_表面形状
 62
     3
 10
819.5923561435812417
 20
46.0860771746201721
 30
0.0
 40
22.9496732002876414
  0
POLYLINE
  5
D73D
  8
01_表面形状
 62
     3
 66
     1
 10
0.0
 20
0.0
 30
0.0
 70
     1
  0
VERTEX
  5
DA7B
  8
01_表面形状
 62
     3
 10
792.7386018127223224
 20
-59.3164965876346528
 30
0.0
  0
VERTEX
  5
DA7C
  8
01_表面形状
 62
     3
 10
798.5121045046183781
 20
-59.316496587634667
 30
0.0
  0
VERTEX
  5
DA7D
  8
01_表面形状
 62
     3
 10
801.3988558505666333
 20
-54.316496587634667
 30
0.0
  0
VERTEX
  5
DA7E
  8
01_表面形状
 62
     3
 10
798.5121045046183781
 20
-49.3164965876346102
 30
0.0
  0
VERTEX
  5
DA7F
  8
01_表面形状
 62
     3
 10
792.7386018127223224
 20
-49.3164965876346102
 30
0.0
  0
VERTEX
  5
DA80
  8
01_表面形状
 62
     3
 10
789.8518504667742945
 20
-54.3164965876346102
 30
0.0
  0
SEQEND
  5
DA81
  8
01_表面形状
 62
     3
  0
CIRCLE
  5
D73E
  8
01_表面形状
 62
     3
 10
795.6253531586702366
 20
-54.316496587634667
 30
0.0
 40
4.9999999999999867
  0
LINE
  5
D73F
  8
01_表面形状
 62
     3
 10
795.5923561435812417
 20
11.87607717462026
 30
0.0
 11
800.6178738602236535
 21
11.87607717462026
 31
0.0
  0
ARC
  5
D740
  8
01_表面形状
 62
     3
 10
799.9227318165536644
 20
12.4938323368492092
 30
0.0
 40
2.555270833107417
 50
55.6005266119040726
 51
124.3994733880958989
  0
ARC
  5
D741
  8
01_表面形状
 62
     3
 10
799.9227318165551424
 20
14.4313480077279301
 30
0.0
 40
2.555270833107417
 50
235.6005266119040868
 51
304.3994733880959984
  0
LINE
  5
D742
  8
01_表面形状
 62
     3
 10
800.5923561435809006
 20
11.8760771746204892
 30
0.0
 11
790.592356143581128
 21
11.8760771746203808
 31
0.0
  0
LINE
  5
D743
  8
01_表面形状
 62
     3
 10
800.5923561435809006
 20
11.8760771746203808
 30
0.0
 11
790.592356143581128
 21
11.87607717462026
 31
0.0
  0
ARC
  5
D744
  8
01_表面形状
 62
     3
 10
791.2619804706059767
 20
12.4938323368490902
 30
0.0
 40
2.555270833107417
 50
55.6005266119040726
 51
124.3994733880958989
  0
ARC
  5
D745
  8
01_表面形状
 62
     3
 10
795.5923561435796501
 20
5.5015363614251367
 30
0.0
 40
9.54756680853143
 50
72.4009153227637938
 51
107.5990846772362062
  0
LINE
  5
D748
  8
01_表面形状
 62
     3
 10
790.592356143581128
 20
11.8760771746203808
 30
0.0
 11
789.8183561435808997
 21
12.3229462829729108
 31
0.0
  0
ARC
  5
D749
  8
01_表面形状
 62
     3
 10
791.2619804706068862
 20
14.43134800772782
 30
0.0
 40
2.555270833107417
 50
235.6005266119040868
 51
304.3994733880959984
  0
ARC
  5
D74A
  8
01_表面形状
 62
     3
 10
795.5923561435809006
 20
21.4236439831517984
 30
0.0
 40
9.54756680853143
 50
252.400915322763808
 51
287.599084677236192
  0
LINE
  5
D74B
  8
01_表面形状
 62
     3
 10
800.5923561435809006
 20
11.8760771746204892
 30
0.0
 11
801.3663561435812426
 21
12.3229462829734704
 31
0.0
  0
LINE
  5
D74C
  8
01_表面形状
 62
     3
 10
801.365858835477411
 20
12.3226058618536101
 30
0.0
 11
801.365858835477411
 21
14.6025744827225008
 31
0.0
  0
LINE
  5
D74D
  8
01_表面形状
 62
     3
 10
798.4791074895292695
 20
12.3229462829732501
 30
0.0
 11
798.4791074895292695
 21
14.6022340616046904
 31
0.0
  0
LINE
  5
D74E
  8
01_表面形状
 62
     3
 10
792.7056047976328728
 20
12.3229462829731293
 30
0.0
 11
792.7056047976328728
 21
14.6022340616029798
 31
0.0
  0
LINE
  5
D74F
  8
01_表面形状
 62
     3
 10
789.8188534516847312
 20
12.3226058618534999
 30
0.0
 11
789.8188534516847312
 21
14.6025744827239805
 31
0.0
  0
LINE
  5
D750
  8
01_表面形状
 62
     3
 10
801.3658588354821859
 20
14.6025744827190902
 30
0.0
 11
799.8823561435810916
 21
16.0860771746203
 31
0.0
  0
LINE
  5
D751
  8
01_表面形状
 62
     3
 10
789.8188534516847312
 20
14.6025744827239805
 30
0.0
 11
791.302356143580937
 21
16.0860771746203
 31
0.0
  0
LINE
  5
D752
  8
04_中心線
 62
   110
 10
795.592356143581128
 20
21.9894408936077106
 30
0.0
 11
795.5923561435812417
 21
9.3723029084096652
 31
0.0
  0
LINE
  5
D753
  8
01_表面形状
 62
     3
 10
918.9023351659911896
 20
-49.30764069717182
 30
0.0
 11
918.9023351659914169
 21
-57.9749229224438096
 31
0.0
  0
LINE
  5
D754
  8
01_表面形状
 62
     3
 10
918.9023351659914169
 20
-57.9749229224433122
 30
0.0
 11
918.9023351659911896
 21
-49.3076406971715926
 31
0.0
  0
LINE
  5
D755
  8
01_表面形状
 62
     3
 10
918.9023351659911896
 20
-49.3076406971713581
 30
0.0
 11
920.1204422445323416
 21
-49.3076406971713581
 31
0.0
  0
LINE
  5
D756
  8
01_表面形状
 62
     3
 10
918.9023351659911896
 20
-49.30764069717182
 30
0.0
 11
918.9023351659914169
 21
-57.9749229224438096
 31
0.0
  0
LINE
  5
D757
  8
01_表面形状
 62
     3
 10
918.9023351659914169
 20
-57.9749229224433122
 30
0.0
 11
918.9023351659911896
 21
-49.3076406971715926
 31
0.0
  0
LINE
  5
D758
  8
01_表面形状
 62
     3
 10
918.9023351659911896
 20
-49.3076406971713581
 30
0.0
 11
920.1204422445323416
 21
-49.3076406971713581
 31
0.0
  0
ARC
  5
D759
  8
01_表面形状
 62
     3
 10
926.1149532883777056
 20
-56.8076406971714789
 30
0.0
 40
7.2128607168649781
 50
159.720313315615897
 51
186.5993801024993104
  0
ARC
  5
D75A
  8
01_表面形状
 62
     3
 10
926.1177084342302805
 20
-51.8076406971714789
 30
0.0
 40
7.2154451395875938
 50
159.7278962371491957
 51
200.2721037628508043
  0
LINE
  5
D75B
  8
04_中心線
 62
   110
 10
916.279328372369946
 20
-54.307640697171351
 30
0.0
 11
929.0040866342571917
 21
-54.307640697171351
 31
0.0
  0
POLYLINE
  5
D75C
  8
01_表面形状
 62
     3
 66
     1
 10
0.0
 20
0.0
 30
0.0
 70
     1
  0
VERTEX
  5
DA82
  8
01_表面形状
 62
     3
 10
783.8734135339321938
 20
-91.8076406971715215
 30
0.0
  0
VERTEX
  5
DA83
  8
01_表面形状
 62
     3
 10
783.8734135339321938
 20
-91.8076406971715215
 30
0.0
  0
SEQEND
  5
DA84
  8
01_表面形状
 62
     3
  0
POLYLINE
  5
D75D
  8
01_表面形状
 62
     3
 66
     1
 10
0.0
 20
0.0
 30
0.0
 70
     1
  0
VERTEX
  5
DA85
  8
01_表面形状
 62
     3
 10
819.5923561435812417
 20
-127.5265833068202994
 30
0.0
  0
VERTEX
  5
DA86
  8
01_表面形状
 62
     3
 10
819.5923561435812417
 20
-127.5265833068202994
 30
0.0
  0
SEQEND
  5
DA87
  8
01_表面形状
 62
     3
  0
POLYLINE
  5
D75E
  8
01_表面形状
 62
     3
 66
     1
 10
0.0
 20
0.0
 30
0.0
 70
     1
  0
VERTEX
  5
DA88
  8
01_表面形状
 62
     3
 10
927.8552286298954641
 20
-117.0647472332672976
 30
0.0
  0
VERTEX
  5
DA89
  8
01_表面形状
 62
     3
 10
953.112335165991567
 20
-127.5265833068202994
 30
0.0
  0
VERTEX
  5
DA8A
  8
01_表面形状
 62
     3
 10
978.3694417020875562
 20
-117.0647472332669992
 30
0.0
  0
VERTEX
  5
DA8B
  8
01_表面形状
 62
     3
 10
988.8312777756403875
 20
-91.8076406971711236
 30
0.0
  0
VERTEX
  5
DA8C
  8
01_表面形状
 62
     3
 10
978.3694417020871015
 20
-66.5505341610752339
 30
0.0
  0
VERTEX
  5
DA8D
  8
01_表面形状
 62
     3
 10
953.1123351659912259
 20
-56.0886980875222889
 30
0.0
  0
VERTEX
  5
DA8E
  8
01_表面形状
 62
     3
 10
927.8552286298953504
 20
-66.5505341610754755
 30
0.0
  0
VERTEX
  5
DA8F
  8
01_表面形状
 62
     3
 10
917.3933925563422918
 20
-91.8076406971715215
 30
0.0
  0
SEQEND
  5
DA90
  8
01_表面形状
 62
     3
  0
CIRCLE
  5
D75F
  8
01_表面形状
 62
     3
 10
953.1123351659912259
 20
-91.8076406971712942
 30
0.0
 40
28.3280029999999989
  0
CIRCLE
  5
D760
  8
01_表面形状
 62
     3
 10
953.1123351659912259
 20
-91.8076406971712942
 30
0.0
 40
29.8070069999999987
  0
LINE
  5
D761
  8
01_表面形状
 62
     3
 10
765.092356143581128
 20
-56.0886980875222321
 30
0.0
 11
777.092356143581128
 21
-56.0886980875222321
 31
0.0
  0
LINE
  5
D762
  8
01_表面形状
 62
     3
 10
863.0923561435812417
 20
-56.0886980875222321
 30
0.0
 11
875.092356143581469
 21
-56.0886980875222321
 31
0.0
  0
LINE
  5
D763
  8
01_表面形状
 62
     3
 10
765.092356143581128
 20
-66.5505341610754755
 30
0.0
 11
777.092356143581128
 21
-66.5505341610754755
 31
0.0
  0
LINE
  5
D764
  8
01_表面形状
 62
     3
 10
863.0923561435812417
 20
-66.5505341610754755
 30
0.0
 11
875.092356143581469
 21
-66.5505341610754755
 31
0.0
  0
LINE
  5
D765
  8
01_表面形状
 62
     3
 10
765.092356143581128
 20
-117.0647472332672976
 30
0.0
 11
777.092356143581128
 21
-117.0647472332672976
 31
0.0
  0
LINE
  5
D766
  8
01_表面形状
 62
     3
 10
863.0923561435812417
 20
-117.0647472332672976
 30
0.0
 11
875.092356143581469
 21
-117.0647472332672976
 31
0.0
  0
LINE
  5
D767
  8
01_表面形状
 62
     3
 10
765.092356143581128
 20
-127.5265833068202994
 30
0.0
 11
777.092356143581128
 21
-127.5265833068201999
 31
0.0
  0
LINE
  5
D768
  8
01_表面形状
 62
     3
 10
863.0923561435812417
 20
-127.5265833068202994
 30
0.0
 11
875.092356143581469
 21
-127.5265833068202994
 31
0.0
  0
LINE
  5
D769
  8
01_表面形状
 62
     3
 10
875.092356143581469
 20
-56.0886980875222605
 30
0.0
 11
875.092356143581469
 21
-127.5265833068202994
 31
0.0
  0
LINE
  5
D76A
  8
01_表面形状
 62
     3
 10
863.0923561435812417
 20
-56.0886980875222321
 30
0.0
 11
863.0923561435812417
 21
-127.5265833068202994
 31
0.0
  0
LINE
  5
D76B
  8
01_表面形状
 62
     3
 10
777.092356143581128
 20
-56.0886980875222321
 30
0.0
 11
777.092356143581128
 21
-127.5265833068202994
 31
0.0
  0
LINE
  5
D76C
  8
01_表面形状
 62
     3
 10
765.092356143581128
 20
-56.0886980875222321
 30
0.0
 11
765.092356143581128
 21
-127.5265833068202994
 31
0.0
  0
LINE
  5
D76D
  8
01_表面形状
 62
     3
 10
765.092356143581128
 20
47.71737930562022
 30
0.0
 11
765.092356143581128
 21
68.9465147150202142
 31
0.0
  0
LINE
  5
D76E
  8
01_表面形状
 62
     3
 10
765.092356143581128
 20
23.2256396342202684
 30
0.0
 11
765.092356143581128
 21
44.4547750436201312
 31
0.0
  0
LINE
  5
D76F
  8
01_表面形状
 62
     3
 10
777.092356143581128
 20
22.68332968512021
 30
0.0
 11
777.092356143581128
 21
20.0608699719202193
 31
0.0
  0
LINE
  5
D770
  8
01_表面形状
 62
     3
 10
765.092356143581128
 20
11.9521025783889705
 30
0.0
 11
765.092356143581128
 21
20.9186300363201703
 31
0.0
  0
LINE
  5
D771
  8
01_表面形状
 62
     3
 10
765.092356143581128
 20
20.9186300363201703
 30
0.0
 11
765.092356143581128
 21
23.2256396342202684
 31
0.0
  0
LINE
  5
D772
  8
01_表面形状
 62
     3
 10
765.092356143581128
 20
80.2200517708512848
 30
0.0
 11
765.092356143581128
 21
71.2535243129200921
 31
0.0
  0
LINE
  5
D773
  8
01_表面形状
 62
     3
 10
765.092356143581128
 20
71.2535243129201916
 30
0.0
 11
765.092356143581128
 21
80.0469201170201927
 31
0.0
  0
LINE
  5
D774
  8
01_表面形状
 62
     3
 10
777.092356143581128
 20
72.1112843773202599
 30
0.0
 11
777.092356143581128
 21
69.4888246641201448
 31
0.0
  0
LINE
  5
D775
  8
01_表面形状
 62
     3
 10
765.092356143581128
 20
71.2535243129200921
 30
0.0
 11
765.092356143581128
 21
68.9465147150201005
 31
0.0
  0
LINE
  5
D776
  8
01_表面形状
 62
     3
 10
765.092356143581128
 20
68.9465147150202142
 30
0.0
 11
765.092356143581128
 21
71.2535243129201916
 31
0.0
  0
LINE
  5
D777
  8
01_表面形状
 62
     3
 10
765.092356143581128
 20
80.0860771746201152
 30
0.0
 11
765.092356143581128
 21
80.046920117020079
 31
0.0
  0
LINE
  5
D778
  8
01_表面形状
 62
     3
 10
875.092356143581469
 20
47.71737930562022
 30
0.0
 11
875.092356143581469
 21
68.9465147150202142
 31
0.0
  0
LINE
  5
D779
  8
01_表面形状
 62
     3
 10
875.092356143581469
 20
23.2256396342202684
 30
0.0
 11
875.092356143581469
 21
44.4547750436201312
 31
0.0
  0
LINE
  5
D77A
  8
01_表面形状
 62
     3
 10
875.092356143581469
 20
11.9521025783889705
 30
0.0
 11
875.092356143581469
 21
20.9186300363201703
 31
0.0
  0
LINE
  5
D77B
  8
01_表面形状
 62
     3
 10
875.092356143581469
 20
12.0860771746202396
 30
0.0
 11
875.092356143581469
 21
12.1252342322201798
 31
0.0
  0
LINE
  5
D77C
  8
01_表面形状
 62
     3
 10
875.092356143581469
 20
20.9186300363201703
 30
0.0
 11
875.092356143581469
 21
23.2256396342202684
 31
0.0
  0
LINE
  5
D77D
  8
01_表面形状
 62
     3
 10
863.0923561435812417
 20
69.4888246641201448
 30
0.0
 11
863.0923561435812417
 21
72.1112843773202599
 31
0.0
  0
LINE
  5
D77E
  8
01_表面形状
 62
     3
 10
875.092356143581469
 20
71.2535243129201916
 30
0.0
 11
875.092356143581469
 21
80.0469201170201927
 31
0.0
  0
LINE
  5
D77F
  8
01_表面形状
 62
     3
 10
875.092356143581469
 20
80.2200517708512848
 30
0.0
 11
875.092356143581469
 21
71.2535243129200921
 31
0.0
  0
LINE
  5
D780
  8
01_表面形状
 62
     3
 10
875.092356143581469
 20
68.9465147150202142
 30
0.0
 11
875.092356143581469
 21
71.2535243129201916
 31
0.0
  0
LINE
  5
D781
  8
01_表面形状
 62
     3
 10
875.092356143581469
 20
71.2535243129200921
 30
0.0
 11
875.092356143581469
 21
68.9465147150201005
 31
0.0
  0
LINE
  5
D782
  8
01_表面形状
 62
     3
 10
875.092356143581469
 20
80.0860771746201152
 30
0.0
 11
875.092356143581469
 21
80.046920117020079
 31
0.0
  0
LINE
  5
D783
  8
01_表面形状
 62
     3
 10
765.092356143581128
 20
81.8050197842692342
 30
0.0
 11
777.092356143581128
 21
81.8050197842692342
 31
0.0
  0
LINE
  5
D784
  8
01_表面形状
 62
     3
 10
863.0923561435812417
 20
81.8050197842692342
 30
0.0
 11
875.092356143581469
 21
81.8050197842692342
 31
0.0
  0
LINE
  5
D785
  8
01_表面形状
 62
     3
 10
765.092356143581128
 20
71.3431837107159481
 30
0.0
 11
777.092356143581128
 21
71.3431837107159481
 31
0.0
  0
LINE
  5
D786
  8
01_表面形状
 62
     3
 10
863.0923561435812417
 20
71.3431837107159481
 30
0.0
 11
875.092356143581469
 21
71.3431837107159481
 31
0.0
  0
LINE
  5
D787
  8
01_表面形状
 62
     3
 10
765.092356143581128
 20
20.8289706385241402
 30
0.0
 11
777.092356143581128
 21
20.8289706385241402
 31
0.0
  0
LINE
  5
D788
  8
01_表面形状
 62
     3
 10
863.0923561435812417
 20
20.8289706385241402
 30
0.0
 11
875.092356143581469
 21
20.8289706385241402
 31
0.0
  0
LINE
  5
D789
  8
01_表面形状
 62
     3
 10
765.092356143581128
 20
10.3671345649711899
 30
0.0
 11
777.092356143581128
 21
10.3671345649711899
 31
0.0
  0
LINE
  5
D78A
  8
01_表面形状
 62
     3
 10
863.0923561435812417
 20
10.3671345649711899
 30
0.0
 11
875.092356143581469
 21
10.3671345649711899
 31
0.0
  0
LINE
  5
D78B
  8
01_表面形状
 62
     3
 10
875.092356143581469
 20
81.8050197842692342
 30
0.0
 11
875.092356143581469
 21
10.3671345649711402
 31
0.0
  0
LINE
  5
D78C
  8
01_表面形状
 62
     3
 10
863.0923561435812417
 20
81.8050197842692342
 30
0.0
 11
863.0923561435812417
 21
10.3671345649711899
 31
0.0
  0
LINE
  5
D78D
  8
01_表面形状
 62
     3
 10
777.092356143581128
 20
81.8050197842692342
 30
0.0
 11
777.092356143581128
 21
10.3671345649711899
 31
0.0
  0
LINE
  5
D78E
  8
01_表面形状
 62
     3
 10
765.092356143581128
 20
81.8050197842692342
 30
0.0
 11
765.092356143581128
 21
10.3671345649711899
 31
0.0
  0
LINE
  5
D78F
  8
01_表面形状
 62
     3
 10
930.162661965703478
 20
-26.3076406971725909
 30
0.0
 11
930.162661965703478
 21
-35.8076406971726016
 31
0.0
  0
LINE
  5
D790
  8
01_表面形状
 62
     3
 10
976.0620083662793149
 20
-26.3076406971725909
 30
0.0
 11
976.0620083662793149
 21
-35.8076406971726016
 31
0.0
  0
ARC
  5
D791
  8
01_表面形状
 62
     3
 10
941.6374985658476362
 20
-59.4510358604774183
 30
0.0
 40
33.1433952130079419
 50
69.7438415185731344
 51
110.2561584814267945
  0
ARC
  5
D792
  8
01_表面形状
 62
     3
 10
964.5871717661351568
 20
-59.4070796366517868
 30
0.0
 40
33.1021609984528027
 50
69.7175002800049413
 51
110.2824997199950019
  0
LINE
  5
D793
  8
01_表面形状
 62
     3
 10
953.1123351659909986
 20
-28.3574228306984786
 30
0.0
 11
953.1123351659912259
 21
-35.8076406971726016
 31
0.0
  0
LINE
  5
D794
  8
01_表面形状
 62
     3
 10
863.0923561435812417
 20
-91.8076406971712657
 30
0.0
 11
875.092356143581469
 21
-91.8076406971712657
 31
0.0
  0
LINE
  5
D795
  8
01_表面形状
 62
     3
 10
765.092356143581128
 20
-91.8076406971712657
 30
0.0
 11
777.092356143581128
 21
-91.8076406971712657
 31
0.0
  0
LINE
  5
D796
  8
01_表面形状
 62
     3
 10
863.0923561435812417
 20
46.0860771746201721
 30
0.0
 11
875.092356143581469
 21
46.0860771746201721
 31
0.0
  0
LINE
  5
D797
  8
01_表面形状
 62
     3
 10
765.092356143581128
 20
46.0860771746201721
 30
0.0
 11
777.092356143581128
 21
46.0860771746201721
 31
0.0
  0
TEXT
  5
D798
  8
12_文字
 62
   110
 10
765.011843356715076
 20
-166.181074344219212
 30
0.0
 40
4.1671809999999976
  1
        SWING CHECK VALVE 2
 41
0.947635
  7
MX_NOTE_STANDARD
 11
765.011843356715076
 21
-164.0974838442191981
 31
0.0
 73
     2
  0
TEXT
  5
D799
  8
12_文字
 62
   110
 10
764.9874313567152058
 20
-182.1810743442190983
 30
0.0
 40
4.1671809999999976
  1
TOA
 41
0.9124859999999999
  7
MX_NOTE_STANDARD
 11
764.9874313567152058
 21
-180.0974838442191981
 31
0.0
 73
     2
  0
TEXT
  5
D79A
  8
12_文字
 62
   110
 10
765.072367356714949
 20
-174.1810743442190983
 30
0.0
 40
4.1671809999999976
  1
FIG   TS2
 41
1.034777999999998
  7
MX_NOTE_STANDARD
 11
765.072367356714949
 21
-172.0974838442191128
 31
0.0
 73
     2
  0
TEXT
  5
D79B
  8
12_文字
 62
   110
 10
764.9895723567151435
 20
-158.181074344219212
 30
0.0
 40
4.1671809999999976
  1
NAME  CLASS 125 CAST BRASS
 41
0.9155689999999999
  7
MX_NOTE_STANDARD
 11
764.9895723567151435
 21
-156.0974838442191981
 31
0.0
 73
     2
  0
LINE
  5
D79C
  8
01_表面形状
 62
     3
 10
920.3123351659910441
 20
-35.8076406971726016
 30
0.0
 11
985.9123351659911805
 21
-35.8076406971726016
 31
0.0
  0
LINE
  5
D79D
  8
01_表面形状
 62
     3
 10
920.3123351659910441
 20
-38.8076406971726016
 30
0.0
 11
985.9123351659911805
 21
-38.8076406971726016
 31
0.0
  0
LINE
  5
D950
  8
01_表面形状
 62
     3
 10
828.6293863817985539
 20
-87.8076407246609563
 30
0.0
 11
828.6318429833510208
 21
-87.8076407246609563
 31
0.0
  0
LINE
  5
D951
  8
01_表面形状
 62
     3
 10
826.160135110308488
 20
-94.8076406765538735
 30
0.0
 11
830.3365159836581597
 21
-94.807640676554314
 31
0.0
  0
LINE
  5
D952
  8
01_表面形状
 62
     3
 10
827.7313096647825432
 20
-93.8076406834263992
 30
0.0
 11
829.3365159905304154
 21
-93.8076406834267402
 31
0.0
  0
LINE
  5
D953
  8
01_表面形状
 62
     3
 10
828.6293863817985539
 20
-89.8076407109160471
 30
0.0
 11
828.6318429833501114
 21
-89.8076407109160471
 31
0.0
  0
LINE
  5
D954
  8
01_表面形状
 62
     3
 10
825.2756919359717358
 20
-90.3810209823795958
 30
0.0
 11
824.1589331173619257
 21
-94.5488216332302045
 31
0.0
  0
LINE
  5
D955
  8
01_表面形状
 62
     3
 10
827.2075435752725525
 20
-90.8986590690272749
 30
0.0
 11
826.7653838451319643
 21
-92.548821646975
 31
0.0
  0
LINE
  5
D956
  8
01_表面形状
 62
     3
 10
826.160135110308488
 20
-94.8076406765538735
 30
0.0
 11
826.0907847566637656
 21
-95.0664597198780115
 31
0.0
  0
LINE
  5
D957
  8
01_表面形状
 62
     3
 10
832.3365159699131937
 20
-91.2796407008001296
 30
0.0
 11
832.3365159699131937
 21
-94.807640676554314
 31
0.0
  0
LINE
  5
D958
  8
01_表面形状
 62
     3
 10
830.3365159836581597
 20
-91.2796407008001296
 30
0.0
 11
830.3365159836581597
 21
-92.8076406902990385
 31
0.0
  0
ARC
  5
D959
  8
01_表面形状
 62
     3
 10
825.1248589370128457
 20
-94.8076406765538735
 30
0.0
 40
0.999999993127567
 50
165.0000000000023874
 51
344.9999999999881766
  0
ARC
  5
D95A
  8
01_表面形状
 62
     3
 10
831.3365159767851083
 20
-94.807640676554314
 30
0.0
 40
0.999999993127567
 50
180.0
 51
0.0
  0
ARC
  5
D95B
  8
01_表面形状
 62
     3
 10
827.7313096647825432
 20
-92.8076406902988822
 30
0.0
 40
0.999999993127567
 50
165.0000000000023874
 51
270.0
  0
ARC
  5
D95C
  8
01_表面形状
 62
     3
 10
829.3365159905304154
 20
-92.8076406902991238
 30
0.0
 40
0.999999993127567
 50
270.0
 51
0.0000000000032569
  0
LINE
  5
D95D
  8
01_表面形状
 62
     3
 10
807.848196310377034
 20
-89.8076407109155781
 30
0.0
 11
808.8689427481940584
 21
-89.8076407109155781
 31
0.0
  0
LINE
  5
D95E
  8
01_表面形状
 62
     3
 10
812.4886787956731951
 20
-89.8076407109155781
 30
0.0
 11
814.0598533501482734
 21
-89.8076407109155781
 31
0.0
  0
ARC
  5
D95F
  8
01_表面形状
 62
     3
 10
812.4886787956731951
 20
-90.8076407040432656
 30
0.0
 40
0.999999993127567
 50
90.0
 51
165.0000000000015916
  0
ARC
  5
D960
  8
01_表面形状
 62
     3
 10
808.8689427481940584
 20
-90.4076407067922361
 30
0.0
 40
0.5999999958765401
 50
345.0000000000015916
 51
90.0
  0
ARC
  5
D961
  8
01_表面形状
 62
     3
 10
828.7276042355849768
 20
-91.4076406999198667
 30
0.0
 40
3.5999999752592409
 50
89.9290824560212769
 51
165.3312556800414939
  0
ARC
  5
D962
  8
01_表面形状
 62
     3
 10
828.7365159946538142
 20
-91.4076406999198667
 30
0.0
 40
3.5999999752592409
 50
359.9999999999902229
 51
90.0709175439656633
  0
ARC
  5
D963
  8
01_表面形状
 62
     3
 10
828.7276042355855452
 20
-91.4076406999201936
 30
0.0
 40
1.5999999890041059
 50
89.8404353605604769
 51
165.4968843844488049
  0
ARC
  5
D964
  8
01_表面形状
 62
     3
 10
828.7365159946538142
 20
-91.4076406999201936
 30
0.0
 40
1.5999999890041059
 50
0.0
 51
90.1595646394394947
  0
LINE
  5
D965
  8
01_表面形状
 62
     3
 10
819.2030634412692507
 20
-87.8076407246609563
 30
0.0
 11
821.5951548165670602
 21
-87.8076407246609563
 31
0.0
  0
LINE
  5
D966
  8
01_表面形状
 62
     3
 10
817.4248336521354759
 20
-95.8076406696815042
 30
0.0
 11
819.8169250274338538
 21
-95.8076406696815042
 31
0.0
  0
LINE
  5
D967
  8
01_表面形状
 62
     3
 10
818.7207548982072467
 20
-94.8076406765538735
 30
0.0
 11
818.9351142506790211
 21
-94.8076406765538735
 31
0.0
  0
ARC
  5
D968
  8
01_表面形状
 62
     3
 10
818.9351142506790211
 20
-92.4076406930477674
 30
0.0
 40
2.3999999835061598
 50
270.0
 51
345.0000000000023874
  0
LINE
  5
D969
  8
01_表面形状
 62
     3
 10
819.2030634412692507
 20
-87.8076407246609563
 30
0.0
 11
821.5951548165670602
 21
-87.8076407246609563
 31
0.0
  0
ARC
  5
D96A
  8
01_表面形状
 62
     3
 10
821.5951548165670602
 20
-90.2076407081671476
 30
0.0
 40
2.3999999835061598
 50
345.0000000000015916
 51
90.0
  0
ARC
  5
D96B
  8
01_表面形状
 62
     3
 10
819.2030634412692507
 20
-91.4076406999201936
 30
0.0
 40
3.5999999752592409
 50
90.0
 51
165.0000000000015916
  0
LINE
  5
D96C
  8
01_表面形状
 62
     3
 10
820.0848742180236286
 20
-88.8076407177885017
 30
0.0
 11
820.2992335704946072
 21
-88.8076407177885017
 31
0.0
  0
ARC
  5
D96D
  8
01_表面形状
 62
     3
 10
820.0848742180236286
 20
-91.2076407012945936
 30
0.0
 40
2.3999999835061598
 50
90.0
 51
165.0000000000015916
  0
LINE
  5
D96E
  8
01_表面形状
 62
     3
 10
815.7257304905260753
 20
-90.4758921439545247
 30
0.0
 11
815.1066116849731316
 21
-92.786474982198385
 31
0.0
  0
ARC
  5
D96F
  8
01_表面形状
 62
     3
 10
817.4248336521354759
 20
-93.4076406861753412
 30
0.0
 40
2.3999999835061598
 50
165.0000000000015916
 51
270.0
  0
LINE
  5
D970
  8
01_表面形状
 62
     3
 10
817.7666522508618527
 20
-90.5864749973171968
 30
0.0
 11
817.1752735867668207
 21
-92.7935302182314814
 31
0.0
  0
ARC
  5
D971
  8
01_表面形状
 62
     3
 10
818.7207548982072467
 20
-93.2076406875498691
 30
0.0
 40
1.5999999890041059
 50
165.0000000000015916
 51
270.0
  0
LINE
  5
D972
  8
01_表面形状
 62
     3
 10
823.9133767837294045
 20
-90.8288064121442744
 30
0.0
 11
823.2942579781766881
 21
-93.1393892503881204
 31
0.0
  0
ARC
  5
D973
  8
01_表面形状
 62
     3
 10
819.8169250274338538
 20
-92.2076406944222242
 30
0.0
 40
3.5999999752592409
 50
270.0
 51
345.0000000000015916
  0
LINE
  5
D974
  8
01_表面形状
 62
     3
 10
821.8447148819360564
 20
-90.8217511761107232
 30
0.0
 11
821.2533362178412517
 21
-93.0288063970248373
 31
0.0
  0
ARC
  5
D975
  8
01_表面形状
 62
     3
 10
820.2992335704946072
 20
-90.4076407067926766
 30
0.0
 40
1.5999999890041059
 50
345.0000000000023874
 51
90.0
  0
LINE
  5
D976
  8
01_表面形状
 62
     3
 10
828.6293863817985539
 20
-87.8076407246609563
 30
0.0
 11
828.6318429833510208
 21
-87.8076407246609563
 31
0.0
  0
LINE
  5
D977
  8
01_表面形状
 62
     3
 10
826.160135110308488
 20
-94.8076406765538735
 30
0.0
 11
830.3365159836581597
 21
-94.807640676554314
 31
0.0
  0
LINE
  5
D978
  8
01_表面形状
 62
     3
 10
827.7313096647825432
 20
-93.8076406834263992
 30
0.0
 11
829.3365159905304154
 21
-93.8076406834267402
 31
0.0
  0
LINE
  5
D979
  8
01_表面形状
 62
     3
 10
828.6293863817985539
 20
-89.8076407109160471
 30
0.0
 11
828.6318429833501114
 21
-89.8076407109160471
 31
0.0
  0
LINE
  5
D97A
  8
01_表面形状
 62
     3
 10
825.250271284841574
 20
-90.4758921439541979
 30
0.0
 11
824.1589331173619257
 21
-94.5488216332302045
 31
0.0
  0
LINE
  5
D97B
  8
01_表面形状
 62
     3
 10
827.2075435752725525
 20
-90.8986590690272749
 30
0.0
 11
826.7653838451319643
 21
-92.5488216469750853
 31
0.0
  0
LINE
  5
D97C
  8
01_表面形状
 62
     3
 10
826.160135110308488
 20
-94.8076406765538735
 30
0.0
 11
826.0907847566637656
 21
-95.0664597198780115
 31
0.0
  0
LINE
  5
D97D
  8
01_表面形状
 62
     3
 10
832.3365159699131937
 20
-91.2796407008001296
 30
0.0
 11
832.3365159699131937
 21
-94.807640676554513
 31
0.0
  0
LINE
  5
D97E
  8
01_表面形状
 62
     3
 10
830.3365159836581597
 20
-91.4076406999201936
 30
0.0
 11
830.3365159836581597
 21
-92.8076406902990385
 31
0.0
  0
ARC
  5
D97F
  8
01_表面形状
 62
     3
 10
825.1248589370128457
 20
-94.8076406765538735
 30
0.0
 40
0.999999993127567
 50
165.0000000000023874
 51
344.9999999999881766
  0
ARC
  5
D980
  8
01_表面形状
 62
     3
 10
831.3365159767851083
 20
-94.807640676554314
 30
0.0
 40
0.999999993127567
 50
180.0
 51
0.0
  0
ARC
  5
D981
  8
01_表面形状
 62
     3
 10
827.7313096647825432
 20
-92.8076406902988822
 30
0.0
 40
0.999999993127567
 50
165.0000000000023874
 51
270.0
  0
ARC
  5
D982
  8
01_表面形状
 62
     3
 10
829.3365159905304154
 20
-92.8076406902992659
 30
0.0
 40
0.999999993127567
 50
270.0
 51
0.0000000000032569
  0
ARC
  5
D983
  8
01_表面形状
 62
     3
 10
828.7276042355849768
 20
-91.4076406999198667
 30
0.0
 40
3.5999999752592409
 50
89.9290824560212769
 51
165.3312556800414939
  0
ARC
  5
D984
  8
01_表面形状
 62
     3
 10
828.7365159946538142
 20
-91.4076406999198667
 30
0.0
 40
3.5999999752592409
 50
359.9999999999902229
 51
90.0709175439656633
  0
ARC
  5
D985
  8
01_表面形状
 62
     3
 10
828.7276042355855452
 20
-91.4076406999201936
 30
0.0
 40
1.5999999890041059
 50
89.8404353605604769
 51
165.4968843844488049
  0
ARC
  5
D986
  8
01_表面形状
 62
     3
 10
828.7365159946538142
 20
-91.4076406999201936
 30
0.0
 40
1.5999999890041059
 50
0.0
 51
90.1595646394394947
  0
LINE
  5
D987
  8
01_表面形状
 62
     3
 10
807.848196310377034
 20
-87.8076407246609563
 30
0.0
 11
814.0598533501482734
 21
-87.8076407246609563
 31
0.0
  0
LINE
  5
D988
  8
01_表面形状
 62
     3
 10
811.5227529760225025
 20
-90.548821660719895
 30
0.0
 11
810.3122555063749815
 21
-95.0664597198778552
 31
0.0
  0
LINE
  5
D989
  8
01_表面形状
 62
     3
 10
811.5227529760225025
 20
-90.548821660719895
 30
0.0
 11
810.3122555063749815
 21
-95.0664597198778552
 31
0.0
  0
LINE
  5
D98A
  8
01_表面形状
 62
     3
 10
811.5227529760225025
 20
-90.5488216607194119
 30
0.0
 11
810.3122555063749815
 21
-95.0664597198778552
 31
0.0
  0
ARC
  5
D98B
  8
01_表面形状
 62
     3
 10
807.848196310377034
 20
-88.8076407177885017
 30
0.0
 40
0.999999993127567
 50
90.0
 51
270.0
  0
ARC
  5
D98C
  8
01_表面形状
 62
     3
 10
814.0598533501482734
 20
-88.8076407177885017
 30
0.0
 40
0.999999993127567
 50
270.0
 51
90.0
  0
ARC
  5
D98D
  8
01_表面形状
 62
     3
 10
809.3463296867238341
 20
-94.8076406765538735
 30
0.0
 40
0.999999993127567
 50
164.2944179854779065
 51
345.0000000000015916
  0
LINE
  5
D98E
  8
01_表面形状
 62
     3
 10
809.448498239985156
 20
-90.5629321327866137
 30
0.0
 11
808.3772899028084566
 21
-94.5607360726204433
 31
0.0
  0
VIEWPORT
  5
542
 67
     1
  8
0
 10
185.6233038915470104
 20
148.4223392912986128
 30
0.0
 40
450.4060917083240838
 41
309.2814998667927853
 68
     1
 69
     1
1001
ACAD
1000
MVIEW
1002
{
1070
    16
1010
0.0
1020
0.0
1030
0.0
1010
0.0
1020
0.0
1030
1.0
1040
0.0
1040
309.2814998667927853
1040
185.6233038915470104
1040
148.4223392912986128
1040
50.0
1040
0.0
1040
0.0
1070
     0
1070
  1000
1070
     1
1070
     1
1070
     0
1070
     0
1070
     0
1070
     0
1040
0.0
1040
0.0
1040
0.0
1040
10.0
1040
10.0
1040
10.0
1040
10.0
1070
     0
1002
{
1002
}
1002
}
  0
ENDSEC
  0
EOF
