  0
SECTION
  2
HEADER
  9
$ACADVER
  1
AC1009
  9
$INSBASE
 10
0.0
 20
0.0
 30
0.0
  9
$EXTMIN
 10
895.1830856209467129
 20
-279.0268082327980892
 30
-0.0000000349181948
  9
$EXTMAX
 10
1035.1196050632679544
 20
-104.7208141087195941
 30
0.0000000814935747
  9
$LIMMIN
 10
0.0
 20
0.0
  9
$LIMMAX
 10
297.0
 20
210.0
  9
$ORTHOMODE
 70
     0
  9
$REGENMODE
 70
     1
  9
$FILLMODE
 70
     1
  9
$QTEXTMODE
 70
     0
  9
$MIRRTEXT
 70
     0
  9
$DRAGMODE
 70
     2
  9
$LTSCALE
 40
0.4
  9
$OSMODE
 70
  1447
  9
$ATTMODE
 70
     1
  9
$TEXTSIZE
 40
5.0
  9
$TRACEWID
 40
1.0
  9
$TEXTSTYLE
  7
STANDARD
  9
$CLAYER
  8
01_表面形状
  9
$CELTYPE
  6
BYLAYER
  9
$CECOLOR
 62
   256
  9
$DIMSCALE
 40
1.0
  9
$DIMASZ
 40
2.5
  9
$DIMEXO
 40
1.0
  9
$DIMDLI
 40
10.0
  9
$DIMRND
 40
0.0
  9
$DIMDLE
 40
0.0
  9
$DIMEXE
 40
1.0
  9
$DIMTP
 40
0.1
  9
$DIMTM
 40
0.1
  9
$DIMTXT
 40
2.5
  9
$DIMCEN
 40
0.0
  9
$DIMTSZ
 40
0.0
  9
$DIMTOL
 70
     0
  9
$DIMLIM
 70
     0
  9
$DIMTIH
 70
     0
  9
$DIMTOH
 70
     0
  9
$DIMSE1
 70
     0
  9
$DIMSE2
 70
     0
  9
$DIMTAD
 70
     3
  9
$DIMZIN
 70
     8
  9
$DIMBLK
  1

  9
$DIMASO
 70
     1
  9
$DIMSHO
 70
     1
  9
$DIMPOST
  1

  9
$DIMAPOST
  1

  9
$DIMALT
 70
     0
  9
$DIMALTD
 70
     2
  9
$DIMALTF
 40
25.3999999999999986
  9
$DIMLFAC
 40
1.0
  9
$DIMTOFL
 70
     1
  9
$DIMTVP
 40
0.0
  9
$DIMTIX
 70
     0
  9
$DIMSOXD
 70
     0
  9
$DIMSAH
 70
     0
  9
$DIMBLK1
  1

  9
$DIMBLK2
  1

  9
$DIMSTYLE
  2
部品図用_1_1
  9
$DIMCLRD
 70
   256
  9
$DIMCLRE
 70
   256
  9
$DIMCLRT
 70
   256
  9
$DIMTFAC
 40
0.7
  9
$DIMGAP
 40
1.0
  9
$LUNITS
 70
     2
  9
$LUPREC
 70
     2
  9
$SKETCHINC
 40
1.0
  9
$FILLETRAD
 40
0.0
  9
$AUNITS
 70
     1
  9
$AUPREC
 70
     3
  9
$MENU
  1
.
  9
$ELEVATION
 40
0.0
  9
$PELEVATION
 40
0.0
  9
$THICKNESS
 40
0.0
  9
$LIMCHECK
 70
     0
  9
$BLIPMODE
 70
     0
  9
$CHAMFERA
 40
0.0
  9
$CHAMFERB
 40
0.0
  9
$SKPOLY
 70
     0
  9
$TDCREATE
 40
2457049.1046874998137355
  9
$TDUPDATE
 40
2460132.4776388891041279
  9
$TDINDWG
 40
0.1589723611
  9
$TDUSRTIMER
 40
0.1589723611
  9
$USRTIMER
 70
     1
  9
$ANGBASE
 50
0.0
  9
$ANGDIR
 70
     0
  9
$PDMODE
 70
     3
  9
$PDSIZE
 40
0.0
  9
$PLINEWID
 40
0.0
  9
$COORDS
 70
     1
  9
$SPLFRAME
 70
     0
  9
$SPLINETYPE
 70
     6
  9
$SPLINESEGS
 70
     8
  9
$ATTDIA
 70
     1
  9
$ATTREQ
 70
     1
  9
$HANDLING
 70
     1
  9
$HANDSEED
  5
DA4F
  9
$SURFTAB1
 70
     6
  9
$SURFTAB2
 70
     6
  9
$SURFTYPE
 70
     6
  9
$SURFU
 70
     6
  9
$SURFV
 70
     6
  9
$UCSNAME
  2

  9
$UCSORG
 10
0.0
 20
0.0
 30
0.0
  9
$UCSXDIR
 10
1.0
 20
0.0
 30
0.0
  9
$UCSYDIR
 10
0.0
 20
1.0
 30
0.0
  9
$PUCSNAME
  2

  9
$PUCSORG
 10
0.0
 20
0.0
 30
0.0
  9
$PUCSXDIR
 10
1.0
 20
0.0
 30
0.0
  9
$PUCSYDIR
 10
0.0
 20
1.0
 30
0.0
  9
$USERI1
 70
     0
  9
$USERI2
 70
     0
  9
$USERI3
 70
     0
  9
$USERI4
 70
     0
  9
$USERI5
 70
     0
  9
$USERR1
 40
0.0
  9
$USERR2
 40
0.0
  9
$USERR3
 40
0.0
  9
$USERR4
 40
0.0
  9
$USERR5
 40
0.0
  9
$WORLDVIEW
 70
     1
  9
$SHADEDGE
 70
     3
  9
$SHADEDIF
 70
    70
  9
$TILEMODE
 70
     1
  9
$MAXACTVP
 70
    64
  9
$PLIMCHECK
 70
     0
  9
$PEXTMIN
 10
1.0000000000000000E+20
 20
1.0000000000000000E+20
 30
1.0000000000000000E+20
  9
$PEXTMAX
 10
-1.0000000000000000E+20
 20
-1.0000000000000000E+20
 30
-1.0000000000000000E+20
  9
$PLIMMIN
 10
-5.873748779296875
 20
-5.8737497329711914
  9
$PLIMMAX
 10
291.1369018554688068
 20
204.0995779037475018
  9
$UNITMODE
 70
     0
  9
$VISRETAIN
 70
     1
  9
$PLINEGEN
 70
     0
  9
$PSLTSCALE
 70
     1
  0
ENDSEC
  0
SECTION
  2
TABLES
  0
TABLE
  2
VPORT
 70
     1
  0
VPORT
  2
*ACTIVE
 70
     0
 10
0.0
 20
0.0
 11
1.0
 21
1.0
 12
965.151345342107561
 22
-191.8738111707588985
 13
0.0
 23
0.0
 14
10.0
 24
10.0
 15
10.0
 25
10.0
 16
0.0
 26
0.0
 36
1.0
 17
0.0
 27
0.0
 37
0.0
 40
175.5719546644448883
 41
1.765830346475507
 42
50.0
 43
0.0
 44
0.0
 50
0.0
 51
0.0
 71
     0
 72
  1000
 73
     1
 74
     3
 75
     0
 76
     0
 77
     0
 78
     0
  0
ENDTAB
  0
TABLE
  2
LTYPE
 70
     3
  0
LTYPE
  2
CONTINUOUS
 70
     0
  3
Solid line
 72
    65
 73
     0
 40
0.0
  0
LTYPE
  2
CENTER
 70
     0
  3
Center ____ _ ____ _ ____ _ ____ _ ____ _ ____
 72
    65
 73
     4
 40
50.7999999999999972
 49
31.75
 49
-6.3499999999999979
 49
6.3499999999999979
 49
-6.3499999999999979
  0
ENDTAB
  0
TABLE
  2
LAYER
 70
     6
  0
LAYER
  2
0
 70
     0
 62
     7
  6
CONTINUOUS
  0
LAYER
  2
01_表面形状
 70
     0
 62
     7
  6
CONTINUOUS
  0
LAYER
  2
04_中心線
 70
     0
 62
     4
  6
CENTER
  0
LAYER
  2
12_文字
 70
     0
 62
     2
  6
CONTINUOUS
  0
LAYER
  2
DEFPOINTS
 70
     0
 62
     7
  6
CONTINUOUS
  0
ENDTAB
  0
TABLE
  2
STYLE
 70
     2
  0
STYLE
  2
STANDARD
 70
     0
 40
0.0
 41
1.0
 50
0.0
 71
     0
 42
5.0
  3
isocp.shx
  4
extfont2.shx
  0
STYLE
  2
MX_NOTE_STANDARD
 70
     0
 40
0.0
 41
1.0
 50
0.0
 71
     0
 42
3.299999999999998
  3
txt.shx
  4
extfont.shx
  0
ENDTAB
  0
TABLE
  2
VIEW
 70
     0
  0
ENDTAB
  0
TABLE
  2
UCS
 70
     0
  0
ENDTAB
  0
TABLE
  2
APPID
 70
    38
  0
APPID
  2
ACAD
 70
     0
  0
APPID
  2
ACAECLAYERSTANDARD
 70
     0
  0
APPID
  2
ACAD_PSEXT
 70
     0
  0
APPID
  2
ACAD_EXEMPT_FROM_CAD_STANDARDS
 70
     0
  0
APPID
  2
GENIUS_GENODEF_13
 70
     0
  0
APPID
  2
GENIUS_GENOBJ-N-CEN_13
 70
     0
  0
APPID
  2
GENIUS_GENCEN_19
 70
     0
  0
APPID
  2
GENIUS_GENTRA_14
 70
     0
  0
APPID
  2
GENIUS_GENOREF_13
 70
     0
  0
APPID
  2
GENIUS_GENSCREG_15
 70
     0
  0
APPID
  2
GENIUS_GENOBJ-N-SDF_13
 70
     0
  0
APPID
  2
GENIUS_GENOBJ-N-LIB_13
 70
     0
  0
APPID
  2
GENIUS_GENOBJ-N-RSBK_13
 70
     0
  0
APPID
  2
GENIUS_GENSCALE_13
 70
     0
  0
APPID
  2
GENIUS_AMGTXT_16
 70
     0
  0
APPID
  2
GENIUS_GENFIL_13
 70
     0
  0
APPID
  2
GENIUS_GENOBJ-N-CHA_13
 70
     0
  0
APPID
  2
GENIUS_GENOBJ-N-FIL_13
 70
     0
  0
APPID
  2
GENIUS_GENDTOL_13
 70
     0
  0
APPID
  2
ACAD_DIMASSOC_DIMLFAC
 70
     0
  0
APPID
  2
ACAD_DIMASSOC_CALC_DIMLFAC
 70
     0
  0
APPID
  2
ACAD_DIMASSOC_OVERRIDDEN_D
 70
     0
  0
APPID
  2
GENIUS_GENOBJ-N-ZOO_13
 70
     0
  0
APPID
  2
GENIUS_GENZOO_16
 70
     0
  0
APPID
  2
ACAD_DSTYLE_DIMJAG
 70
     0
  0
APPID
  2
ACAD_DSTYLE_DIMTALN
 70
     0
  0
APPID
  2
ACAD_DSTYLE_DIMBREAK
 70
     0
  0
APPID
  2
ACAD_DSTYLE_DIMARC_LENGTH_
 70
     0
  0
APPID
  2
ACAD_DSTYLE_DIMJOGGED_JOGA
 70
     0
  0
APPID
  2
ACAD_DSTYLE_DIM_LINETYPE
 70
     0
  0
APPID
  2
ACAD_DSTYLE_DIM_EXT1_LINETYPE
 70
     0
  0
APPID
  2
ACAD_DSTYLE_DIM_EXT2_LINETYPE
 70
     0
  0
APPID
  2
ACDBATTR
 70
     0
  0
APPID
  2
ACAD_MLEADERVER
 70
     0
  0
APPID
  2
ACAD_DSTYLE_DIMRADIAL_EXTENSION
 70
     0
  0
APPID
  2
ACADANNOPO
 70
     0
  0
APPID
  2
ACAUTHENVIRON
 70
     0
  0
APPID
  2
ACAD_NAV_VCDISPLAY
 70
     0
  0
ENDTAB
  0
TABLE
  2
DIMSTYLE
 70
     2
  0
DIMSTYLE
  2
部品図用_1_1
 70
     0
  3

  4

  5

  6

  7

 40
1.0
 41
2.5
 42
1.0
 43
10.0
 44
1.0
 45
0.0
 46
0.0
 47
0.1
 48
0.1
140
2.5
141
0.0
142
0.0
143
25.3999999999999986
144
1.0
145
0.0
146
0.7
147
1.0
 71
     0
 72
     0
 73
     0
 74
     0
 75
     0
 76
     0
 77
     3
 78
     8
170
     0
171
     2
172
     1
173
     0
174
     0
175
     0
176
   256
177
   256
178
   256
  0
DIMSTYLE
  2
STANDARD
 70
     0
  3

  4

  5
OPEN30
  6

  7

 40
1.0
 41
0.18
 42
0.0625
 43
0.38
 44
0.18
 45
0.0
 46
0.0
 47
0.0
 48
0.0
140
0.18
141
0.09
142
0.0
143
25.3999999999999986
144
1.0
145
0.0
146
1.0
147
0.09
 71
     0
 72
     0
 73
     0
 74
     0
 75
     0
 76
     0
 77
     1
 78
     0
170
     0
171
     2
172
     1
173
     0
174
     0
175
     0
176
     0
177
     0
178
     0
  0
ENDTAB
  0
ENDSEC
  0
SECTION
  2
BLOCKS
  0
BLOCK
  8
0
  2
$MODEL_SPACE
 70
     2
 10
0.0
 20
0.0
 30
0.0
  3
$MODEL_SPACE
  1

  0
ENDBLK
  5
39
  8
0
  0
BLOCK
 67
     1
  8
0
  2
$PAPER_SPACE
 70
     0
 10
0.0
 20
0.0
 30
0.0
  3
$PAPER_SPACE
  1

  0
ENDBLK
  5
35
 67
     1
  8
0
  0
BLOCK
  8
0
  2
_OPEN30
 70
     0
 10
0.0
 20
0.0
 30
0.0
  3
_OPEN30
  1

  0
LINE
  5
93EB
  8
0
  6
BYBLOCK
 62
     0
 10
-1.0
 20
0.26794919
 30
0.0
 11
0.0
 21
0.0
 31
0.0
  0
LINE
  5
93EC
  8
0
  6
BYBLOCK
 62
     0
 10
0.0
 20
0.0
 30
0.0
 11
-1.0
 21
-0.26794919
 31
0.0
  0
LINE
  5
93ED
  8
0
  6
BYBLOCK
 62
     0
 10
0.0
 20
0.0
 30
0.0
 11
-1.0
 21
0.0
 31
0.0
  0
ENDBLK
  5
93EE
  8
0
  0
ENDSEC
  0
SECTION
  2
ENTITIES
  0
POLYLINE
  5
D683
  8
01_表面形状
 62
     3
 66
     1
 10
0.0
 20
0.0
 30
0.0
 70
     1
  0
VERTEX
  5
D9E4
  8
01_表面形状
 62
     3
 10
942.9479086544386064
 20
-129.2538296062822951
 30
0.0
  0
VERTEX
  5
D9E5
  8
01_表面形状
 62
     3
 10
936.5979086544383563
 20
-118.255306978219906
 30
0.0
  0
VERTEX
  5
D9E6
  8
01_表面形状
 62
     3
 10
923.8979086544386519
 20
-118.255306978219906
 30
0.0
  0
VERTEX
  5
D9E7
  8
01_表面形状
 62
     3
 10
917.5479086544382881
 20
-129.2538296062822951
 30
0.0
  0
VERTEX
  5
D9E8
  8
01_表面形状
 62
     3
 10
923.8979086544386519
 20
-140.2523522343446984
 30
0.0
  0
VERTEX
  5
D9E9
  8
01_表面形状
 62
     3
 10
936.5979086544383563
 20
-140.2523522343446984
 30
0.0
  0
SEQEND
  5
D9EA
  8
01_表面形状
 62
     3
  0
CIRCLE
  5
D684
  8
01_表面形状
 62
     3
 10
930.2479086544384472
 20
-129.2538296062822951
 30
0.0
 40
10.9985226280624104
  0
CIRCLE
  5
D685
  8
01_表面形状
 62
     3
 10
930.2479086544384472
 20
-129.2538296062822951
 30
0.0
 40
17.5
  0
LINE
  5
D686
  8
01_表面形状
 62
     3
 10
900.2479086544384472
 20
-205.862613228888307
 30
0.0
 11
900.2479086544384472
 21
-199.0056496740882892
 31
0.0
  0
LINE
  5
D687
  8
04_中心線
 62
   110
 10
920.2479086544386746
 20
-189.357525210138391
 30
0.0
 11
920.2479086544386746
 21
-204.357525210138391
 31
0.0
  0
LINE
  5
D688
  8
04_中心線
 62
   110
 10
930.2479086544384472
 20
-170.3575252101882995
 30
0.0
 11
930.2479086544384472
 21
-239.8575252101882995
 31
0.0
  0
LINE
  5
D689
  8
04_中心線
 62
   110
 10
895.2479086544385609
 20
-215.3575252101383057
 30
0.0
 11
965.2479086544383335
 21
-215.357525210138391
 31
0.0
  0
ARC
  5
D68A
  8
01_表面形状
 62
     3
 10
930.2479086544384472
 20
-184.8575252101882995
 30
0.0
 40
50.0
 50
270.0
 51
292.9633330299051863
  0
LINE
  5
D68B
  8
01_表面形状
 62
     3
 10
900.2479086544384472
 20
-231.7094007461884075
 30
0.0
 11
900.2479086544384472
 21
-224.8524371913883897
 31
0.0
  0
LINE
  5
D68C
  8
01_表面形状
 62
     3
 10
900.2479086544384472
 20
-231.780174940988303
 30
0.0
 11
900.2479086544384472
 21
-231.7094007461884075
 31
0.0
  0
LINE
  5
D68D
  8
01_表面形状
 62
     3
 10
900.2479086544384472
 20
-208.5005616552884078
 30
0.0
 11
900.2479086544384472
 21
-205.862613228888307
 31
0.0
  0
LINE
  5
D68E
  8
01_表面形状
 62
     3
 10
900.2479086544384472
 20
-224.8524371913883897
 30
0.0
 11
900.2479086544384472
 21
-222.2144887649882889
 31
0.0
  0
LINE
  5
D68F
  8
01_表面形状
 62
     3
 10
900.2479086544384472
 20
-222.2144887649882889
 30
0.0
 11
900.2479086544384472
 21
-208.5005616552884078
 31
0.0
  0
ARC
  5
D690
  8
01_表面形状
 62
     3
 10
930.2479086544384472
 20
-215.3575252101882995
 30
0.0
 40
19.5
 50
235.2127908078967948
 51
270.0
  0
LINE
  5
D691
  8
01_表面形状
 62
     3
 10
909.3841046504386441
 20
-230.6575252101883962
 30
0.0
 11
916.8404480447386504
 21
-230.6575252101883962
 31
0.0
  0
LINE
  5
D692
  8
01_表面形状
 62
     3
 10
907.2479086544383335
 20
-232.3575252101882995
 30
0.0
 11
907.2479086544383335
 21
-232.2719789797884005
 31
0.0
  0
LINE
  5
D693
  8
01_表面形状
 62
     3
 10
907.2479086544383335
 20
-232.3575252101882995
 30
0.0
 11
907.6520538428387681
 21
-231.6575252101883962
 31
0.0
  0
ARC
  5
D694
  8
01_表面形状
 62
     3
 10
909.3841046504386441
 20
-232.6575252101883962
 30
0.0
 40
2.0
 50
90.0
 51
150.0000000000023022
  0
ARC
  5
D695
  8
01_表面形状
 62
     3
 10
916.8404480447386504
 20
-234.6575252101883962
 30
0.0
 40
4.0
 50
55.2127908078967877
 51
90.0
  0
LINE
  5
D69D
  8
01_表面形状
 62
     3
 10
907.2479086544383335
 20
-208.3754051882883971
 30
0.0
 11
907.2479086544383335
 21
-205.4251914624883
 31
0.0
  0
LINE
  5
D69E
  8
01_表面形状
 62
     3
 10
907.2479086544383335
 20
-225.2898589578882991
 30
0.0
 11
907.2479086544383335
 21
-222.3396452320884009
 31
0.0
  0
LINE
  5
D6C4
  8
01_表面形状
 62
     3
 10
950.9254326841388547
 20
-230.6575252101883962
 30
0.0
 11
951.4003877930385897
 21
-230.6575252101883962
 31
0.0
  0
ARC
  5
D6C5
  8
01_表面形状
 62
     3
 10
950.9254326841388547
 20
-233.6575252101883962
 30
0.0
 40
3.0
 50
90.0
 51
112.9633330299051011
  0
LINE
  5
D6C6
  8
01_表面形状
 62
     3
 10
953.2479086544385609
 20
-232.2719789797884005
 30
0.0
 11
953.2479086544385609
 21
-232.3575252101882995
 31
0.0
  0
LINE
  5
D6C7
  8
01_表面形状
 62
     3
 10
952.699425898738582
 20
-231.4075252101883962
 30
0.0
 11
953.2479086544385609
 21
-232.3575252101882995
 31
0.0
  0
LINE
  5
D6C8
  8
01_表面形状
 62
     3
 10
960.2479086544385609
 20
-231.7094007461884075
 30
0.0
 11
960.2479086544385609
 21
-231.780174940988303
 31
0.0
  0
ARC
  5
D6C9
  8
01_表面形状
 62
     3
 10
951.4003877930385897
 20
-232.1575252101883109
 30
0.0
 40
1.5
 50
29.9999999999977192
 51
90.0
  0
LINE
  5
D6CA
  8
01_表面形状
 62
     3
 10
953.2479086544385609
 20
-205.4251914624883
 30
0.0
 11
953.2479086544385609
 21
-208.3754051882883971
 31
0.0
  0
LINE
  5
D6CB
  8
01_表面形状
 62
     3
 10
953.2479086544385609
 20
-222.3396452320884009
 30
0.0
 11
953.2479086544385609
 21
-225.2898589578882991
 31
0.0
  0
LINE
  5
D6CC
  8
01_表面形状
 62
     3
 10
960.2479086544385609
 20
-197.4596668652600044
 30
0.0
 11
960.2479086544385609
 21
-233.255383555016806
 31
0.0
  0
LINE
  5
D6CD
  8
01_表面形状
 62
     3
 10
930.2479086544384472
 20
-184.8575252101882995
 30
0.0
 11
947.4479086544386064
 21
-184.8575252101882995
 31
0.0
  0
LINE
  5
D6CE
  8
01_表面形状
 62
     3
 10
900.2479086544384472
 20
-199.0056496740882892
 30
0.0
 11
900.2479086544384472
 21
-198.9348754793882961
 31
0.0
  0
LINE
  5
D6CF
  8
01_表面形状
 62
     3
 10
913.0479086544387428
 20
-184.8575252101882995
 30
0.0
 11
930.2479086544384472
 21
-184.8575252101882995
 31
0.0
  0
LINE
  5
D6D0
  8
04_中心線
 62
   110
 10
927.7479086544386746
 20
-196.857525210138391
 30
0.0
 11
912.7479086544387883
 21
-196.857525210138391
 31
0.0
  0
POLYLINE
  5
D6D1
  8
01_表面形状
 62
     3
 66
     1
 10
0.0
 20
0.0
 30
0.0
 70
   128
  0
VERTEX
  5
D9EB
  8
01_表面形状
 62
     3
 10
921.7660119524389302
 20
-190.857525210138391
 30
0.0
  0
VERTEX
  5
D9EC
  8
01_表面形状
 62
     3
 10
922.0472962196389517
 20
-190.9349435230384131
 30
0.0
  0
VERTEX
  5
D9ED
  8
01_表面形状
 62
     3
 10
922.9315980457387241
 20
-191.2800666886382999
 30
0.0
  0
VERTEX
  5
D9EE
  8
01_表面形状
 62
     3
 10
923.7765336421388156
 20
-191.7755913573382998
 30
0.0
  0
VERTEX
  5
D9EF
  8
01_表面形状
 62
     3
 10
924.5572409683386468
 20
-192.4279830602384891
 30
0.0
  0
VERTEX
  5
D9F0
  8
01_表面形状
 62
     3
 10
925.2322622941383088
 20
-193.2157940402383076
 30
0.0
  0
VERTEX
  5
D9F1
  8
01_表面形状
 62
     3
 10
925.6598229120385213
 20
-193.9009831992383965
 30
0.0
  0
VERTEX
  5
D9F2
  8
01_表面形状
 62
     3
 10
925.997764478438512
 20
-194.6415502766384122
 30
0.0
  0
VERTEX
  5
D9F3
  8
01_表面形状
 62
     3
 10
926.2747320022388067
 20
-195.5951490814383931
 30
0.0
  0
VERTEX
  5
D9F4
  8
01_表面形状
 62
     3
 10
926.3992191993386314
 20
-196.5852559089383078
 30
0.0
  0
VERTEX
  5
D9F5
  8
01_表面形状
 62
     3
 10
926.3665303904386974
 20
-197.5653046540384139
 30
0.0
  0
VERTEX
  5
D9F6
  8
01_表面形状
 62
     3
 10
926.1822175830386641
 20
-198.5306877896383924
 30
0.0
  0
VERTEX
  5
D9F7
  8
01_表面形状
 62
     3
 10
925.8542521957386953
 20
-199.4416233657383941
 30
0.0
  0
VERTEX
  5
D9F8
  8
01_表面形状
 62
     3
 10
925.3908336761381861
 20
-200.2901209718384052
 30
0.0
  0
VERTEX
  5
D9F9
  8
01_表面形状
 62
     3
 10
924.7704555149385897
 20
-201.0874613091384049
 30
0.0
  0
VERTEX
  5
D9FA
  8
01_表面形状
 62
     3
 10
924.0378833280385606
 20
-201.7663466756384025
 30
0.0
  0
VERTEX
  5
D9FB
  8
01_表面形状
 62
     3
 10
923.0927368567387248
 20
-202.3735071343384107
 30
0.0
  0
VERTEX
  5
D9FC
  8
01_表面形状
 62
     3
 10
922.0877150124382524
 20
-202.7872326356383894
 30
0.0
  0
VERTEX
  5
D9FD
  8
01_表面形状
 62
     3
 10
921.0846065862383512
 20
-203.0046081192384122
 30
0.0
  0
VERTEX
  5
D9FE
  8
01_表面形状
 62
     3
 10
920.1066139591388264
 20
-203.05173904753849
 30
0.0
  0
VERTEX
  5
D9FF
  8
01_表面形状
 62
     3
 10
918.9627922401386968
 20
-202.9034752204383949
 30
0.0
  0
VERTEX
  5
DA00
  8
01_表面形状
 62
     3
 10
917.9230479506386473
 20
-202.5673922214384106
 30
0.0
  0
VERTEX
  5
DA01
  8
01_表面形状
 62
     3
 10
916.7218747984386482
 20
-201.891023883638411
 30
0.0
  0
VERTEX
  5
DA02
  8
01_表面形状
 62
     3
 10
915.7278494656384282
 20
-201.0006897017383949
 30
0.0
  0
VERTEX
  5
DA03
  8
01_表面形状
 62
     3
 10
915.0080668610388557
 20
-200.0371611644384018
 30
0.0
  0
VERTEX
  5
DA04
  8
01_表面形状
 62
     3
 10
914.4660032416386457
 20
-198.896961339838299
 30
0.0
  0
VERTEX
  5
DA05
  8
01_表面形状
 62
     3
 10
914.2819879362385791
 20
-198.2895082690382935
 30
0.0
  0
VERTEX
  5
DA06
  8
01_表面形状
 62
     3
 10
914.1550856329386079
 20
-197.6156259584383008
 30
0.0
  0
VERTEX
  5
DA07
  8
01_表面形状
 62
     3
 10
914.1048108761383446
 20
-196.7492756630383894
 30
0.0
  0
VERTEX
  5
DA08
  8
01_表面形状
 62
     3
 10
914.1773635927386294
 20
-195.9063299627383969
 30
0.0
  0
VERTEX
  5
DA09
  8
01_表面形状
 62
     3
 10
914.3555820241388119
 20
-195.1246956164384017
 30
0.0
  0
VERTEX
  5
DA0A
  8
01_表面形状
 62
     3
 10
914.6316760971386657
 20
-194.3815083978383029
 30
0.0
  0
VERTEX
  5
DA0B
  8
01_表面形状
 62
     3
 10
914.9689733553386759
 20
-193.7341180525382924
 30
0.0
  0
VERTEX
  5
DA0C
  8
01_表面形状
 62
     3
 10
915.3472791692387318
 20
-193.1717497183383898
 30
0.0
  0
VERTEX
  5
DA0D
  8
01_表面形状
 62
     3
 10
915.768654496538602
 20
-192.6698996952383993
 30
0.0
  0
VERTEX
  5
DA0E
  8
01_表面形状
 62
     3
 10
916.6732020805386583
 20
-191.867610471338395
 30
0.0
  0
VERTEX
  5
DA0F
  8
01_表面形状
 62
     3
 10
917.7210779669386511
 20
-191.2511870259382931
 30
0.0
  0
VERTEX
  5
DA10
  8
01_表面形状
 62
     3
 10
918.8372051195384529
 20
-190.857525210138391
 30
0.0
  0
SEQEND
  5
DA11
  8
01_表面形状
 62
     3
  0
LINE
  5
D6D2
  8
01_表面形状
 62
     3
 10
913.0479086544387428
 20
-182.5575252101882882
 30
0.0
 11
913.0479086544387428
 21
-191.6435356706882942
 31
0.0
  0
POLYLINE
  5
D6D3
  8
01_表面形状
 62
     3
 66
     1
 10
0.0
 20
0.0
 30
0.0
 70
   128
  0
VERTEX
  5
DA12
  8
01_表面形状
 62
     3
 10
918.8372051195384529
 20
-190.857525210138391
 30
0.0
  0
VERTEX
  5
DA13
  8
01_表面形状
 62
     3
 10
919.5982240656387603
 20
-190.7927819522384141
 30
0.0
  0
VERTEX
  5
DA14
  8
01_表面形状
 62
     3
 10
920.396263273638624
 20
-190.7665935224383986
 30
0.0
  0
VERTEX
  5
DA15
  8
01_表面形状
 62
     3
 10
921.0699405970385669
 20
-190.7986781242383927
 30
0.0
  0
VERTEX
  5
DA16
  8
01_表面形状
 62
     3
 10
921.5828288035384048
 20
-190.84652791483839
 30
0.0
  0
VERTEX
  5
DA17
  8
01_表面形状
 62
     3
 10
921.7660119524389302
 20
-190.857525210138391
 30
0.0
  0
SEQEND
  5
DA18
  8
01_表面形状
 62
     3
  0
POLYLINE
  5
D6D4
  8
01_表面形状
 62
     3
 66
     1
 10
0.0
 20
0.0
 30
0.0
 70
   128
  0
VERTEX
  5
DA19
  8
01_表面形状
 62
     3
 10
912.5486783230386436
 20
-197.349764469788397
 30
0.0
  0
VERTEX
  5
DA1A
  8
01_表面形状
 62
     3
 10
912.5412555656387212
 20
-197.4163208729883081
 30
0.0
  0
VERTEX
  5
DA1B
  8
01_表面形状
 62
     3
 10
912.4570438990383536
 20
-197.8470109107884127
 30
0.0
  0
VERTEX
  5
DA1C
  8
01_表面形状
 62
     3
 10
912.3058709597387406
 20
-198.2722277264882962
 30
0.0
  0
VERTEX
  5
DA1D
  8
01_表面形状
 62
     3
 10
912.0886473363385676
 20
-198.6761796704884091
 30
0.0
  0
VERTEX
  5
DA1E
  8
01_表面形状
 62
     3
 10
911.8095885012387498
 20
-199.0454629124882899
 30
0.0
  0
VERTEX
  5
DA1F
  8
01_表面形状
 62
     3
 10
911.4753409100386534
 20
-199.3688346035883114
 30
0.0
  0
VERTEX
  5
DA20
  8
01_表面形状
 62
     3
 10
911.0715161667385473
 20
-199.6505446487882978
 30
0.0
  0
VERTEX
  5
DA21
  8
01_表面形状
 62
     3
 10
910.6501329866388232
 20
-199.8535387678882955
 30
0.0
  0
VERTEX
  5
DA22
  8
01_表面形状
 62
     3
 10
910.2239443702384278
 20
-199.9837656931883032
 30
0.0
  0
VERTEX
  5
DA23
  8
01_表面形状
 62
     3
 10
909.8033263444383465
 20
-200.0478683932882973
 30
0.0
  0
VERTEX
  5
DA24
  8
01_表面形状
 62
     3
 10
909.5850551987387007
 20
-200.0575252101882882
 30
0.0
  0
SEQEND
  5
DA25
  8
01_表面形状
 62
     3
  0
ARC
  5
D6D5
  8
01_表面形状
 62
     3
 10
909.3841046504386441
 20
-198.0575252101882882
 30
0.0
 40
2.0
 50
209.9999999999976126
 51
270.0
  0
LINE
  5
D6D6
  8
01_表面形状
 62
     3
 10
909.5850551987387007
 20
-200.0575252101882882
 30
0.0
 11
909.3841046504386441
 21
-200.0575252101882882
 31
0.0
  0
LINE
  5
D6D7
  8
01_表面形状
 62
     3
 10
907.6520538428387681
 20
-199.0575252101882882
 30
0.0
 11
907.2479086544383335
 21
-198.3575252101882995
 31
0.0
  0
LINE
  5
D6D8
  8
01_表面形状
 62
     3
 10
907.2479086544383335
 20
-198.4430714405883123
 30
0.0
 11
907.2479086544383335
 21
-198.3575252101882995
 31
0.0
  0
LINE
  5
D6D9
  8
01_表面形状
 62
     3
 10
913.0479086544387428
 20
-191.6435356706882942
 30
0.0
 11
912.5486783230386436
 21
-197.349764469788397
 31
0.0
  0
LINE
  5
D6DA
  8
01_表面形状
 62
     3
 10
947.4479086544386064
 20
-191.6435356706882942
 30
0.0
 11
947.4479086544386064
 21
-182.5575252101882882
 31
0.0
  0
ARC
  5
D6DB
  8
01_表面形状
 62
     3
 10
951.4003877930385897
 20
-198.5575252101882882
 30
0.0
 40
1.5
 50
270.0
 51
330.0000000000022737
  0
ARC
  5
D6DC
  8
01_表面形状
 62
     3
 10
950.9333756801988784
 20
-197.0608037114519107
 30
0.0
 40
3.0000809296574058
 50
185.2252209069613116
 51
246.9502350342540922
  0
LINE
  5
D6DD
  8
01_表面形状
 62
     3
 10
951.4003877930385897
 20
-200.0575252101882882
 30
0.0
 11
950.9254326841388547
 21
-200.0575252101882882
 31
0.0
  0
LINE
  5
D6DE
  8
01_表面形状
 62
     3
 10
949.7587525027386164
 20
-199.8213735756883125
 30
0.0
 11
949.755006795638451
 21
-199.8278826218881932
 31
0.0
  0
ARC
  5
D6DF
  8
01_表面形状
 62
     3
 10
950.9254326841386273
 20
-197.0575252101895103
 30
0.0
 40
2.9999999999988751
 50
247.11385840807921
 51
270.0
  0
LINE
  5
D6E0
  8
01_表面形状
 62
     3
 10
953.2479086544385609
 20
-198.3575252101882995
 30
0.0
 11
952.699425898738582
 21
-199.3075252101882882
 31
0.0
  0
LINE
  5
D6E1
  8
01_表面形状
 62
     3
 10
953.2479086544385609
 20
-198.3575252101882995
 30
0.0
 11
953.2479086544385609
 21
-198.4430714405883123
 31
0.0
  0
LINE
  5
D6E2
  8
01_表面形状
 62
     3
 10
960.2479086544385609
 20
-198.9348754793882961
 30
0.0
 11
960.2479086544385609
 21
-199.0056496740882892
 31
0.0
  0
LINE
  5
D6E3
  8
01_表面形状
 62
     3
 10
947.9457618665383052
 20
-197.3340239246882959
 30
0.0
 11
947.4479086544386064
 21
-191.6435356706882942
 31
0.0
  0
ARC
  5
D6E4
  8
01_表面形状
 62
     3
 10
930.2479086544384472
 20
-129.2538296062822951
 30
0.0
 40
17.6561649764444084
 50
257.4072432657334275
 51
204.327864293628096
  0
LINE
  5
D6E5
  8
01_表面形状
 62
     3
 10
960.2479086544385609
 20
-129.2538296062822951
 30
0.0
 11
960.2479086544385609
 21
-114.7538296062813998
 31
0.0
  0
LINE
  5
D6E6
  8
04_中心線
 62
   110
 10
930.2479086544384472
 20
-104.7538296062822951
 30
0.0
 11
930.2479086544384472
 21
-153.7538296062822951
 31
0.0
  0
LINE
  5
D6E7
  8
01_表面形状
 62
     3
 10
900.2479086544384472
 20
-129.2538296062822951
 30
0.0
 11
900.2479086544384472
 21
-114.7538296062813998
 31
0.0
  0
LINE
  5
D6E8
  8
01_表面形状
 62
     3
 10
920.2479086544385609
 20
-147.7538296062822951
 30
0.0
 11
925.2734263710810865
 21
-147.7538296062822951
 31
0.0
  0
LINE
  5
D6E9
  8
01_表面形状
 62
     3
 10
914.1595574585830946
 20
-136.5274200177807131
 30
0.0
 11
914.7230761704188353
 21
-147.2799975844035885
 31
0.0
  0
LINE
  5
D6EA
  8
01_表面形状
 62
     3
 10
900.2479086544384472
 20
-144.7538296062822951
 30
0.0
 11
907.7963914101683258
 21
-144.7538296062822951
 31
0.0
  0
ARC
  5
D6EB
  8
01_表面形状
 62
     3
 10
909.1149679696552539
 20
-148.9994855864082126
 30
0.0
 40
4.445698915221997
 50
90.2518106976387742
 51
107.2532658158011003
  0
LINE
  5
D6EC
  8
01_表面形状
 62
     3
 10
914.5802037607326156
 20
-144.5538296062823065
 30
0.0
 11
909.0954295158422838
 21
-144.5538296062823065
 31
0.0
  0
LINE
  5
D6ED
  8
01_表面形状
 62
     3
 10
920.2479086544385609
 20
-147.7538296062822951
 30
0.0
 11
915.2223909377960354
 21
-147.7538296062822951
 31
0.0
  0
ARC
  5
D6EE
  8
01_表面形状
 62
     3
 10
915.2223909377960354
 20
-147.2538296062822951
 30
0.0
 40
0.5
 50
182.9999999999988916
 51
270.0
  0
LINE
  5
D6EF
  8
01_表面形状
 62
     3
 10
900.2479086544384472
 20
-129.2538296062822951
 30
0.0
 11
900.2479086544384472
 21
-143.7538296062832046
 31
0.0
  0
ARC
  5
D6F0
  8
01_表面形状
 62
     3
 10
930.2479086544384472
 20
-98.7538296062823662
 30
0.0
 40
50.0
 50
270.0
 51
292.9633330298627811
  0
ARC
  5
D6F1
  8
01_表面形状
 62
     3
 10
926.2895040102206394
 20
-146.9732358978176023
 30
0.0
 40
0.5
 50
77.4072432657199556
 51
176.9999999999876934
  0
ARC
  5
D6F2
  8
01_表面形状
 62
     3
 10
930.2479086544384472
 20
-129.2538296062822951
 30
0.0
 40
19.5
 50
253.6098982110399049
 51
270.0
  0
LINE
  5
D6F3
  8
01_表面形状
 62
     3
 10
925.7901892428433257
 20
-146.9470679196959964
 30
0.0
 11
925.7727411384581728
 21
-147.2799975844035885
 31
0.0
  0
ARC
  5
D6F4
  8
01_表面形状
 62
     3
 10
925.2734263710810865
 20
-147.2538296062822951
 30
0.0
 40
0.5
 50
270.0
 51
357.00000000000108
  0
ARC
  5
D6F5
  8
01_表面形状
 62
     3
 10
950.9254326841665943
 20
-147.5538296062823065
 30
0.0
 40
3.0
 50
90.0
 51
112.9633330298627953
  0
ARC
  5
D6F6
  8
01_表面形状
 62
     3
 10
951.3272006494331663
 20
-149.347944048183308
 30
0.0
 40
4.7946730482934257
 50
73.3695352184510199
 51
89.1253882680954348
  0
LINE
  5
D6F7
  8
01_表面形状
 62
     3
 10
950.9254326841665943
 20
-144.5538296062823065
 30
0.0
 11
951.4003877930316548
 21
-144.5538296062823065
 31
0.0
  0
LINE
  5
D6F8
  8
01_表面形状
 62
     3
 10
960.2479086544385609
 20
-144.7538296062822951
 30
0.0
 11
952.6994258987085686
 21
-144.7538296062822951
 31
0.0
  0
LINE
  5
D6F9
  8
04_中心線
 62
   110
 10
895.2479086544385609
 20
-129.2538296062822951
 30
0.0
 11
965.2479086544383335
 21
-129.2538296062822951
 31
0.0
  0
LINE
  5
D6FA
  8
01_表面形状
 62
     3
 10
960.2479086544385609
 20
-129.2538296062822951
 30
0.0
 11
960.2479086544385609
 21
-143.7538296062832046
 31
0.0
  0
LINE
  5
D6FB
  8
01_表面形状
 62
     3
 10
993.3564244486254893
 20
-182.5575252101882882
 30
0.0
 11
993.3564244486254893
 21
-191.6435356706905964
 31
0.0
  0
LINE
  5
D6FC
  8
01_表面形状
 62
     3
 10
1027.7564244486259213
 20
-182.5575252101882882
 30
0.0
 11
1027.7564244486250118
 21
-191.6435356706909943
 31
0.0
  0
LINE
  5
D6FD
  8
04_中心線
 62
   110
 10
1010.5564244486249663
 20
-170.3575252101389026
 30
0.0
 11
1010.5564244486259895
 21
-239.857525210138391
 31
0.0
  0
ARC
  5
D6FE
  8
01_表面形状
 62
     3
 10
1010.5564244486259895
 20
-215.357525210138391
 30
0.0
 40
19.5000000000000107
 50
164.959606403945088
 51
15.0403935960611808
  0
LINE
  5
D6FF
  8
01_表面形状
 62
     3
 10
993.3564244486254893
 20
-191.6435356706903121
 30
0.0
 11
991.7244336377017362
 21
-210.2972759971779908
 31
0.0
  0
LINE
  5
D700
  8
04_中心線
 62
   110
 10
986.0564244486259895
 20
-215.357525210138391
 30
0.0
 11
1035.0564244486261032
 21
-215.357525210138391
 31
0.0
  0
LINE
  5
D701
  8
01_表面形状
 62
     3
 10
1027.7564244486250118
 20
-191.6435356706903121
 30
0.0
 11
1029.3884152595489923
 21
-210.2972759971765981
 31
0.0
  0
ARC
  5
D702
  8
01_表面形状
 62
     3
 10
930.2479086544384472
 20
-129.2538296062822951
 30
0.0
 40
19.5
 50
90.0
 51
124.7872091921032052
  0
ARC
  5
D703
  8
01_表面形状
 62
     3
 10
916.8404480447629794
 20
-109.953829606282298
 30
0.0
 40
4.0
 50
270.0
 51
304.7872091921032052
  0
LINE
  5
D704
  8
01_表面形状
 62
     3
 10
900.2479086544384472
 20
-113.7538296062822951
 30
0.0
 11
907.7963914101686669
 21
-113.7538296062824941
 31
0.0
  0
ARC
  5
D705
  8
01_表面形状
 62
     3
 10
909.114967969655595
 20
-109.5081736261525975
 30
0.0
 40
4.4456989152259148
 50
252.74673418421321
 51
269.7481893023481803
  0
LINE
  5
D706
  8
01_表面形状
 62
     3
 10
916.8404480447629794
 20
-113.9538296062823974
 30
0.0
 11
909.0954295158453533
 21
-113.9538296062823974
 31
0.0
  0
ARC
  5
D707
  8
01_表面形状
 62
     3
 10
930.2479086544384472
 20
-159.7538296062822951
 30
0.0
 40
50.0
 50
67.0366669701371904
 51
90.0
  0
ARC
  5
D708
  8
01_表面形状
 62
     3
 10
950.9254326841665943
 20
-110.9538296062823974
 30
0.0
 40
3.0
 50
247.0366669701371052
 51
270.0
  0
ARC
  5
D709
  8
01_表面形状
 62
     3
 10
951.3272006494331663
 20
-109.1597151643813959
 30
0.0
 40
4.7946730482934257
 50
270.8746117318916049
 51
286.6304647815489943
  0
LINE
  5
D70A
  8
01_表面形状
 62
     3
 10
950.9254326841665943
 20
-113.9538296062823974
 30
0.0
 11
951.4003877930316548
 21
-113.9538296062823974
 31
0.0
  0
LINE
  5
D70B
  8
01_表面形状
 62
     3
 10
960.2479086544385609
 20
-113.7538296062822951
 30
0.0
 11
952.6994258987085686
 21
-113.7538296062822951
 31
0.0
  0
POLYLINE
  5
D70C
  8
01_表面形状
 62
     3
 66
     1
 10
0.0
 20
0.0
 30
0.0
  0
VERTEX
  5
DA26
  8
01_表面形状
 62
     3
 10
1021.5549470766879949
 20
-176.057525210138806
 30
0.0
  0
VERTEX
  5
DA27
  8
01_表面形状
 62
     3
 10
999.5579018205628472
 20
-176.057525210138806
 30
0.0
  0
SEQEND
  5
DA28
  8
01_表面形状
 62
     3
  0
POLYLINE
  5
D70D
  8
01_表面形状
 62
     3
 66
     1
 10
0.0
 20
0.0
 30
0.0
  0
VERTEX
  5
DA29
  8
01_表面形状
 62
     3
 10
917.5479086544382881
 20
-177.039873628896288
 30
0.0
  0
VERTEX
  5
DA2A
  8
01_表面形状
 62
     3
 10
917.5479086544382881
 20
-182.5575252101882882
 30
0.0
  0
VERTEX
  5
DA2B
  8
01_表面形状
 62
     3
 10
942.9479086544386064
 20
-182.5575252101882882
 30
0.0
  0
VERTEX
  5
DA2C
  8
01_表面形状
 62
     3
 10
942.9479086544386064
 20
-177.0398736288964017
 30
0.0
  0
SEQEND
  5
DA2D
  8
01_表面形状
 62
     3
  0
POLYLINE
  5
D70E
  8
01_表面形状
 62
     3
 66
     1
 10
0.0
 20
0.0
 30
0.0
  0
VERTEX
  5
DA2E
  8
01_表面形状
 62
     3
 10
941.2464312825010211
 20
-176.0575252101882882
 30
0.0
  0
VERTEX
  5
DA2F
  8
01_表面形状
 62
     3
 10
919.249386026375646
 20
-176.0575252101882882
 30
0.0
  0
SEQEND
  5
DA30
  8
01_表面形状
 62
     3
  0
LINE
  5
D70F
  8
01_表面形状
 62
     3
 10
936.5979086544383563
 20
-182.5575252101882882
 30
0.0
 11
936.5979086544383563
 21
-177.0398736288964017
 31
0.0
  0
LINE
  5
D710
  8
01_表面形状
 62
     3
 10
923.8979086544386519
 20
-182.5575252101882882
 30
0.0
 11
923.8979086544386519
 21
-177.0398736288964869
 31
0.0
  0
LINE
  5
D711
  8
01_表面形状
 62
     3
 10
941.2464312825010211
 20
-176.0575252101882882
 30
0.0
 11
942.9479086544386064
 21
-177.0398736288964017
 31
0.0
  0
ARC
  5
D712
  8
01_表面形状
 62
     3
 10
939.7729086544384245
 20
-181.6795800765582953
 30
0.0
 40
5.622054866370001
 50
55.6157525319613129
 51
124.3842474680386943
  0
ARC
  5
D713
  8
01_表面形状
 62
     3
 10
930.2479086544384472
 20
-197.0722220476060045
 30
0.0
 40
21.0146968374177483
 50
72.4120462260085418
 51
107.5879537739914014
  0
ARC
  5
D714
  8
01_表面形状
 62
     3
 10
920.7229086544383563
 20
-181.6795800765580111
 30
0.0
 40
5.622054866370001
 50
55.6157525319613129
 51
124.3842474680386943
  0
LINE
  5
D715
  8
01_表面形状
 62
     3
 10
917.5479086544386291
 20
-177.039873628896089
 30
0.0
 11
919.249386026375646
 21
-176.0575252101882882
 31
0.0
  0
LINE
  5
D716
  8
04_中心線
 62
   110
 10
920.2479086544384472
 20
-140.1994601195798964
 30
0.0
 11
920.2479086544385609
 21
-152.9242183814671989
 31
0.0
  0
ARC
  5
D717
  8
01_表面形状
 62
     3
 10
924.5782843274112111
 20
-151.3460744440533858
 30
0.0
 40
2.555270833107417
 50
55.6005266119040726
 51
124.3994733880958989
  0
ARC
  5
D718
  8
01_表面形状
 62
     3
 10
924.5782843274125753
 20
-149.4085587731746898
 30
0.0
 40
2.555270833107417
 50
235.6005266119040868
 51
304.3994733880959984
  0
LINE
  5
D719
  8
01_表面形状
 62
     3
 10
925.2479086544383335
 20
-151.9638296062821041
 30
0.0
 11
915.2479086544383335
 21
-151.9638296062821894
 31
0.0
  0
LINE
  5
D71A
  8
01_表面形状
 62
     3
 10
925.2479086544383335
 20
-151.9638296062821894
 30
0.0
 11
915.2479086544383335
 21
-151.9638296062823031
 31
0.0
  0
ARC
  5
D71B
  8
01_表面形状
 62
     3
 10
915.917532981463296
 20
-151.3460744440534995
 30
0.0
 40
2.555270833107417
 50
55.6005266119040726
 51
124.3994733880958989
  0
ARC
  5
D71C
  8
01_表面形状
 62
     3
 10
920.2479086544373104
 20
-158.3383704194775135
 30
0.0
 40
9.54756680853143
 50
72.4009153227633107
 51
107.5990846772366041
  0
LINE
  5
D71F
  8
01_表面形状
 62
     3
 10
915.2479086544383335
 20
-151.9638296062821894
 30
0.0
 11
914.4739086544383326
 21
-151.5169604979296878
 31
0.0
  0
ARC
  5
D720
  8
01_表面形状
 62
     3
 10
915.9175329814642055
 20
-149.4085587731748035
 30
0.0
 40
2.555270833107417
 50
235.6005266119040868
 51
304.3994733880959984
  0
ARC
  5
D721
  8
01_表面形状
 62
     3
 10
920.2479086544384472
 20
-142.4162627977507896
 30
0.0
 40
9.54756680853143
 50
252.4009153227634101
 51
287.5990846772367036
  0
LINE
  5
D722
  8
01_表面形状
 62
     3
 10
925.2479086544383335
 20
-151.9638296062821041
 30
0.0
 11
926.0219086544383345
 21
-151.5169604979290909
 31
0.0
  0
LINE
  5
D723
  8
01_表面形状
 62
     3
 10
926.0214113463346166
 20
-151.5173009190490063
 30
0.0
 11
926.0214113463346166
 21
-149.2373322981800925
 31
0.0
  0
LINE
  5
D724
  8
01_表面形状
 62
     3
 10
923.1346600003869298
 20
-151.5169604979294036
 30
0.0
 11
923.1346600003862477
 21
-149.2376727192979047
 31
0.0
  0
LINE
  5
D725
  8
01_表面形状
 62
     3
 10
917.3611573084905331
 20
-151.5169604979294036
 30
0.0
 11
917.3611573084905331
 21
-149.23767271929961
 31
0.0
  0
LINE
  5
D726
  8
01_表面形状
 62
     3
 10
914.4744059625421642
 20
-151.5173009190490916
 30
0.0
 11
914.4744059625421642
 21
-149.2373322981785861
 31
0.0
  0
LINE
  5
D727
  8
01_表面形状
 62
     3
 10
926.0214113463398462
 20
-149.2373322981835031
 30
0.0
 11
924.5379086544382972
 21
-147.7538296062822951
 31
0.0
  0
LINE
  5
D728
  8
01_表面形状
 62
     3
 10
914.4744059625421642
 20
-149.2373322981785861
 30
0.0
 11
915.9579086544382562
 21
-147.7538296062822951
 31
0.0
  0
LINE
  5
D729
  8
01_表面形状
 62
     3
 10
987.8464244486253847
 20
-191.6633735483817134
 30
0.0
 11
987.8464244486258394
 21
-201.6633735483814007
 31
0.0
  0
LINE
  5
D72A
  8
01_表面形状
 62
     3
 10
987.8464244486258394
 20
-201.6633735483814007
 30
0.0
 11
987.8464244486256121
 21
-191.6633735483814007
 31
0.0
  0
LINE
  5
D72B
  8
01_表面形状
 62
     3
 10
987.8464244486258394
 20
-201.6633735483812018
 30
0.0
 11
991.3464244486258394
 21
-201.6633735483812018
 31
0.0
  0
LINE
  5
D72C
  8
01_表面形状
 62
     3
 10
987.8464244486253847
 20
-191.6633735483812018
 30
0.0
 11
991.3464244486253847
 21
-191.6633735483812018
 31
0.0
  0
LINE
  5
D72D
  8
01_表面形状
 62
     3
 10
993.3564244486254893
 20
-191.0952647638530095
 30
0.0
 11
992.5306634432838564
 21
-191.1385410643615046
 31
0.0
  0
LINE
  5
D72E
  8
01_表面形状
 62
     3
 10
992.0568314214056045
 20
-191.6378558317387046
 30
0.0
 11
992.0568314214056045
 21
-196.663373548381287
 31
0.0
  0
ARC
  5
D72F
  8
01_表面形状
 62
     3
 10
992.5568314214054908
 20
-191.6378558317387046
 30
0.0
 40
0.5
 50
92.9999999999991047
 51
180.0
  0
ARC
  5
D730
  8
01_表面形状
 62
     3
 10
992.5568314214054908
 20
-201.6888912650240115
 30
0.0
 40
0.5
 50
180.0
 51
255.9138029826744969
  0
LINE
  5
D731
  8
01_表面形状
 62
     3
 10
992.0568314214056045
 20
-196.663373548381287
 30
0.0
 11
992.0568314214056045
 21
-201.6888912650240968
 31
0.0
  0
LINE
  5
D732
  8
01_表面形状
 62
     3
 10
987.8464244486253847
 20
-191.6633735483817134
 30
0.0
 11
987.8464244486258394
 21
-201.6633735483814007
 31
0.0
  0
LINE
  5
D733
  8
01_表面形状
 62
     3
 10
987.8464244486258394
 20
-201.6633735483814007
 30
0.0
 11
987.8464244486256121
 21
-191.6633735483814007
 31
0.0
  0
LINE
  5
D734
  8
01_表面形状
 62
     3
 10
987.8464244486258394
 20
-201.6633735483812018
 30
0.0
 11
991.3464244486259531
 21
-201.6633735483812018
 31
0.0
  0
LINE
  5
D735
  8
01_表面形状
 62
     3
 10
987.8464244486253847
 20
-191.6633735483812018
 30
0.0
 11
991.3464244486253847
 21
-191.6633735483812018
 31
0.0
  0
ARC
  5
D736
  8
01_表面形状
 62
     3
 10
995.0590425710119007
 20
-199.163373548381287
 30
0.0
 40
7.2128607168649781
 50
159.7203133156143053
 51
200.2796866843856094
  0
ARC
  5
D737
  8
01_表面形状
 62
     3
 10
995.061797716864703
 20
-194.163373548381287
 30
0.0
 40
7.2154451395875938
 50
159.7278962371507021
 51
200.2721037628492127
  0
ARC
  5
D738
  8
01_表面形状
 62
     3
 10
984.1314832093413543
 20
-199.1633735483814007
 30
0.0
 40
7.2149898748222761
 50
339.7265608717349892
 51
20.2734391282650108
  0
ARC
  5
D739
  8
01_表面形状
 62
     3
 10
984.1302401148179797
 20
-194.1633735483814007
 30
0.0
 40
7.21615597207773
 50
339.729980864259403
 51
20.2700191357406112
  0
LINE
  5
D73A
  8
01_表面形状
 62
     3
 10
991.3464244486259531
 20
-201.6633735483812018
 30
0.0
 11
992.0568314214056045
 21
-200.9529665756016072
 31
0.0
  0
LINE
  5
D73B
  8
01_表面形状
 62
     3
 10
991.3464244486253847
 20
-191.6633735483812018
 30
0.0
 11
992.0568314214056045
 21
-192.3737805211611089
 31
0.0
  0
LINE
  5
D73C
  8
04_中心線
 62
   110
 10
985.2234176550045959
 20
-196.6633735483812018
 30
0.0
 11
997.9481759168915005
 21
-196.6633735483812018
 31
0.0
  0
POLYLINE
  5
D73D
  8
01_表面形状
 62
     3
 66
     1
 10
0.0
 20
0.0
 30
0.0
 70
     1
  0
VERTEX
  5
DA31
  8
01_表面形状
 62
     3
 10
917.3611573084907604
 20
-201.857525210138391
 30
0.0
  0
VERTEX
  5
DA32
  8
01_表面形状
 62
     3
 10
923.1346600003869298
 20
-201.857525210138391
 30
0.0
  0
VERTEX
  5
DA33
  8
01_表面形状
 62
     3
 10
926.0214113463349577
 20
-196.857525210138391
 30
0.0
  0
VERTEX
  5
DA34
  8
01_表面形状
 62
     3
 10
923.1346600003869298
 20
-191.8575252101383057
 30
0.0
  0
VERTEX
  5
DA35
  8
01_表面形状
 62
     3
 10
917.3611573084906468
 20
-191.8575252101383057
 30
0.0
  0
VERTEX
  5
DA36
  8
01_表面形状
 62
     3
 10
914.4744059625422778
 20
-196.8575252101383057
 30
0.0
  0
SEQEND
  5
DA37
  8
01_表面形状
 62
     3
  0
CIRCLE
  5
D73E
  8
01_表面形状
 62
     3
 10
920.2479086544386746
 20
-196.857525210138391
 30
0.0
 40
4.9999999999999867
  0
LINE
  5
D73F
  8
04_中心線
 62
   110
 10
913.5002520022161434
 20
-196.857525210138391
 30
0.0
 11
926.2250102641036165
 21
-196.857525210138391
 31
0.0
  0
LINE
  5
D740
  8
04_中心線
 62
   110
 10
913.1149744809372351
 20
-196.857525210138391
 30
0.0
 11
925.8397327428245944
 21
-196.857525210138391
 31
0.0
  0
LINE
  5
D741
  8
04_中心線
 62
   110
 10
913.5002520022161434
 20
-196.857525210138391
 30
0.0
 11
926.2250102641036165
 21
-196.857525210138391
 31
0.0
  0
LINE
  5
D742
  8
04_中心線
 62
   110
 10
920.2479086544386746
 20
-203.6051818623608938
 30
0.0
 11
920.2479086544386746
 21
-190.8804236004737049
 31
0.0
  0
LINE
  5
D743
  8
01_表面形状
 62
     3
 10
999.5579018205628472
 20
-176.057525210138806
 30
0.0
 11
999.5579018205628472
 21
-182.557525210138806
 31
0.0
  0
LINE
  5
D744
  8
01_表面形状
 62
     3
 10
1021.5549470766869717
 20
-176.057525210138806
 30
0.0
 11
1021.5549470766869717
 21
-182.557525210138806
 31
0.0
  0
ARC
  5
D745
  8
01_表面形状
 62
     3
 10
1005.0571631345940204
 20
-191.9412277714810955
 30
0.0
 40
15.8837095882604
 50
69.7437001031824906
 51
110.2562998968174952
  0
ARC
  5
D746
  8
01_表面形状
 62
     3
 10
1016.0556857626560259
 20
-191.9316470911280135
 30
0.0
 40
15.8747217881730993
 50
69.7317281424840729
 51
110.2682718575158987
  0
POLYLINE
  5
D747
  8
01_表面形状
 62
     3
 66
     1
 10
0.0
 20
0.0
 30
0.0
 70
     1
  0
VERTEX
  5
DA38
  8
01_表面形状
 62
     3
 10
995.0564244486259895
 20
-224.306454382577698
 30
0.0
  0
VERTEX
  5
DA39
  8
01_表面形状
 62
     3
 10
1010.5564244486259895
 20
-233.2553835550168913
 30
0.0
  0
VERTEX
  5
DA3A
  8
01_表面形状
 62
     3
 10
1026.0564244486261032
 20
-224.306454382577698
 30
0.0
  0
VERTEX
  5
DA3B
  8
01_表面形状
 62
     3
 10
1026.0564244486261032
 20
-206.4085960376993114
 30
0.0
  0
VERTEX
  5
DA3C
  8
01_表面形状
 62
     3
 10
1010.5564244486259895
 20
-197.4596668652600897
 30
0.0
  0
VERTEX
  5
DA3D
  8
01_表面形状
 62
     3
 10
995.0564244486259895
 20
-206.4085960376991977
 30
0.0
  0
SEQEND
  5
DA3E
  8
01_表面形状
 62
     3
  0
CIRCLE
  5
D748
  8
01_表面形状
 62
     3
 10
1010.5564244486259895
 20
-215.357525210138391
 30
0.0
 40
12.0585000000000004
  0
CIRCLE
  5
D749
  8
01_表面形状
 62
     3
 10
1010.5564244486259895
 20
-215.357525210138391
 30
0.0
 40
13.2204999999999995
  0
LINE
  5
D74A
  8
01_表面形状
 62
     3
 10
900.2479086544384472
 20
-197.4596668652600044
 30
0.0
 11
907.2479086544383335
 21
-197.4596668652600044
 31
0.0
  0
LINE
  5
D74B
  8
01_表面形状
 62
     3
 10
953.2479086544385609
 20
-197.4596668652600044
 30
0.0
 11
960.2479086544385609
 21
-197.4596668652600044
 31
0.0
  0
LINE
  5
D74C
  8
01_表面形状
 62
     3
 10
960.2479086544385609
 20
-233.255383555016806
 30
0.0
 11
953.2479086544385609
 21
-233.255383555016806
 31
0.0
  0
LINE
  5
D74D
  8
01_表面形状
 62
     3
 10
907.2479086544383335
 20
-233.255383555016806
 30
0.0
 11
900.2479086544384472
 21
-233.255383555016806
 31
0.0
  0
LINE
  5
D74E
  8
01_表面形状
 62
     3
 10
960.2479086544385609
 20
-224.3064543825776127
 30
0.0
 11
953.2479086544385609
 21
-224.3064543825776127
 31
0.0
  0
LINE
  5
D74F
  8
01_表面形状
 62
     3
 10
907.2479086544383335
 20
-224.3064543825776127
 30
0.0
 11
900.2479086544384472
 21
-224.3064543825776127
 31
0.0
  0
LINE
  5
D750
  8
01_表面形状
 62
     3
 10
900.2479086544384472
 20
-206.4085960376991977
 30
0.0
 11
907.2479086544383335
 21
-206.4085960376991977
 31
0.0
  0
LINE
  5
D751
  8
01_表面形状
 62
     3
 10
953.2479086544385609
 20
-206.4085960376991977
 30
0.0
 11
960.2479086544385609
 21
-206.4085960376991977
 31
0.0
  0
LINE
  5
D752
  8
01_表面形状
 62
     3
 10
953.2479086544385609
 20
-197.4596668652600044
 30
0.0
 11
953.2479086544385609
 21
-233.255383555016806
 31
0.0
  0
LINE
  5
D753
  8
01_表面形状
 62
     3
 10
907.2479086544383335
 20
-197.4596668652600044
 30
0.0
 11
907.2479086544383335
 21
-233.255383555016806
 31
0.0
  0
LINE
  5
D754
  8
01_表面形状
 62
     3
 10
900.2479086544384472
 20
-197.4596668652600044
 30
0.0
 11
900.2479086544384472
 21
-233.255383555016806
 31
0.0
  0
LINE
  5
D755
  8
01_表面形状
 62
     3
 10
960.2479086544385609
 20
-144.7538296062822099
 30
0.0
 11
960.2479086544385609
 21
-113.7538296062823946
 31
0.0
  0
LINE
  5
D756
  8
01_表面形状
 62
     3
 10
952.6994258987085686
 20
-144.7538296062822951
 30
0.0
 11
952.6994258987085686
 21
-113.7538296062825935
 31
0.0
  0
LINE
  5
D757
  8
01_表面形状
 62
     3
 10
907.7963914101683258
 20
-144.7538296062822951
 30
0.0
 11
907.7963914101683258
 21
-113.7538296062825935
 31
0.0
  0
LINE
  5
D758
  8
01_表面形状
 62
     3
 10
900.2479086544384472
 20
-144.7538296062822099
 30
0.0
 11
900.2479086544384472
 21
-113.7538296062823946
 31
0.0
  0
LINE
  5
D759
  8
01_表面形状
 62
     3
 10
960.2479086544385609
 20
-129.2538296062822951
 30
0.0
 11
952.6994258987085686
 21
-129.2538296062824941
 31
0.0
  0
LINE
  5
D75A
  8
01_表面形状
 62
     3
 10
907.7963914101683258
 20
-129.2538296062824941
 30
0.0
 11
900.2479086544384472
 21
-129.2538296062822951
 31
0.0
  0
LINE
  5
D75B
  8
01_表面形状
 62
     3
 10
913.0479086544387428
 20
-182.5575252101882882
 30
0.0
 11
947.447908654438379
 21
-182.5575252101882882
 31
0.0
  0
LINE
  5
D75C
  8
01_表面形状
 62
     3
 10
1010.5564244486249663
 20
-184.8575252101882995
 30
0.0
 11
1027.7564244486250118
 21
-184.8575252101882995
 31
0.0
  0
LINE
  5
D75D
  8
01_表面形状
 62
     3
 10
993.3564244486254893
 20
-184.8575252101882995
 30
0.0
 11
1010.5564244486249663
 21
-184.8575252101882995
 31
0.0
  0
LINE
  5
D75E
  8
01_表面形状
 62
     3
 10
993.3564244486254893
 20
-182.5575252101882882
 30
0.0
 11
1027.7564244486250118
 21
-182.5575252101882882
 31
0.0
  0
TEXT
  5
D75F
  8
12_文字
 62
   110
 10
900.8398521710546447
 20
-262.9969640483815283
 30
0.0
 40
4.1671809999999976
  1
        SWING CHECK VALVE 3/4
 41
0.938395
  7
MX_NOTE_STANDARD
 11
900.8398521710546447
 21
-260.9133735483815144
 31
0.0
 73
     2
  0
TEXT
  5
D760
  8
12_文字
 62
   110
 10
900.8218581710543731
 20
-278.9969640483815283
 30
0.0
 40
4.1671809999999976
  1
TOA
 41
0.9124859999999999
  7
MX_NOTE_STANDARD
 11
900.8218581710543731
 21
-276.9133735483815144
 31
0.0
 73
     2
  0
TEXT
  5
D761
  8
12_文字
 62
   110
 10
900.8742551710543012
 20
-270.9969640483815283
 30
0.0
 40
4.1671809999999976
  1
FIG   TS3/4
 41
0.9879279999999999
  7
MX_NOTE_STANDARD
 11
900.8742551710543012
 21
-268.9133735483815144
 31
0.0
 73
     2
  0
TEXT
  5
D762
  8
12_文字
 62
   110
 10
900.8239991710546519
 20
-254.9969640483814999
 30
0.0
 40
4.1671809999999976
  1
NAME  CLASS 125 CAST BRASS
 41
0.9155689999999999
  7
MX_NOTE_STANDARD
 11
900.8239991710546519
 21
-252.913373548381486
 31
0.0
 73
     2
  0
LINE
  5
D90B
  8
01_表面形状
 62
     3
 10
936.2382021848545719
 20
-212.7075252208549898
 30
0.0
 11
936.2398296833874838
 21
-212.7075252208549898
 31
0.0
  0
LINE
  5
D90C
  8
01_表面形状
 62
     3
 10
934.6023232128653717
 20
-217.3450252021007998
 30
0.0
 11
937.3691755492853872
 21
-217.3450252021011124
 31
0.0
  0
LINE
  5
D90D
  8
01_表面形状
 62
     3
 10
935.6432263581488087
 20
-216.6825252047800916
 30
0.0
 11
936.7066755519643948
 21
-216.6825252047802906
 31
0.0
  0
LINE
  5
D90E
  8
01_表面形状
 62
     3
 10
936.2382021848545719
 20
-214.0325252154966051
 30
0.0
 11
936.2398296833871427
 21
-214.0325252154966051
 31
0.0
  0
LINE
  5
D90F
  8
01_表面形状
 62
     3
 10
934.0163796082096042
 20
-214.4123896464157042
 30
0.0
 11
933.2765268887885668
 21
-217.1735575854139029
 31
0.0
  0
LINE
  5
D910
  8
01_表面形状
 62
     3
 10
935.2962313228672429
 20
-214.755324879789697
 30
0.0
 11
935.0033005008199325
 21
-215.8485575907722023
 31
0.0
  0
LINE
  5
D911
  8
01_表面形状
 62
     3
 10
934.6023232128653717
 20
-217.3450252021007998
 30
0.0
 11
934.5563786034459781
 21
-217.5164928187880093
 31
0.0
  0
LINE
  5
D912
  8
01_表面形状
 62
     3
 10
938.694175543927031
 20
-215.0077252115530939
 30
0.0
 11
938.6941755439265762
 21
-217.3450252021011124
 31
0.0
  0
LINE
  5
D913
  8
01_表面形状
 62
     3
 10
937.3691755492853872
 20
-215.0077252115530939
 30
0.0
 11
937.3691755492853872
 21
-216.0200252074594118
 31
0.0
  0
ARC
  5
D914
  8
01_表面形状
 62
     3
 10
933.9164527461171019
 20
-217.3450252021007998
 30
0.0
 40
0.6624999973208335
 50
165.0000000000021885
 51
344.9999999999848228
  0
ARC
  5
D915
  8
01_表面形状
 62
     3
 10
938.0316755466060386
 20
-217.3450252021011124
 30
0.0
 40
0.6624999973208335
 50
180.0
 51
0.0
  0
ARC
  5
D916
  8
01_表面形状
 62
     3
 10
935.6432263581488087
 20
-216.0200252074592129
 30
0.0
 40
0.6624999973208335
 50
165.0000000000021885
 51
270.0
  0
ARC
  5
D917
  8
01_表面形状
 62
     3
 10
936.7066755519643948
 20
-216.0200252074594118
 30
0.0
 40
0.6624999973208335
 50
270.0
 51
0.0000000000032569
  0
LINE
  5
D918
  8
01_表面形状
 62
     3
 10
922.470663723597454
 20
-214.0325252154964062
 30
0.0
 11
923.1469082405642439
 21
-214.0325252154964062
 31
0.0
  0
LINE
  5
D919
  8
01_表面形状
 62
     3
 10
925.5449833788015894
 20
-214.0325252154964062
 30
0.0
 11
926.5858865240853675
 21
-214.0325252154964062
 31
0.0
  0
ARC
  5
D91A
  8
01_表面形状
 62
     3
 10
925.5449833788015894
 20
-214.6950252128171996
 30
0.0
 40
0.6624999973208335
 50
90.0
 51
164.9999999999990905
  0
ARC
  5
D91B
  8
01_表面形状
 62
     3
 10
923.1469082405642439
 20
-214.4300252138889959
 30
0.0
 40
0.3974999983925
 50
344.9999999999992042
 51
90.0
  0
ARC
  5
D91C
  8
01_表面形状
 62
     3
 10
936.3032715131721488
 20
-215.0925252112097894
 30
0.0
 40
2.3849999903549981
 50
89.9290824560261939
 51
165.3312556800393907
  0
ARC
  5
D91D
  8
01_表面形状
 62
     3
 10
936.3091755535717766
 20
-215.0925252112097894
 30
0.0
 40
2.3849999903549981
 50
359.9999999999902229
 51
90.0709175439656633
  0
ARC
  5
D91E
  8
01_表面形状
 62
     3
 10
936.3032715131722625
 20
-215.0925252112099884
 30
0.0
 40
1.059999995713333
 50
89.8404353605604769
 51
165.496884384451505
  0
ARC
  5
D91F
  8
01_表面形状
 62
     3
 10
936.3091755535717766
 20
-215.0925252112099884
 30
0.0
 40
1.059999995713333
 50
0.0
 51
90.1595646394394947
  0
LINE
  5
D920
  8
01_表面形状
 62
     3
 10
929.9932632190907498
 20
-212.7075252208549898
 30
0.0
 11
931.5780237597078894
 21
-212.7075252208549898
 31
0.0
  0
LINE
  5
D921
  8
01_表面形状
 62
     3
 10
928.8151859804576134
 20
-218.0075251994217069
 30
0.0
 11
930.399946521074753
 21
-218.0075251994217069
 31
0.0
  0
LINE
  5
D922
  8
01_表面形状
 62
     3
 10
929.6737338084083149
 20
-217.3450252021007998
 30
0.0
 11
929.8157468798226546
 21
-217.3450252021007998
 31
0.0
  0
ARC
  5
D923
  8
01_表面形状
 62
     3
 10
929.8157468798226546
 20
-215.7550252085308955
 30
0.0
 40
1.5899999935699991
 50
270.0
 51
345.0000000000022169
  0
LINE
  5
D924
  8
01_表面形状
 62
     3
 10
929.9932632190907498
 20
-212.7075252208549898
 30
0.0
 11
931.5780237597078894
 21
-212.7075252208549898
 31
0.0
  0
ARC
  5
D925
  8
01_表面形状
 62
     3
 10
931.5780237597078894
 20
-214.2975252144250078
 30
0.0
 40
1.5899999935699991
 50
344.9999999999992042
 51
90.0
  0
ARC
  5
D926
  8
01_表面形状
 62
     3
 10
929.9932632190907498
 20
-215.0925252112099884
 30
0.0
 40
2.3849999903549981
 50
90.0
 51
164.9999999999990905
  0
LINE
  5
D927
  8
01_表面形状
 62
     3
 10
930.5774628603429619
 20
-213.3700252181758117
 30
0.0
 11
930.7194759317567332
 21
-213.3700252181758117
 31
0.0
  0
ARC
  5
D928
  8
01_表面形状
 62
     3
 10
930.5774628603429619
 20
-214.9600252117458012
 30
0.0
 40
1.5899999935699991
 50
90.0
 51
164.9999999999990905
  0
LINE
  5
D929
  8
01_表面形状
 62
     3
 10
927.6895301327075458
 20
-214.4752417911369093
 30
0.0
 11
927.279363922868697
 21
-216.0060029258029886
 31
0.0
  0
ARC
  5
D92A
  8
01_表面形状
 62
     3
 10
928.8151859804576134
 20
-216.4175252058516037
 30
0.0
 40
1.5899999935699991
 50
164.9999999999990905
 51
270.0
  0
LINE
  5
D92B
  8
01_表面形状
 62
     3
 10
929.0416408027540456
 20
-214.5485029316967882
 30
0.0
 11
928.649852436682977
 21
-216.0106770196881882
 31
0.0
  0
ARC
  5
D92C
  8
01_表面形状
 62
     3
 10
929.6737338084083149
 20
-216.2850252063875871
 30
0.0
 40
1.059999995713333
 50
164.9999999999990905
 51
270.0
  0
LINE
  5
D92D
  8
01_表面形状
 62
     3
 10
933.1138458172970331
 20
-214.7090474944739071
 30
0.0
 11
932.703679607457957
 21
-216.2398086291399864
 31
0.0
  0
ARC
  5
D92E
  8
01_表面形状
 62
     3
 10
930.399946521074753
 20
-215.6225252090667084
 30
0.0
 40
2.3849999903549981
 50
270.0
 51
344.9999999999992042
  0
LINE
  5
D92F
  8
01_表面形状
 62
     3
 10
931.7433573034826395
 20
-214.7043734005883948
 30
0.0
 11
931.3515689374113435
 21
-216.1665474885795959
 31
0.0
  0
ARC
  5
D930
  8
01_表面形状
 62
     3
 10
930.7194759317567332
 20
-214.4300252138891949
 30
0.0
 40
1.059999995713333
 50
345.0000000000022169
 51
90.0
  0
LINE
  5
D931
  8
01_表面形状
 62
     3
 10
936.2382021848545719
 20
-212.7075252208549898
 30
0.0
 11
936.2398296833874838
 21
-212.7075252208549898
 31
0.0
  0
LINE
  5
D932
  8
01_表面形状
 62
     3
 10
934.6023232128653717
 20
-217.3450252021007998
 30
0.0
 11
937.3691755492853872
 21
-217.3450252021011124
 31
0.0
  0
LINE
  5
D933
  8
01_表面形状
 62
     3
 10
935.6432263581488087
 20
-216.6825252047800916
 30
0.0
 11
936.7066755519643948
 21
-216.6825252047802906
 31
0.0
  0
LINE
  5
D934
  8
01_表面形状
 62
     3
 10
936.2382021848545719
 20
-214.0325252154966051
 30
0.0
 11
936.2398296833871427
 21
-214.0325252154966051
 31
0.0
  0
LINE
  5
D935
  8
01_表面形状
 62
     3
 10
933.9995384267888312
 20
-214.4752417911365967
 30
0.0
 11
933.2765268887885668
 21
-217.1735575854139029
 31
0.0
  0
LINE
  5
D936
  8
01_表面形状
 62
     3
 10
935.2962313228672429
 20
-214.755324879789697
 30
0.0
 11
935.0033005008199325
 21
-215.8485575907722875
 31
0.0
  0
LINE
  5
D937
  8
01_表面形状
 62
     3
 10
934.6023232128653717
 20
-217.3450252021007998
 30
0.0
 11
934.5563786034459781
 21
-217.5164928187880093
 31
0.0
  0
LINE
  5
D938
  8
01_表面形状
 62
     3
 10
938.694175543927031
 20
-215.0077252115530939
 30
0.0
 11
938.6941755439265762
 21
-217.3450252021011977
 31
0.0
  0
LINE
  5
D939
  8
01_表面形状
 62
     3
 10
937.3691755492853872
 20
-215.0925252112099884
 30
0.0
 11
937.3691755492853872
 21
-216.0200252074594118
 31
0.0
  0
ARC
  5
D93A
  8
01_表面形状
 62
     3
 10
933.9164527461171019
 20
-217.3450252021007998
 30
0.0
 40
0.6624999973208335
 50
165.0000000000021885
 51
344.9999999999848228
  0
ARC
  5
D93B
  8
01_表面形状
 62
     3
 10
938.0316755466060386
 20
-217.3450252021011124
 30
0.0
 40
0.6624999973208335
 50
180.0
 51
0.0
  0
ARC
  5
D93C
  8
01_表面形状
 62
     3
 10
935.6432263581488087
 20
-216.0200252074592129
 30
0.0
 40
0.6624999973208335
 50
165.0000000000021885
 51
270.0
  0
ARC
  5
D93D
  8
01_表面形状
 62
     3
 10
936.7066755519643948
 20
-216.0200252074594971
 30
0.0
 40
0.6624999973208335
 50
270.0
 51
0.0000000000032569
  0
ARC
  5
D93E
  8
01_表面形状
 62
     3
 10
936.3032715131721488
 20
-215.0925252112097894
 30
0.0
 40
2.3849999903549981
 50
89.9290824560261939
 51
165.3312556800393907
  0
ARC
  5
D93F
  8
01_表面形状
 62
     3
 10
936.3091755535717766
 20
-215.0925252112097894
 30
0.0
 40
2.3849999903549981
 50
359.9999999999902229
 51
90.0709175439656633
  0
ARC
  5
D940
  8
01_表面形状
 62
     3
 10
936.3032715131722625
 20
-215.0925252112099884
 30
0.0
 40
1.059999995713333
 50
89.8404353605604769
 51
165.496884384451505
  0
ARC
  5
D941
  8
01_表面形状
 62
     3
 10
936.3091755535717766
 20
-215.0925252112099884
 30
0.0
 40
1.059999995713333
 50
0.0
 51
90.1595646394394947
  0
LINE
  5
D942
  8
01_表面形状
 62
     3
 10
922.470663723597454
 20
-212.7075252208549898
 30
0.0
 11
926.5858865240853675
 21
-212.7075252208549898
 31
0.0
  0
LINE
  5
D943
  8
01_表面形状
 62
     3
 10
924.9050575214732817
 20
-214.5235575961305869
 30
0.0
 11
924.1031029455637054
 21
-217.5164928187878957
 31
0.0
  0
LINE
  5
D944
  8
01_表面形状
 62
     3
 10
924.9050575214732817
 20
-214.5235575961305869
 30
0.0
 11
924.1031029455637054
 21
-217.5164928187878957
 31
0.0
  0
LINE
  5
D945
  8
01_表面形状
 62
     3
 10
924.9050575214732817
 20
-214.5235575961303027
 30
0.0
 11
924.1031029455637054
 21
-217.5164928187878957
 31
0.0
  0
ARC
  5
D946
  8
01_表面形状
 62
     3
 10
922.470663723597454
 20
-213.3700252181758117
 30
0.0
 40
0.6624999973208335
 50
90.0
 51
270.0
  0
ARC
  5
D947
  8
01_表面形状
 62
     3
 10
926.5858865240853675
 20
-213.3700252181758117
 30
0.0
 40
0.6624999973208335
 50
270.0
 51
90.0
  0
ARC
  5
D948
  8
01_表面形状
 62
     3
 10
923.4631770882346018
 20
-217.3450252021007998
 30
0.0
 40
0.6624999973208335
 50
164.2944179854804929
 51
344.9999999999992042
  0
LINE
  5
D949
  8
01_表面形状
 62
     3
 10
923.5308637549618425
 20
-214.5329057839012137
 30
0.0
 11
922.8211882295746591
 21
-217.1814509015322869
 31
0.0
  0
VIEWPORT
  5
542
 67
     1
  8
0
 10
185.6233038915470104
 20
148.4223392912986128
 30
0.0
 40
450.4060917083240838
 41
309.2814998667927853
 68
     1
 69
     1
1001
ACAD
1000
MVIEW
1002
{
1070
    16
1010
0.0
1020
0.0
1030
0.0
1010
0.0
1020
0.0
1030
1.0
1040
0.0
1040
309.2814998667927853
1040
185.6233038915470104
1040
148.4223392912986128
1040
50.0
1040
0.0
1040
0.0
1070
     0
1070
  1000
1070
     1
1070
     1
1070
     0
1070
     0
1070
     0
1070
     0
1040
0.0
1040
0.0
1040
0.0
1040
10.0
1040
10.0
1040
10.0
1040
10.0
1070
     0
1002
{
1002
}
1002
}
  0
ENDSEC
  0
EOF
