  0
SECTION
  2
HEADER
  9
$ACADVER
  1
AC1009
  9
$INSBASE
 10
0.0
 20
0.0
 30
0.0
  9
$EXTMIN
 10
811.8758367756120151
 20
-125.9034223817211
 30
-0.0000000349181948
  9
$EXTMAX
 10
936.9711648512153488
 20
36.9793444855101896
 30
0.0000000814935747
  9
$LIMMIN
 10
0.0
 20
0.0
  9
$LIMMAX
 10
297.0
 20
210.0
  9
$ORTHOMODE
 70
     0
  9
$REGENMODE
 70
     1
  9
$FILLMODE
 70
     1
  9
$QTEXTMODE
 70
     0
  9
$MIRRTEXT
 70
     0
  9
$DRAGMODE
 70
     2
  9
$LTSCALE
 40
0.4
  9
$OSMODE
 70
  1447
  9
$ATTMODE
 70
     1
  9
$TEXTSIZE
 40
5.0
  9
$TRACEWID
 40
1.0
  9
$TEXTSTYLE
  7
STANDARD
  9
$CLAYER
  8
0
  9
$CELTYPE
  6
BYLAYER
  9
$CECOLOR
 62
   256
  9
$DIMSCALE
 40
1.0
  9
$DIMASZ
 40
2.5
  9
$DIMEXO
 40
1.0
  9
$DIMDLI
 40
10.0
  9
$DIMRND
 40
0.0
  9
$DIMDLE
 40
0.0
  9
$DIMEXE
 40
1.0
  9
$DIMTP
 40
0.1
  9
$DIMTM
 40
0.1
  9
$DIMTXT
 40
2.5
  9
$DIMCEN
 40
0.0
  9
$DIMTSZ
 40
0.0
  9
$DIMTOL
 70
     0
  9
$DIMLIM
 70
     0
  9
$DIMTIH
 70
     0
  9
$DIMTOH
 70
     0
  9
$DIMSE1
 70
     0
  9
$DIMSE2
 70
     0
  9
$DIMTAD
 70
     3
  9
$DIMZIN
 70
     8
  9
$DIMBLK
  1

  9
$DIMASO
 70
     1
  9
$DIMSHO
 70
     1
  9
$DIMPOST
  1

  9
$DIMAPOST
  1

  9
$DIMALT
 70
     0
  9
$DIMALTD
 70
     2
  9
$DIMALTF
 40
25.3999999999999986
  9
$DIMLFAC
 40
1.0
  9
$DIMTOFL
 70
     1
  9
$DIMTVP
 40
0.0
  9
$DIMTIX
 70
     0
  9
$DIMSOXD
 70
     0
  9
$DIMSAH
 70
     0
  9
$DIMBLK1
  1

  9
$DIMBLK2
  1

  9
$DIMSTYLE
  2
部品図用_1_1
  9
$DIMCLRD
 70
   256
  9
$DIMCLRE
 70
   256
  9
$DIMCLRT
 70
   256
  9
$DIMTFAC
 40
0.7
  9
$DIMGAP
 40
1.0
  9
$LUNITS
 70
     2
  9
$LUPREC
 70
     2
  9
$SKETCHINC
 40
1.0
  9
$FILLETRAD
 40
0.0
  9
$AUNITS
 70
     1
  9
$AUPREC
 70
     3
  9
$MENU
  1
.
  9
$ELEVATION
 40
0.0
  9
$PELEVATION
 40
0.0
  9
$THICKNESS
 40
0.0
  9
$LIMCHECK
 70
     0
  9
$BLIPMODE
 70
     0
  9
$CHAMFERA
 40
0.0
  9
$CHAMFERB
 40
0.0
  9
$SKPOLY
 70
     0
  9
$TDCREATE
 40
2457049.1046296302229166
  9
$TDUPDATE
 40
2460132.4771527778357267
  9
$TDINDWG
 40
0.0782278472
  9
$TDUSRTIMER
 40
0.078227662
  9
$USRTIMER
 70
     1
  9
$ANGBASE
 50
0.0
  9
$ANGDIR
 70
     0
  9
$PDMODE
 70
     3
  9
$PDSIZE
 40
0.0
  9
$PLINEWID
 40
0.0
  9
$COORDS
 70
     1
  9
$SPLFRAME
 70
     0
  9
$SPLINETYPE
 70
     6
  9
$SPLINESEGS
 70
     8
  9
$ATTDIA
 70
     1
  9
$ATTREQ
 70
     1
  9
$HANDLING
 70
     1
  9
$HANDSEED
  5
DC4E
  9
$SURFTAB1
 70
     6
  9
$SURFTAB2
 70
     6
  9
$SURFTYPE
 70
     6
  9
$SURFU
 70
     6
  9
$SURFV
 70
     6
  9
$UCSNAME
  2

  9
$UCSORG
 10
0.0
 20
0.0
 30
0.0
  9
$UCSXDIR
 10
1.0
 20
0.0
 30
0.0
  9
$UCSYDIR
 10
0.0
 20
1.0
 30
0.0
  9
$PUCSNAME
  2

  9
$PUCSORG
 10
0.0
 20
0.0
 30
0.0
  9
$PUCSXDIR
 10
1.0
 20
0.0
 30
0.0
  9
$PUCSYDIR
 10
0.0
 20
1.0
 30
0.0
  9
$USERI1
 70
     0
  9
$USERI2
 70
     0
  9
$USERI3
 70
     0
  9
$USERI4
 70
     0
  9
$USERI5
 70
     0
  9
$USERR1
 40
0.0
  9
$USERR2
 40
0.0
  9
$USERR3
 40
0.0
  9
$USERR4
 40
0.0
  9
$USERR5
 40
0.0
  9
$WORLDVIEW
 70
     1
  9
$SHADEDGE
 70
     3
  9
$SHADEDIF
 70
    70
  9
$TILEMODE
 70
     1
  9
$MAXACTVP
 70
    64
  9
$PLIMCHECK
 70
     0
  9
$PEXTMIN
 10
1.0000000000000000E+20
 20
1.0000000000000000E+20
 30
1.0000000000000000E+20
  9
$PEXTMAX
 10
-1.0000000000000000E+20
 20
-1.0000000000000000E+20
 30
-1.0000000000000000E+20
  9
$PLIMMIN
 10
-5.873748779296875
 20
-5.8737497329711914
  9
$PLIMMAX
 10
291.1369018554688068
 20
204.0995779037475018
  9
$UNITMODE
 70
     0
  9
$VISRETAIN
 70
     1
  9
$PLINEGEN
 70
     0
  9
$PSLTSCALE
 70
     1
  0
ENDSEC
  0
SECTION
  2
TABLES
  0
TABLE
  2
VPORT
 70
     1
  0
VPORT
  2
*ACTIVE
 70
     0
 10
0.0
 20
0.0
 11
1.0
 21
1.0
 12
874.4235008134138525
 22
-44.4620389481054801
 13
0.0
 23
0.0
 14
10.0
 24
10.0
 15
10.0
 25
10.0
 16
0.0
 26
0.0
 36
1.0
 17
0.0
 27
0.0
 37
0.0
 40
97.9395840755656337
 41
1.150300601202404
 42
50.0
 43
0.0
 44
0.0
 50
0.0
 51
0.0
 71
     0
 72
  1000
 73
     1
 74
     3
 75
     0
 76
     0
 77
     0
 78
     0
  0
ENDTAB
  0
TABLE
  2
LTYPE
 70
     3
  0
LTYPE
  2
CONTINUOUS
 70
     0
  3
Solid line
 72
    65
 73
     0
 40
0.0
  0
LTYPE
  2
CENTER
 70
     0
  3
Center ____ _ ____ _ ____ _ ____ _ ____ _ ____
 72
    65
 73
     4
 40
50.7999999999999972
 49
31.75
 49
-6.3499999999999979
 49
6.3499999999999979
 49
-6.3499999999999979
  0
ENDTAB
  0
TABLE
  2
LAYER
 70
     7
  0
LAYER
  2
0
 70
     0
 62
     7
  6
CONTINUOUS
  0
LAYER
  2
01_表面形状
 70
     0
 62
     7
  6
CONTINUOUS
  0
LAYER
  2
04_中心線
 70
     0
 62
     4
  6
CENTER
  0
LAYER
  2
12_文字
 70
     0
 62
     2
  6
CONTINUOUS
  0
LAYER
  2
DEFPOINTS
 70
     0
 62
     7
  6
CONTINUOUS
  0
ENDTAB
  0
TABLE
  2
STYLE
 70
     2
  0
STYLE
  2
STANDARD
 70
     0
 40
0.0
 41
1.0
 50
0.0
 71
     0
 42
5.0
  3
isocp.shx
  4
extfont2.shx
  0
STYLE
  2
MX_NOTE_STANDARD
 70
     0
 40
0.0
 41
1.0
 50
0.0
 71
     0
 42
3.299999999999998
  3
txt.shx
  4
extfont.shx
  0
ENDTAB
  0
TABLE
  2
VIEW
 70
     2
  0
ENDTAB
  0
TABLE
  2
UCS
 70
     0
  0
ENDTAB
  0
TABLE
  2
APPID
 70
    38
  0
APPID
  2
ACAD
 70
     0
  0
APPID
  2
ACAECLAYERSTANDARD
 70
     0
  0
APPID
  2
ACAD_PSEXT
 70
     0
  0
APPID
  2
ACAD_EXEMPT_FROM_CAD_STANDARDS
 70
     0
  0
APPID
  2
GENIUS_GENODEF_13
 70
     0
  0
APPID
  2
GENIUS_GENOBJ-N-CEN_13
 70
     0
  0
APPID
  2
GENIUS_GENCEN_19
 70
     0
  0
APPID
  2
GENIUS_GENTRA_14
 70
     0
  0
APPID
  2
GENIUS_GENOREF_13
 70
     0
  0
APPID
  2
GENIUS_GENSCREG_15
 70
     0
  0
APPID
  2
GENIUS_GENOBJ-N-SDF_13
 70
     0
  0
APPID
  2
GENIUS_GENOBJ-N-LIB_13
 70
     0
  0
APPID
  2
GENIUS_GENOBJ-N-RSBK_13
 70
     0
  0
APPID
  2
GENIUS_GENSCALE_13
 70
     0
  0
APPID
  2
GENIUS_AMGTXT_16
 70
     0
  0
APPID
  2
GENIUS_GENFIL_13
 70
     0
  0
APPID
  2
GENIUS_GENOBJ-N-CHA_13
 70
     0
  0
APPID
  2
GENIUS_GENOBJ-N-FIL_13
 70
     0
  0
APPID
  2
GENIUS_GENDTOL_13
 70
     0
  0
APPID
  2
ACAD_DIMASSOC_DIMLFAC
 70
     0
  0
APPID
  2
ACAD_DIMASSOC_CALC_DIMLFAC
 70
     0
  0
APPID
  2
ACAD_DIMASSOC_OVERRIDDEN_D
 70
     0
  0
APPID
  2
GENIUS_GENOBJ-N-ZOO_13
 70
     0
  0
APPID
  2
GENIUS_GENZOO_16
 70
     0
  0
APPID
  2
ACAD_DSTYLE_DIMJAG
 70
     0
  0
APPID
  2
ACAD_DSTYLE_DIMTALN
 70
     0
  0
APPID
  2
ACAD_DSTYLE_DIMBREAK
 70
     0
  0
APPID
  2
ACAD_DSTYLE_DIMARC_LENGTH_
 70
     0
  0
APPID
  2
ACAD_DSTYLE_DIMJOGGED_JOGA
 70
     0
  0
APPID
  2
ACAD_DSTYLE_DIM_LINETYPE
 70
     0
  0
APPID
  2
ACAD_DSTYLE_DIM_EXT1_LINETYPE
 70
     0
  0
APPID
  2
ACAD_DSTYLE_DIM_EXT2_LINETYPE
 70
     0
  0
APPID
  2
ACDBATTR
 70
     0
  0
APPID
  2
ACAD_MLEADERVER
 70
     0
  0
APPID
  2
ACAD_DSTYLE_DIMRADIAL_EXTENSION
 70
     0
  0
APPID
  2
ACADANNOPO
 70
     0
  0
APPID
  2
ACAUTHENVIRON
 70
     0
  0
APPID
  2
ACAD_NAV_VCDISPLAY
 70
     0
  0
ENDTAB
  0
TABLE
  2
DIMSTYLE
 70
     2
  0
DIMSTYLE
  2
部品図用_1_1
 70
     0
  3

  4

  5

  6

  7

 40
1.0
 41
2.5
 42
1.0
 43
10.0
 44
1.0
 45
0.0
 46
0.0
 47
0.1
 48
0.1
140
2.5
141
0.0
142
0.0
143
25.3999999999999986
144
1.0
145
0.0
146
0.7
147
1.0
 71
     0
 72
     0
 73
     0
 74
     0
 75
     0
 76
     0
 77
     3
 78
     8
170
     0
171
     2
172
     1
173
     0
174
     0
175
     0
176
   256
177
   256
178
   256
  0
DIMSTYLE
  2
STANDARD
 70
     0
  3

  4

  5
OPEN30
  6

  7

 40
1.0
 41
0.18
 42
0.0625
 43
0.38
 44
0.18
 45
0.0
 46
0.0
 47
0.0
 48
0.0
140
0.18
141
0.09
142
0.0
143
25.3999999999999986
144
1.0
145
0.0
146
1.0
147
0.09
 71
     0
 72
     0
 73
     0
 74
     0
 75
     0
 76
     0
 77
     1
 78
     0
170
     0
171
     2
172
     1
173
     0
174
     0
175
     0
176
     0
177
     0
178
     0
  0
ENDTAB
  0
ENDSEC
  0
SECTION
  2
BLOCKS
  0
BLOCK
  8
0
  2
$MODEL_SPACE
 70
     2
 10
0.0
 20
0.0
 30
0.0
  3
$MODEL_SPACE
  1

  0
ENDBLK
  5
39
  8
0
  0
BLOCK
 67
     1
  8
0
  2
$PAPER_SPACE
 70
     0
 10
0.0
 20
0.0
 30
0.0
  3
$PAPER_SPACE
  1

  0
ENDBLK
  5
35
 67
     1
  8
0
  0
BLOCK
  8
0
  2
_OPEN30
 70
     0
 10
0.0
 20
0.0
 30
0.0
  3
_OPEN30
  1

  0
LINE
  5
93EB
  8
0
  6
BYBLOCK
 62
     0
 10
-1.0
 20
0.26794919
 30
0.0
 11
0.0
 21
0.0
 31
0.0
  0
LINE
  5
93EC
  8
0
  6
BYBLOCK
 62
     0
 10
0.0
 20
0.0
 30
0.0
 11
-1.0
 21
-0.26794919
 31
0.0
  0
LINE
  5
93ED
  8
0
  6
BYBLOCK
 62
     0
 10
0.0
 20
0.0
 30
0.0
 11
-1.0
 21
0.0
 31
0.0
  0
ENDBLK
  5
93EE
  8
0
  0
ENDSEC
  0
SECTION
  2
ENTITIES
  0
ARC
  5
D683
  8
01_表面形状
 62
     3
 10
915.4139749247477766
 20
-63.7928246868927786
 30
0.0
 40
16.5
 50
167.5912504273121897
 51
12.4087495726909207
  0
LINE
  5
D684
  8
04_中心線
 62
   110
 10
915.4139749247477766
 20
-20.7928246868928888
 30
0.0
 11
915.4139749247486861
 21
-85.2928246868927715
 31
0.0
  0
LINE
  5
D685
  8
01_表面形状
 62
     3
 10
900.9139749247478903
 20
-41.7928246868928213
 30
0.0
 11
899.2994235878898053
 21
-60.2472309126760308
 31
0.0
  0
LINE
  5
D686
  8
01_表面形状
 62
     3
 10
929.9139749247477766
 20
-41.7928246868928213
 30
0.0
 11
931.5285262616058617
 21
-60.2472309126755334
 31
0.0
  0
LINE
  5
D687
  8
04_中心線
 62
   110
 10
893.9139749247478903
 20
-63.7928246868927786
 30
0.0
 11
936.9139749247477766
 21
-63.7928246868927786
 31
0.0
  0
ARC
  5
D688
  8
01_表面形状
 62
     3
 10
843.8994411116173069
 20
11.9565905187464203
 30
0.0
 40
20.0
 50
90.0
 51
124.9152062474394995
  0
ARC
  5
D689
  8
01_表面形状
 62
     3
 10
840.9249588282596051
 20
-1.5434094812535459
 30
0.0
 40
0.5
 50
270.0
 51
356.9999999999977831
  0
ARC
  5
D68A
  8
01_表面形状
 62
     3
 10
843.8994411116173069
 20
14.9565905187464203
 30
0.0
 40
15.1310000000000002
 50
262.9393720997953778
 51
90.0
  0
ARC
  5
D68B
  8
01_表面形状
 62
     3
 10
843.8994411116173069
 20
14.9565905187464203
 30
0.0
 40
15.1310000000000002
 50
90.0
 51
201.2341231552406953
  0
ARC
  5
D68C
  8
01_表面形状
 62
     3
 10
829.5903530903631236
 20
-2.5434094812535459
 30
0.0
 40
5.0
 50
83.396473443822515
 51
90.0
  0
ARC
  5
D68D
  8
01_表面形状
 62
     3
 10
830.8739233949746676
 20
-1.5434094812535459
 30
0.0
 40
0.5
 50
182.9999999999988916
 51
270.0
  0
LINE
  5
D68E
  8
01_表面形状
 62
     3
 10
835.8994411116173069
 20
-2.0434094812536601
 30
0.0
 11
830.8739233949746676
 21
-2.0434094812535459
 31
0.0
  0
LINE
  5
D68F
  8
01_表面形状
 62
     3
 10
835.8994411116173069
 20
-2.0434094812535459
 30
0.0
 11
840.9249588282598324
 21
-2.0434094812535459
 31
0.0
  0
LINE
  5
D690
  8
01_表面形状
 62
     3
 10
829.7957109350669498
 20
9.4764485400140472
 30
0.0
 11
830.3746086275974676
 21
-1.5695774593749541
 31
0.0
  0
LINE
  5
D691
  8
01_表面形状
 62
     3
 10
826.4710160536822059
 20
2.4565905187483841
 30
0.0
 11
826.3335645134011429
 21
2.4565905187483841
 31
0.0
  0
LINE
  5
D692
  8
01_表面形状
 62
     3
 10
824.6015137058320761
 20
2.2565905187486801
 30
0.0
 11
824.3994411116156016
 21
2.2565905187486801
 31
0.0
  0
ARC
  5
D693
  8
01_表面形状
 62
     3
 10
825.9869338405105736
 20
-2.141499796717766
 30
0.0
 40
4.611137318772105
 50
85.6888667818241601
 51
107.484684325428006
  0
LINE
  5
D694
  8
01_表面形状
 62
     3
 10
829.5903530903631236
 20
2.456590518746451
 30
0.0
 11
826.3335645134280867
 21
2.456590518746423
 31
0.0
  0
ARC
  5
D695
  8
01_表面形状
 62
     3
 10
829.5903530903631236
 20
32.4565905187464523
 30
0.0
 40
5.0
 50
270.0
 51
304.9152062474396985
  0
LINE
  5
D696
  8
01_表面形状
 62
     3
 10
826.4710160536851618
 20
27.4565905187483601
 30
0.0
 11
826.3335645134037577
 21
27.4565905187483601
 31
0.0
  0
ARC
  5
D697
  8
01_表面形状
 62
     3
 10
825.9869338405146664
 20
32.0546808342147429
 30
0.0
 40
4.611137318772105
 50
252.5153156745720082
 51
274.3111332181758257
  0
LINE
  5
D698
  8
01_表面形状
 62
     3
 10
829.5903530903631236
 20
27.456590518746431
 30
0.0
 11
826.3335645133777234
 21
27.456590518746431
 31
0.0
  0
LINE
  5
D699
  8
01_表面形状
 62
     3
 10
870.3994411116173069
 20
3.056590518746475
 30
0.0
 11
870.3994411116173069
 21
26.8565905187464011
 31
0.0
  0
LINE
  5
D69A
  8
04_中心線
 62
   110
 10
843.8994411116173069
 20
-7.0434094812535468
 30
0.0
 11
843.8994411116173069
 21
36.9565905187464523
 31
0.0
  0
LINE
  5
D69B
  8
01_表面形状
 62
     3
 10
870.3994411116173069
 20
2.2565905187465201
 30
0.0
 11
863.3994411116173069
 21
2.2565905187465201
 31
0.0
  0
LINE
  5
D69C
  8
04_中心線
 62
   110
 10
812.3994411116169658
 20
14.9565905187464203
 30
0.0
 11
875.3994411116176479
 21
14.9565905187464203
 31
0.0
  0
LINE
  5
D69D
  8
01_表面形状
 62
     3
 10
863.197368517400605
 20
2.2565905187465201
 30
0.0
 11
863.3994411116173069
 21
2.2565905187465201
 31
0.0
  0
LINE
  5
D69E
  8
01_表面形状
 62
     3
 10
861.3278661695508163
 20
2.456590518746451
 30
0.0
 11
861.4653177098319929
 21
2.456590518746451
 31
0.0
  0
ARC
  5
D69F
  8
01_表面形状
 62
     3
 10
861.3278661695508163
 20
-0.5434094812535477
 30
0.0
 40
3.0
 50
90.0
 51
118.9550243718607021
  0
LINE
  5
D6A0
  8
01_表面形状
 62
     3
 10
841.4787709500985784
 20
-0.529705989776744
 30
0.0
 11
841.4242735956371462
 21
-1.5695774593749541
 31
0.0
  0
ARC
  5
D6A1
  8
01_表面形状
 62
     3
 10
841.9780857174760058
 20
-0.5558739678981512
 30
0.0
 40
0.5
 50
82.939372099795392
 51
177.0000000000011084
  0
ARC
  5
D6A2
  8
01_表面形状
 62
     3
 10
843.8994411116173069
 20
17.9565905187464203
 30
0.0
 40
20.0
 50
262.5327506134896112
 51
270.0
  0
ARC
  5
D6A3
  8
01_表面形状
 62
     3
 10
843.8994411116173069
 20
30.956590518746431
 30
0.0
 40
33.0
 50
270.0
 51
298.9550243718607021
  0
ARC
  5
D6A4
  8
01_表面形状
 62
     3
 10
861.8119483827217664
 20
-2.1414997967198128
 30
0.0
 40
4.611137318772105
 50
72.5153156745719798
 51
94.3111332181758542
  0
LINE
  5
D6A5
  8
01_表面形状
 62
     3
 10
870.3994411116173069
 20
27.6565905187463592
 30
0.0
 11
863.197368517400605
 21
27.6565905187463592
 31
0.0
  0
ARC
  5
D6A6
  8
01_表面形状
 62
     3
 10
861.3278661695508163
 20
30.4565905187464203
 30
0.0
 40
3.0
 50
241.0449756281392979
 51
270.0
  0
LINE
  5
D6A7
  8
01_表面形状
 62
     3
 10
861.3278661695508163
 20
27.456590518746431
 30
0.0
 11
861.4653177098319929
 21
27.456590518746431
 31
0.0
  0
ARC
  5
D6A8
  8
01_表面形状
 62
     3
 10
843.8994411116173069
 20
-1.0434094812535459
 30
0.0
 40
33.0
 50
61.0449756281393334
 51
90.1450403204930524
  0
ARC
  5
D6A9
  8
01_表面形状
 62
     3
 10
861.8119483827217664
 20
32.0546808342126894
 30
0.0
 40
4.611137318772105
 50
265.6888667818241743
 51
287.4846843254280202
  0
LINE
  5
D6AA
  8
01_表面形状
 62
     3
 10
900.9139749247478903
 20
-35.2928246868928781
 30
0.0
 11
929.9139749247477766
 21
-35.2928246868928781
 31
0.0
  0
LINE
  5
D6AB
  8
01_表面形状
 62
     3
 10
900.9139749247478903
 20
-35.2928246868928781
 30
0.0
 11
900.9139749247478903
 21
-41.792824686892601
 31
0.0
  0
LINE
  5
D6AC
  8
01_表面形状
 62
     3
 10
929.9139749247477766
 20
-35.2928246868929207
 30
0.0
 11
929.9139749247477766
 21
-41.792824686892601
 31
0.0
  0
LINE
  5
D6AD
  8
01_表面形状
 62
     3
 10
843.8994411116173069
 20
-35.2928246868927715
 30
0.0
 11
857.8994411116173069
 21
-35.2928246868927715
 31
0.0
  0
ARC
  5
D6AE
  8
01_表面形状
 62
     3
 10
843.8994411116173069
 20
-47.2928246868927786
 30
0.0
 40
33.0
 50
270.0
 51
297.2660444507395141
  0
LINE
  5
D6AF
  8
04_中心線
 62
   110
 10
811.8994411116171932
 20
-63.7928246868927786
 30
0.0
 11
875.8994411116175343
 21
-63.7928246868927786
 31
0.0
  0
LINE
  5
D6B0
  8
01_表面形状
 62
     3
 10
829.3994411116173069
 20
-33.2928246868927715
 30
0.0
 11
829.3994411116173069
 21
-41.7928246868927715
 31
0.0
  0
LINE
  5
D6B1
  8
04_中心線
 62
   110
 10
843.8994411116173069
 20
-20.7928246868927715
 30
0.0
 11
843.8994411116173069
 21
-85.2928246868927715
 31
0.0
  0
ARC
  5
D6B7
  8
01_表面形状
 62
     3
 10
843.8994411116173069
 20
-60.2928246868927715
 30
0.0
 40
20.0
 50
237.1401196211141951
 51
270.0
  0
LINE
  5
D6B8
  8
01_表面形状
 62
     3
 10
826.3335645134028482
 20
-76.2928246868934536
 30
0.0
 11
830.3347811453661507
 21
-76.2928246868927715
 31
0.0
  0
LINE
  5
D6B9
  8
01_表面形状
 62
     3
 10
824.3994411116171932
 20
-78.4575215243096977
 30
0.0
 11
824.6015137058334403
 21
-77.2928246868931126
 31
0.0
  0
ARC
  5
D6BA
  8
01_表面形状
 62
     3
 10
826.333564513401825
 20
-78.2928246868934536
 30
0.0
 40
2.0
 50
89.9999999999739515
 51
149.9999999999849081
  0
ARC
  5
D6BB
  8
01_表面形状
 62
     3
 10
830.3347811453669465
 20
-81.2928246868927715
 30
0.0
 40
5.0
 50
57.140119621114188
 51
90.0000000000130314
  0
LINE
  5
D6E1
  8
04_中心線
 62
   110
 10
829.640824919280135
 20
-47.792824686892871
 30
0.0
 11
842.7913745877511928
 21
-47.792824686892871
 31
0.0
  0
LINE
  5
D6E2
  8
01_表面形状
 62
     3
 10
824.6015137058334403
 20
-50.2928246868924305
 30
0.0
 11
824.3994411116171932
 21
-49.1281278494759022
 31
0.0
  0
POLYLINE
  5
D6E3
  8
01_表面形状
 62
     3
 66
     1
 10
0.0
 20
0.0
 30
0.0
 70
   128
  0
VERTEX
  5
DC08
  8
01_表面形状
 62
     3
 10
828.5882806243281493
 20
-49.5105011938222503
 30
0.0
  0
VERTEX
  5
DC09
  8
01_表面形状
 62
     3
 10
828.5823145837365473
 20
-49.559305410320988
 30
0.0
  0
VERTEX
  5
DC0A
  8
01_表面形状
 62
     3
 10
828.5113400963545018
 20
-49.8821829154322529
 30
0.0
  0
VERTEX
  5
DC0B
  8
01_表面形状
 62
     3
 10
828.381932142743608
 20
-50.2012550606538781
 30
0.0
  0
VERTEX
  5
DC0C
  8
01_表面形状
 62
     3
 10
828.1950124129958795
 20
-50.4996428692848909
 30
0.0
  0
VERTEX
  5
DC0D
  8
01_表面形状
 62
     3
 10
827.9557158985830938
 20
-50.7633485292746798
 30
0.0
  0
VERTEX
  5
DC0E
  8
01_表面形状
 62
     3
 10
827.64506263499959
 20
-50.9981575557288522
 30
0.0
  0
VERTEX
  5
DC0F
  8
01_表面形状
 62
     3
 10
827.3195202021861405
 20
-51.1589736976394178
 30
0.0
  0
VERTEX
  5
DC10
  8
01_表面形状
 62
     3
 10
826.9928013408029983
 20
-51.2539042841289927
 30
0.0
  0
VERTEX
  5
DC11
  8
01_表面形状
 62
     3
 10
826.6744636338636383
 20
-51.2914462140625815
 30
0.0
  0
VERTEX
  5
DC12
  8
01_表面形状
 62
     3
 10
826.6132912315089243
 20
-51.2928246868927786
 30
0.0
  0
SEQEND
  5
DC13
  8
01_表面形状
 62
     3
  0
ARC
  5
D6E4
  8
01_表面形状
 62
     3
 10
826.333564513401825
 20
-49.2928246868920823
 30
0.0
 40
2.0000000000000022
 50
210.0000000000150919
 51
270.0000000000259774
  0
LINE
  5
D6E5
  8
01_表面形状
 62
     3
 10
826.6132912315089243
 20
-51.2928246868927786
 30
0.0
 11
826.3335645134028482
 21
-51.2928246868920894
 31
0.0
  0
LINE
  5
D6E6
  8
01_表面形状
 62
     3
 10
829.3994411116173069
 20
-41.7928246868927715
 30
0.0
 11
828.5882806243281493
 21
-49.5105011938222503
 31
0.0
  0
LINE
  5
D6E9
  8
01_表面形状
 62
     3
 10
829.8994411116171932
 20
-35.2928246868927715
 30
0.0
 11
843.8994411116173069
 21
-35.2928246868927715
 31
0.0
  0
LINE
  5
D6EA
  8
01_表面形状
 62
     3
 10
858.3994411116171932
 20
-41.7928246868927715
 30
0.0
 11
858.3994411116171932
 21
-33.2928246868927715
 31
0.0
  0
LINE
  5
D6EB
  8
01_表面形状
 62
     3
 10
863.3994411116175343
 20
-69.3184468238106035
 30
0.0
 11
863.3994411116175343
 21
-72.0285362464963725
 31
0.0
  0
LINE
  5
D6EC
  8
01_表面形状
 62
     3
 10
860.391863614088038
 20
-76.2928246868927715
 30
0.0
 11
861.4653177098324477
 21
-76.2928246868927715
 31
0.0
  0
ARC
  5
D6ED
  8
01_表面形状
 62
     3
 10
860.391863614088038
 20
-79.2928246868927715
 30
0.0
 40
3.0
 50
90.0
 51
117.2660444507394999
  0
ARC
  5
D6EE
  8
01_表面形状
 62
     3
 10
861.4653177098324477
 20
-78.2928246868927715
 30
0.0
 40
2.0000000000000102
 50
30.0000000000108606
 51
90.0
  0
LINE
  5
D6EF
  8
01_表面形状
 62
     3
 10
863.3994411116175343
 20
-77.554158383414304
 30
0.0
 11
863.3994411116175343
 21
-77.6428246868927943
 31
0.0
  0
LINE
  5
D6F0
  8
01_表面形状
 62
     3
 10
863.1973685174008324
 20
-77.2928246868926578
 30
0.0
 11
863.3994411116175343
 21
-78.4575215243096977
 31
0.0
  0
LINE
  5
D6F1
  8
01_表面形状
 62
     3
 10
870.3994411116173069
 20
-49.1281278494759022
 30
0.0
 11
870.3994411116173069
 21
-78.4575215243096977
 31
0.0
  0
POLYLINE
  5
D6F2
  8
01_表面形状
 62
     3
 66
     1
 10
0.0
 20
0.0
 30
0.0
 70
   128
  0
VERTEX
  5
DC14
  8
01_表面形状
 62
     3
 10
860.9293287150198921
 20
-51.2625715688001122
 30
0.0
  0
VERTEX
  5
DC15
  8
01_表面形状
 62
     3
 10
860.6351640992942293
 20
-51.2035516163959699
 30
0.0
  0
VERTEX
  5
DC16
  8
01_表面形状
 62
     3
 10
860.3054358173486662
 20
-51.0741970779439285
 30
0.0
  0
VERTEX
  5
DC17
  8
01_表面形状
 62
     3
 10
860.0014017175172967
 20
-50.8869959255274225
 30
0.0
  0
VERTEX
  5
DC18
  8
01_表面形状
 62
     3
 10
859.7209377278429656
 20
-50.6329422754501834
 30
0.0
  0
VERTEX
  5
DC19
  8
01_表面形状
 62
     3
 10
859.5064897721766783
 20
-50.3517208259030085
 30
0.0
  0
VERTEX
  5
DC1A
  8
01_表面形状
 62
     3
 10
859.3530911762628648
 20
-50.0569130955386399
 30
0.0
  0
VERTEX
  5
DC1B
  8
01_表面形状
 62
     3
 10
859.2550750198427068
 20
-49.7593478493243708
 30
0.0
  0
VERTEX
  5
DC1C
  8
01_表面形状
 62
     3
 10
859.2115765304833985
 20
-49.4997049676644281
 30
0.0
  0
SEQEND
  5
DC1D
  8
01_表面形状
 62
     3
  0
LINE
  5
D6F3
  8
01_表面形状
 62
     3
 10
863.3994411116175343
 20
-49.1281278494759022
 30
0.0
 11
863.1973685174008324
 21
-50.2928246868928781
 31
0.0
  0
LINE
  5
D6F4
  8
01_表面形状
 62
     3
 10
861.4653177098324477
 20
-51.2928246868928923
 30
0.0
 11
861.3278661695505889
 21
-51.2928246868927786
 31
0.0
  0
ARC
  5
D6F5
  8
01_表面形状
 62
     3
 10
861.3065109073543226
 20
-48.9339668377990904
 30
0.0
 40
2.3589545140706698
 50
260.7992681704918141
 51
270.5186972026264129
  0
ARC
  5
D6F6
  8
01_表面形状
 62
     3
 10
861.4653177098324477
 20
-49.2928246868927786
 30
0.0
 40
2.0000000000000271
 50
270.0
 51
329.9999999999890861
  0
LINE
  5
D6F7
  8
01_表面形状
 62
     3
 10
859.2095431666939476
 20
-49.5004308840090914
 30
0.0
 11
858.3994411116171932
 21
-41.7928246868927715
 31
0.0
  0
LINE
  5
D6F8
  8
01_表面形状
 62
     3
 10
863.3994411116175343
 20
-55.5571131272891705
 30
0.0
 11
863.3994411116175343
 21
-58.2672025499749395
 31
0.0
  0
POLYLINE
  5
D6F9
  8
01_表面形状
 62
     3
 66
     1
 10
0.0
 20
0.0
 30
0.0
 70
     1
  0
VERTEX
  5
DC1E
  8
01_表面形状
 62
     3
 10
853.6994411116171477
 20
14.9565905187464203
 30
0.0
  0
VERTEX
  5
DC1F
  8
01_表面形状
 62
     3
 10
848.7994411116171705
 20
23.4436394758339191
 30
0.0
  0
VERTEX
  5
DC20
  8
01_表面形状
 62
     3
 10
838.9994411116173296
 20
23.4436394758339191
 30
0.0
  0
VERTEX
  5
DC21
  8
01_表面形状
 62
     3
 10
834.0994411116173524
 20
14.9565905187464203
 30
0.0
  0
VERTEX
  5
DC22
  8
01_表面形状
 62
     3
 10
838.9994411116173296
 20
6.4695415616589846
 30
0.0
  0
VERTEX
  5
DC23
  8
01_表面形状
 62
     3
 10
848.7994411116171705
 20
6.4695415616589846
 30
0.0
  0
SEQEND
  5
DC24
  8
01_表面形状
 62
     3
  0
CIRCLE
  5
D6FA
  8
01_表面形状
 62
     3
 10
843.8994411116173069
 20
14.9565905187464203
 30
0.0
 40
8.4870489570874632
  0
CIRCLE
  5
D6FB
  8
01_表面形状
 62
     3
 10
843.8994411116173069
 20
14.9565905187464203
 30
0.0
 40
14.4999999999999396
  0
LINE
  5
D6FC
  8
04_中心線
 62
   110
 10
835.8994411116173069
 20
5.2512982245155788
 30
0.0
 11
835.8994411116173069
 21
-7.4734600373716651
 31
0.0
  0
LINE
  5
D712
  8
01_表面形状
 62
     3
 10
900.9139749247478903
 20
-33.2928246868929065
 30
0.0
 11
900.9139749247478903
 21
-35.2928246868928781
 31
0.0
  0
LINE
  5
D713
  8
01_表面形状
 62
     3
 10
929.9139749247477766
 20
-33.2928246868929705
 30
0.0
 11
929.9139749247477766
 21
-35.2928246868928781
 31
0.0
  0
POLYLINE
  5
D714
  8
01_表面形状
 62
     3
 66
     1
 10
0.0
 20
0.0
 30
0.0
  0
VERTEX
  5
DC25
  8
01_表面形状
 62
     3
 10
923.9010238818351581
 20
-26.7928246868929385
 30
0.0
  0
VERTEX
  5
DC26
  8
01_表面形状
 62
     3
 10
906.9269259676601678
 20
-26.7928246868929385
 30
0.0
  0
SEQEND
  5
DC27
  8
01_表面形状
 62
     3
  0
LINE
  5
D715
  8
01_表面形状
 62
     3
 10
906.9269259676605088
 20
-33.2928246868929492
 30
0.0
 11
906.9269259676605088
 21
-26.7928246868929385
 31
0.0
  0
LINE
  5
D716
  8
01_表面形状
 62
     3
 10
923.9010238818354992
 20
-33.2928246868929492
 30
0.0
 11
923.9010238818354992
 21
-26.7928246868929385
 31
0.0
  0
ARC
  5
D717
  8
01_表面形状
 62
     3
 10
911.1704504462046543
 20
-39.0496277212589575
 30
0.0
 40
12.2568030345195407
 50
69.743841995570321
 51
110.2561580044295937
  0
ARC
  5
D718
  8
01_表面形状
 62
     3
 10
919.6574994032920358
 20
-39.049627092885892
 30
0.0
 40
12.2568024450086899
 50
69.7438409785884232
 51
110.2561590214115057
  0
LINE
  5
D719
  8
01_表面形状
 62
     3
 10
900.9139749247478903
 20
-33.2928246868929492
 30
0.0
 11
929.9139749247482314
 21
-33.2928246868929492
 31
0.0
  0
POLYLINE
  5
D71A
  8
01_表面形状
 62
     3
 66
     1
 10
0.0
 20
0.0
 30
0.0
 70
     1
  0
VERTEX
  5
DC28
  8
01_表面形状
 62
     3
 10
902.7139749247479585
 20
-71.1251731056009362
 30
0.0
  0
VERTEX
  5
DC29
  8
01_表面形状
 62
     3
 10
915.4139749247477766
 20
-78.4575215243094419
 30
0.0
  0
VERTEX
  5
DC2A
  8
01_表面形状
 62
     3
 10
928.1139749247483905
 20
-71.1251731056011636
 30
0.0
  0
VERTEX
  5
DC2B
  8
01_表面形状
 62
     3
 10
928.1139749247483905
 20
-56.4604762681844292
 30
0.0
  0
VERTEX
  5
DC2C
  8
01_表面形状
 62
     3
 10
915.4139749247483451
 20
-49.1281278494759306
 30
0.0
  0
VERTEX
  5
DC2D
  8
01_表面形状
 62
     3
 10
902.7139749247479585
 20
-56.4604762681841734
 30
0.0
  0
SEQEND
  5
DC2E
  8
01_表面形状
 62
     3
  0
CIRCLE
  5
D71B
  8
01_表面形状
 62
     3
 10
915.4139749247477766
 20
-63.7928246868927786
 30
0.0
 40
9.3155000000000001
  0
CIRCLE
  5
D71C
  8
01_表面形状
 62
     3
 10
915.4139749247477766
 20
-63.7928246868927786
 30
0.0
 40
10.4774999999999991
  0
LINE
  5
D721
  8
04_中心線
 62
   110
 10
905.7116315769707171
 20
-47.7928246868927928
 30
0.0
 11
892.9868733150835851
 21
-47.7928246868929705
 31
0.0
  0
LINE
  5
D72E
  8
01_表面形状
 62
     3
 10
894.4108440331011707
 20
-47.7928246868929421
 30
0.0
 11
897.6510271124592464
 21
-47.7928246868929421
 31
0.0
  0
LINE
  5
D72F
  8
01_表面形状
 62
     3
 10
900.8919515864007508
 20
-42.163504839272882
 30
0.0
 11
898.8982139194065439
 21
-42.2679922028729891
 31
0.0
  0
LINE
  5
D730
  8
01_表面形状
 62
     3
 10
898.4243818975280647
 20
-42.7673069702502673
 30
0.0
 11
898.4243818975280647
 21
-47.792824686892871
 31
0.0
  0
ARC
  5
D731
  8
01_表面形状
 62
     3
 10
898.924381897527951
 20
-42.7673069702502673
 30
0.0
 40
0.5
 50
92.9999999999991047
 51
180.0
  0
LINE
  5
D732
  8
01_表面形状
 62
     3
 10
899.9114439586976459
 20
-53.3707583071748672
 30
0.0
 11
898.8982139194065439
 21
-53.3176571709127813
 31
0.0
  0
ARC
  5
D733
  8
01_表面形状
 62
     3
 10
898.924381897527951
 20
-52.8183424035354605
 30
0.0
 40
0.5
 50
180.0
 51
266.9999999999943725
  0
LINE
  5
D734
  8
01_表面形状
 62
     3
 10
898.4243818975280647
 20
-47.792824686892871
 30
0.0
 11
898.4243818975280647
 21
-52.8183424035355671
 31
0.0
  0
ARC
  5
D735
  8
01_表面形状
 62
     3
 10
835.8994411116173069
 20
-47.792824686892871
 30
0.0
 40
5.5
 50
245.3800226713439088
 51
294.6199773286560912
  0
ARC
  5
D736
  8
01_表面形状
 62
     3
 10
835.8994411116173069
 20
-47.792824686892871
 30
0.0
 40
5.5
 50
305.380022671342374
 51
354.6199773286546133
  0
ARC
  5
D737
  8
01_表面形状
 62
     3
 10
835.8994411116173069
 20
-47.792824686892871
 30
0.0
 40
5.5
 50
5.3800226713454293
 51
54.6199773286571428
  0
ARC
  5
D738
  8
01_表面形状
 62
     3
 10
835.8994411116173069
 20
-47.792824686892871
 30
0.0
 40
5.5
 50
65.380022671344264
 51
114.6199773286553949
  0
ARC
  5
D739
  8
01_表面形状
 62
     3
 10
835.8994411116173069
 20
-47.792824686892871
 30
0.0
 40
5.5
 50
125.3800226713424024
 51
174.6199773286570007
  0
ARC
  5
D73A
  8
01_表面形状
 62
     3
 10
835.8994411116173069
 20
-47.792824686892871
 30
0.0
 40
5.5
 50
185.3800226713414077
 51
234.6199773286581092
  0
POLYLINE
  5
D73B
  8
01_表面形状
 62
     3
 66
     1
 10
0.0
 20
0.0
 30
0.0
 70
     1
  0
VERTEX
  5
DC2F
  8
01_表面形状
 62
     3
 10
833.012689765669279
 20
-52.7928246868928781
 30
0.0
  0
VERTEX
  5
DC30
  8
01_表面形状
 62
     3
 10
838.7861924575654484
 20
-52.7928246868928781
 30
0.0
  0
VERTEX
  5
DC31
  8
01_表面形状
 62
     3
 10
841.6729438035134763
 20
-47.792824686892871
 30
0.0
  0
VERTEX
  5
DC32
  8
01_表面形状
 62
     3
 10
838.7861924575654484
 20
-42.7928246868928426
 30
0.0
  0
VERTEX
  5
DC33
  8
01_表面形状
 62
     3
 10
833.012689765669279
 20
-42.7928246868928426
 30
0.0
  0
VERTEX
  5
DC34
  8
01_表面形状
 62
     3
 10
830.1259384197210238
 20
-47.7928246868928426
 30
0.0
  0
SEQEND
  5
DC35
  8
01_表面形状
 62
     3
  0
CIRCLE
  5
D73C
  8
01_表面形状
 62
     3
 10
835.8994411116173069
 20
-47.792824686892871
 30
0.0
 40
4.9999999999999867
  0
LINE
  5
D73D
  8
04_中心線
 62
   110
 10
835.8994411116173069
 20
-54.5404813391154093
 30
0.0
 11
835.8994411116173069
 21
-40.6967099175245721
 31
0.0
  0
POLYLINE
  5
D73E
  8
01_表面形状
 62
     3
 66
     1
 10
0.0
 20
0.0
 30
0.0
  0
VERTEX
  5
DC36
  8
01_表面形状
 62
     3
 10
834.0994411116172387
 20
-27.5508573249511315
 30
0.0
  0
VERTEX
  5
DC37
  8
01_表面形状
 62
     3
 10
834.0994411116172387
 20
-33.2928246868927715
 30
0.0
  0
VERTEX
  5
DC38
  8
01_表面形状
 62
     3
 10
853.6994411116171477
 20
-33.2928246868927715
 30
0.0
  0
VERTEX
  5
DC39
  8
01_表面形状
 62
     3
 10
853.6994411116171477
 20
-27.5508573249511315
 30
0.0
  0
SEQEND
  5
DC3A
  8
01_表面形状
 62
     3
  0
POLYLINE
  5
D73F
  8
01_表面形状
 62
     3
 66
     1
 10
0.0
 20
0.0
 30
0.0
  0
VERTEX
  5
DC3B
  8
01_表面形状
 62
     3
 10
852.3864900687045747
 20
-26.7928246868927715
 30
0.0
  0
VERTEX
  5
DC3C
  8
01_表面形状
 62
     3
 10
835.4123921545295843
 20
-26.7928246868927715
 30
0.0
  0
SEQEND
  5
DC3D
  8
01_表面形状
 62
     3
  0
LINE
  5
D740
  8
01_表面形状
 62
     3
 10
848.7994411116171705
 20
-33.2928246868927715
 30
0.0
 11
848.7994411116171705
 21
-27.5508573249510107
 31
0.0
  0
LINE
  5
D741
  8
01_表面形状
 62
     3
 10
838.9994411116173296
 20
-33.2928246868927715
 30
0.0
 11
838.9994411116173296
 21
-27.5508573249510107
 31
0.0
  0
ARC
  5
D742
  8
01_表面形状
 62
     3
 10
851.2494411116174433
 20
-31.1311032451937706
 30
0.0
 40
4.338278558300984
 50
55.6157525319617392
 51
124.3842474680381969
  0
ARC
  5
D743
  8
01_表面形状
 62
     3
 10
843.8994411116173069
 20
-43.0088899630095582
 30
0.0
 40
16.2160652761168009
 50
72.412046226009025
 51
107.587953773990904
  0
ARC
  5
D744
  8
01_表面形状
 62
     3
 10
836.5494411116171705
 20
-31.1311032451937706
 30
0.0
 40
4.338278558300984
 50
55.6157525319617392
 51
124.3842474680381969
  0
LINE
  5
D745
  8
01_表面形状
 62
     3
 10
835.4123921545295843
 20
-26.7928246868927715
 30
0.0
 11
834.0994411116173524
 21
-27.5508573249510711
 31
0.0
  0
LINE
  5
D746
  8
01_表面形状
 62
     3
 10
829.3994411116173069
 20
-33.2928246868927715
 30
0.0
 11
858.3994411116171932
 21
-33.2928246868927715
 31
0.0
  0
LINE
  5
D747
  8
01_表面形状
 62
     3
 10
829.3994411116173069
 20
-35.2928246868927715
 30
0.0
 11
858.3994411116171932
 21
-35.2928246868927715
 31
0.0
  0
LINE
  5
D748
  8
01_表面形状
 62
     3
 10
852.3864900687045747
 20
-26.7928246868927715
 30
0.0
 11
853.6994411116171477
 21
-27.5508573249510711
 31
0.0
  0
LINE
  5
D749
  8
01_表面形状
 62
     3
 10
863.3994411116175343
 20
-49.1281278494759022
 30
0.0
 11
863.3994411116175343
 21
-78.4575215243096977
 31
0.0
  0
LINE
  5
D74A
  8
01_表面形状
 62
     3
 10
870.3994411116173069
 20
-49.1281278494759022
 30
0.0
 11
863.3994411116175343
 21
-49.1281278494759022
 31
0.0
  0
LINE
  5
D74B
  8
01_表面形状
 62
     3
 10
870.3994411116173069
 20
-56.4604762681841734
 30
0.0
 11
863.3994411116175343
 21
-56.4604762681841734
 31
0.0
  0
LINE
  5
D74C
  8
01_表面形状
 62
     3
 10
870.3994411116173069
 20
-71.1251731056012488
 30
0.0
 11
863.3994411116175343
 21
-71.1251731056012488
 31
0.0
  0
LINE
  5
D74D
  8
01_表面形状
 62
     3
 10
870.3994411116173069
 20
-78.4575215243096977
 30
0.0
 11
863.3994411116175343
 21
-78.4575215243096977
 31
0.0
  0
LINE
  5
D74E
  8
01_表面形状
 62
     3
 10
817.3994411116171932
 20
-49.1281278494759022
 30
0.0
 11
817.3994411116171932
 21
-78.4575215243096977
 31
0.0
  0
LINE
  5
D74F
  8
01_表面形状
 62
     3
 10
824.3994411116171932
 20
-49.1281278494759022
 30
0.0
 11
824.3994411116171932
 21
-78.4575215243096977
 31
0.0
  0
LINE
  5
D750
  8
01_表面形状
 62
     3
 10
817.3994411116171932
 20
-49.1281278494759022
 30
0.0
 11
824.3994411116171932
 21
-49.1281278494759022
 31
0.0
  0
LINE
  5
D751
  8
01_表面形状
 62
     3
 10
817.3994411116171932
 20
-56.4604762681841734
 30
0.0
 11
824.3994411116171932
 21
-56.4604762681841734
 31
0.0
  0
LINE
  5
D752
  8
01_表面形状
 62
     3
 10
817.3994411116171932
 20
-71.1251731056012488
 30
0.0
 11
824.3994411116171932
 21
-71.1251731056012488
 31
0.0
  0
LINE
  5
D753
  8
01_表面形状
 62
     3
 10
817.3994411116171932
 20
-78.4575215243096977
 30
0.0
 11
824.3994411116171932
 21
-78.4575215243096977
 31
0.0
  0
LINE
  5
D754
  8
01_表面形状
 62
     3
 10
870.3994411116173069
 20
27.6565905187463592
 30
0.0
 11
870.3994411116173069
 21
2.2565905187465201
 31
0.0
  0
LINE
  5
D755
  8
01_表面形状
 62
     3
 10
863.2108231947537433
 20
27.6565905187463592
 30
0.0
 11
863.2108231947537433
 21
2.2565905187464912
 31
0.0
  0
LINE
  5
D756
  8
01_表面形状
 62
     3
 10
870.3994411116173069
 20
14.9565905187464203
 30
0.0
 11
863.197368517400605
 21
14.9565905187464203
 31
0.0
  0
LINE
  5
D757
  8
01_表面形状
 62
     3
 10
817.3994411116168521
 20
3.056590518746475
 30
0.0
 11
817.3994411116168521
 21
26.8565905187464011
 31
0.0
  0
LINE
  5
D758
  8
01_表面形状
 62
     3
 10
817.3994411116168521
 20
2.2565905187465201
 30
0.0
 11
824.3994411116171932
 21
2.2565905187465201
 31
0.0
  0
LINE
  5
D759
  8
01_表面形状
 62
     3
 10
824.6015137058338951
 20
2.2565905187465201
 30
0.0
 11
824.3994411116171932
 21
2.2565905187465201
 31
0.0
  0
LINE
  5
D75A
  8
01_表面形状
 62
     3
 10
817.3994411116168521
 20
27.6565905187463592
 30
0.0
 11
824.6015137058338951
 21
27.6565905187463592
 31
0.0
  0
LINE
  5
D75B
  8
01_表面形状
 62
     3
 10
817.3994411116168521
 20
27.6565905187463592
 30
0.0
 11
817.3994411116168521
 21
2.2565905187465201
 31
0.0
  0
LINE
  5
D75C
  8
01_表面形状
 62
     3
 10
824.5880590284808704
 20
27.6565905187463592
 30
0.0
 11
824.5880590284808704
 21
2.2565905187464912
 31
0.0
  0
LINE
  5
D75D
  8
01_表面形状
 62
     3
 10
817.3994411116168521
 20
14.9565905187464203
 30
0.0
 11
824.6015137058338951
 21
14.9565905187464203
 31
0.0
  0
LINE
  5
D75E
  8
01_表面形状
 62
     3
 10
915.4139749247482314
 20
-27.5508573249511315
 30
0.0
 11
915.4139749247477766
 21
-33.2928246868929492
 31
0.0
  0
TEXT
  5
D75F
  8
12_文字
 62
   110
 10
814.2981240451102849
 20
-109.8829229663215017
 30
0.0
 40
4.1671809999999976
  1
        SWING CHECK VALVE 1/2
 41
0.951574
  7
MX_NOTE_STANDARD
 11
814.2981240451102849
 21
-107.799332466321502
 31
0.0
 73
     2
  0
TEXT
  5
D760
  8
12_文字
 62
   110
 10
814.2709760451101602
 20
-125.8829229663215017
 30
0.0
 40
4.1671809999999976
  1
TOA
 41
0.9124859999999999
  7
MX_NOTE_STANDARD
 11
814.2709760451101602
 21
-123.799332466321502
 31
0.0
 73
     2
  0
TEXT
  5
D761
  8
12_文字
 62
   110
 10
814.3514930451103737
 20
-117.8829229663215017
 30
0.0
 40
4.1671809999999976
  1
FIG   TS1/2
 41
1.028416999999999
  7
MX_NOTE_STANDARD
 11
814.3514930451103737
 21
-115.799332466321502
 31
0.0
 73
     2
  0
TEXT
  5
D762
  8
12_文字
 62
   110
 10
814.2731170451103253
 20
-101.8829229663215017
 30
0.0
 40
4.1671809999999976
  1
NAME  CLASS 125 CAST BRASS
 41
0.9155689999999999
  7
MX_NOTE_STANDARD
 11
814.2731170451103253
 21
-99.799332466321502
 31
0.0
 73
     2
  0
LINE
  5
D97C
  8
01_表面形状
 62
     3
 10
830.8994411116174206
 20
-6.2538164540336521
 30
0.0
 11
840.8994411116173069
 21
-6.2538164540335401
 31
0.0
  0
ARC
  5
D97D
  8
01_表面形状
 62
     3
 10
840.2298167845913213
 20
-3.6985456209260961
 30
0.0
 40
2.555270833107417
 50
235.6005266118974077
 51
304.3994733880952026
  0
LINE
  5
D97E
  8
01_表面形状
 62
     3
 10
840.8994411116173069
 20
-6.2538164540335401
 30
0.0
 11
830.8994411116171932
 21
-6.2538164540335401
 31
0.0
  0
LINE
  5
D981
  8
01_表面形状
 62
     3
 10
830.8994411116174206
 20
-6.2538164540336521
 30
0.0
 11
830.1254411116174197
 21
-5.806947345681122
 31
0.0
  0
ARC
  5
D982
  8
01_表面形状
 62
     3
 10
831.5690654386430651
 20
-3.6985456209260961
 30
0.0
 40
2.555270833107417
 50
235.6005266118974077
 51
304.3994733880952026
  0
ARC
  5
D983
  8
01_表面形状
 62
     3
 10
835.8994411116173069
 20
3.2937503544978881
 30
0.0
 40
9.54756680853143
 50
252.4009153227634101
 51
287.5990846772364193
  0
LINE
  5
D984
  8
01_表面形状
 62
     3
 10
840.8994411116173069
 20
-6.2538164540335401
 30
0.0
 11
841.6734411116173078
 21
-5.8069473456805554
 31
0.0
  0
LINE
  5
D986
  8
01_表面形状
 62
     3
 10
841.6729438035134763
 20
-5.8072877668003571
 30
0.0
 11
841.6729438035134763
 21
-3.5273191459315001
 31
0.0
  0
LINE
  5
D987
  8
01_表面形状
 62
     3
 10
838.7861924575654484
 20
-5.8069473456807241
 30
0.0
 11
838.7861924575654484
 21
-3.5276595670490831
 31
0.0
  0
LINE
  5
D988
  8
01_表面形状
 62
     3
 10
833.012689765669279
 20
-5.8069473456807241
 30
0.0
 11
833.012689765669279
 21
-3.5276595670510171
 31
0.0
  0
LINE
  5
D989
  8
01_表面形状
 62
     3
 10
830.1259384197210238
 20
-5.8072877668003571
 30
0.0
 11
830.1259384197210238
 21
-3.5273191459298232
 31
0.0
  0
ARC
  5
D98A
  8
01_表面形状
 62
     3
 10
840.2298167845898433
 20
-5.6360612918047357
 30
0.0
 40
2.555270833107417
 50
55.6005266118973225
 51
124.3994733881027059
  0
ARC
  5
D98B
  8
01_表面形状
 62
     3
 10
831.5690654386418146
 20
-5.6360612918048503
 30
0.0
 40
2.555270833107417
 50
55.6005266118973225
 51
124.3994733881027059
  0
ARC
  5
D98C
  8
01_表面形状
 62
     3
 10
835.8994411116157153
 20
-12.6283572672287807
 30
0.0
 40
9.54756680853143
 50
72.4009153227636091
 51
107.5990846772364051
  0
LINE
  5
D98D
  8
01_表面形状
 62
     3
 10
841.6729438035184785
 20
-3.5273191459348809
 30
0.0
 11
840.1890341388370871
 21
-2.0434094812536601
 31
0.0
  0
LINE
  5
D98E
  8
01_表面形状
 62
     3
 10
830.1259384197206828
 20
-3.527319145929936
 30
0.0
 11
831.6098480843970719
 21
-2.0434094812536312
 31
0.0
  0
LINE
  5
D98F
  8
01_表面形状
 62
     3
 10
894.2139749247480722
 20
-42.7928246868933826
 30
0.0
 11
894.2139749247481859
 21
-52.7928246868931268
 31
0.0
  0
LINE
  5
D990
  8
01_表面形状
 62
     3
 10
894.2139749247481859
 20
-52.7928246868931623
 30
0.0
 11
894.2139749247481859
 21
-42.7928246868931623
 31
0.0
  0
LINE
  5
D991
  8
01_表面形状
 62
     3
 10
894.2139749247481859
 20
-52.7928246868929492
 30
0.0
 11
897.7139749247484133
 21
-52.7928246868929207
 31
0.0
  0
LINE
  5
D992
  8
01_表面形状
 62
     3
 10
894.2139749247480722
 20
-42.7928246868929492
 30
0.0
 11
897.7139749247480722
 21
-42.7928246868929492
 31
0.0
  0
LINE
  5
D993
  8
01_表面形状
 62
     3
 10
894.660844033101057
 20
-47.7928246868931197
 30
0.0
 11
897.9010271124591327
 21
-47.7928246868931197
 31
0.0
  0
LINE
  5
D994
  8
01_表面形状
 62
     3
 10
894.2139749247480722
 20
-42.7928246868933826
 30
0.0
 11
894.2139749247481859
 21
-52.7928246868931268
 31
0.0
  0
LINE
  5
D995
  8
01_表面形状
 62
     3
 10
894.2139749247481859
 20
-52.7928246868931623
 30
0.0
 11
894.2139749247481859
 21
-42.7928246868931623
 31
0.0
  0
LINE
  5
D996
  8
01_表面形状
 62
     3
 10
894.2139749247481859
 20
-52.7928246868929492
 30
0.0
 11
897.7139749247484133
 21
-52.7928246868928994
 31
0.0
  0
LINE
  5
D997
  8
01_表面形状
 62
     3
 10
894.2139749247480722
 20
-42.7928246868929492
 30
0.0
 11
897.7139749247480722
 21
-42.7928246868929492
 31
0.0
  0
ARC
  5
D998
  8
01_表面形状
 62
     3
 10
901.4265930471345882
 20
-50.2928246868930415
 30
0.0
 40
7.2128607168649781
 50
159.7203133156147885
 51
200.2796866843850978
  0
ARC
  5
D999
  8
01_表面形状
 62
     3
 10
901.4293481929873906
 20
-45.29282468689307
 30
0.0
 40
7.2154451395875938
 50
159.7278962371507021
 51
200.2721037628492127
  0
ARC
  5
D99A
  8
01_表面形状
 62
     3
 10
890.4990336854635871
 20
-50.2928246868931694
 30
0.0
 40
7.2149898748222761
 50
339.7265608717332839
 51
20.2734391282667303
  0
ARC
  5
D99B
  8
01_表面形状
 62
     3
 10
890.4977905909404399
 20
-45.2928246868931197
 30
0.0
 40
7.21615597207773
 50
339.729980864259403
 51
20.2700191357406112
  0
LINE
  5
D99C
  8
01_表面形状
 62
     3
 10
894.660844033101057
 20
-47.7928246868931197
 30
0.0
 11
897.2670525162435524
 21
-47.7928246868931197
 31
0.0
  0
LINE
  5
D99D
  8
01_表面形状
 62
     3
 10
897.7139749247484133
 20
-52.7928246868928994
 30
0.0
 11
898.4243818975280647
 21
-52.0824177141133404
 31
0.0
  0
LINE
  5
D99E
  8
01_表面形状
 62
     3
 10
897.7139749247480722
 20
-42.7928246868929492
 30
0.0
 11
898.4243818975280647
 21
-43.5032316596728634
 31
0.0
  0
LINE
  5
DAD2
  8
01_表面形状
 62
     3
 10
849.2115882261105071
 20
-61.4428246868927488
 30
0.0
 11
849.2130314795321055
 21
-61.4428246868927488
 31
0.0
  0
LINE
  5
DAD3
  8
01_表面形状
 62
     3
 10
847.7609030941400761
 20
-65.5553246868927317
 30
0.0
 11
850.2145268740955544
 21
-65.5553246868929307
 31
0.0
  0
LINE
  5
DAD4
  8
01_表面形状
 62
     3
 10
848.6839681512375364
 20
-64.967824686892726
 30
0.0
 11
849.6270268740953497
 21
-64.9678246868929534
 31
0.0
  0
LINE
  5
DAD5
  8
01_表面形状
 62
     3
 10
849.2115882261106208
 20
-62.6178246868927602
 30
0.0
 11
849.2130314795321055
 21
-62.6178246868927602
 31
0.0
  0
LINE
  5
DAD6
  8
01_表面形状
 62
     3
 10
847.2412927256459625
 20
-62.9546855986926772
 30
0.0
 11
846.5851969152041647
 21
-65.4032684978950272
 31
0.0
  0
LINE
  5
DAD7
  8
01_表面形状
 62
     3
 10
848.3762555715358076
 20
-63.2587979766881006
 30
0.0
 11
848.116486728292557
 21
-64.2282684978950158
 31
0.0
  0
LINE
  5
DAD8
  8
01_表面形状
 62
     3
 10
847.7609030941400761
 20
-65.5553246868927317
 30
0.0
 11
847.7201597610938961
 21
-65.7073808758905926
 31
0.0
  0
LINE
  5
DAD9
  8
01_表面形状
 62
     3
 10
851.3895268740956226
 20
-63.4826246868929118
 30
0.0
 11
851.3895268740951678
 21
-65.5553246868930017
 31
0.0
  0
LINE
  5
DADA
  8
01_表面形状
 62
     3
 10
850.2145268740955544
 20
-63.4826246868928834
 30
0.0
 11
850.2145268740955544
 21
-64.3803246868929193
 31
0.0
  0
ARC
  5
DADB
  8
01_表面形状
 62
     3
 10
847.152678338148803
 20
-65.5553246868927317
 30
0.0
 40
0.5875
 50
165.0000000000021885
 51
344.9999999999873239
  0
ARC
  5
DADC
  8
01_表面形状
 62
     3
 10
850.8020268740953043
 20
-65.5553246868929307
 30
0.0
 40
0.5875
 50
180.0
 51
0.0
  0
ARC
  5
DADD
  8
01_表面形状
 62
     3
 10
848.6839681512375364
 20
-64.3803246868927488
 30
0.0
 40
0.5875
 50
165.0000000000021885
 51
270.0
  0
ARC
  5
DADE
  8
01_表面形状
 62
     3
 10
849.6270268740953497
 20
-64.3803246868929619
 30
0.0
 40
0.5875
 50
270.0
 51
0.0000000000032569
  0
LINE
  5
DADF
  8
01_表面形状
 62
     3
 10
837.0026389752449631
 20
-62.6178246868925186
 30
0.0
 11
837.6023275115838942
 21
-62.6178246868925186
 31
0.0
  0
LINE
  5
DAE0
  8
01_表面形状
 62
     3
 10
839.7289224540929808
 20
-62.6178246868925186
 30
0.0
 11
840.6519875111904412
 21
-62.6178246868925186
 31
0.0
  0
ARC
  5
DAE1
  8
01_表面形状
 62
     3
 10
839.7289224540929808
 20
-63.2053246868925385
 30
0.0
 40
0.5875
 50
90.0
 51
165.0
  0
ARC
  5
DAE2
  8
01_表面形状
 62
     3
 10
837.6023275115838942
 20
-62.9703246868925177
 30
0.0
 40
0.3525
 50
345.0
 51
90.0
  0
ARC
  5
DAE3
  8
01_表面形状
 62
     3
 10
849.2692912156066996
 20
-63.5578246868925305
 30
0.0
 40
2.1149999999999989
 50
89.9290824560277997
 51
165.3312556800391064
  0
ARC
  5
DAE4
  8
01_表面形状
 62
     3
 10
849.2745268740954998
 20
-63.5578246868925305
 30
0.0
 40
2.1149999999999989
 50
359.9999999999919282
 51
90.0709175439656633
  0
ARC
  5
DAE5
  8
01_表面形状
 62
     3
 10
849.2692912156066996
 20
-63.5578246868927579
 30
0.0
 40
0.9399999999999998
 50
89.8404353605604769
 51
165.4968843844536082
  0
ARC
  5
DAE6
  8
01_表面形状
 62
     3
 10
849.2745268740954998
 20
-63.5578246868927579
 30
0.0
 40
0.9399999999999998
 50
0.0
 51
90.1595646394394947
  0
LINE
  5
DAE7
  8
01_表面形状
 62
     3
 10
843.6736234604901483
 20
-61.4428246868927488
 30
0.0
 11
845.078977153135952
 21
-61.4428246868927488
 31
0.0
  0
LINE
  5
DAE8
  8
01_表面形状
 62
     3
 10
842.6289134521941833
 20
-66.1428246868927516
 30
0.0
 11
844.0342671448402143
 21
-66.1428246868927516
 31
0.0
  0
LINE
  5
DAE9
  8
01_表面形状
 62
     3
 10
843.390267189494125
 20
-65.5553246868927602
 30
0.0
 11
843.5162033099365999
 21
-65.5553246868927602
 31
0.0
  0
ARC
  5
DAEA
  8
01_表面形状
 62
     3
 10
843.5162033099365999
 20
-64.1453246868927636
 30
0.0
 40
1.409999999999999
 50
270.0
 51
345.0000000000021032
  0
LINE
  5
DAEB
  8
01_表面形状
 62
     3
 10
843.6736234604901483
 20
-61.4428246868927488
 30
0.0
 11
845.078977153135952
 21
-61.4428246868927488
 31
0.0
  0
ARC
  5
DAEC
  8
01_表面形状
 62
     3
 10
845.078977153135952
 20
-62.8528246868927809
 30
0.0
 40
1.409999999999999
 50
345.0
 51
90.0
  0
ARC
  5
DAED
  8
01_表面形状
 62
     3
 10
843.6736234604901483
 20
-63.5578246868927579
 30
0.0
 40
2.1149999999999989
 50
90.0
 51
165.0
  0
LINE
  5
DAEE
  8
01_表面形状
 62
     3
 10
844.1916872953935354
 20
-62.0303246868927616
 30
0.0
 11
844.3176234158358966
 21
-62.0303246868927616
 31
0.0
  0
ARC
  5
DAEF
  8
01_表面形状
 62
     3
 10
844.1916872953935354
 20
-63.4403246868927511
 30
0.0
 40
1.409999999999999
 50
90.0
 51
164.999999999997101
  0
LINE
  5
DAF0
  8
01_表面形状
 62
     3
 10
841.6306903378886091
 20
-63.0104224065009433
 30
0.0
 11
841.2669580371267557
 21
-64.3678898332982214
 31
0.0
  0
ARC
  5
DAF1
  8
01_表面形状
 62
     3
 10
842.6289134521941833
 20
-64.732824686892755
 30
0.0
 40
1.409999999999999
 50
165.0
 51
270.0
  0
LINE
  5
DAF2
  8
01_表面形状
 62
     3
 10
842.8297318803261078
 20
-63.075389833297983
 30
0.0
 11
842.4822969127824308
 21
-64.3720347844962077
 31
0.0
  0
ARC
  5
DAF3
  8
01_表面形状
 62
     3
 10
843.390267189494125
 20
-64.6153246868927624
 30
0.0
 40
0.9399999999999998
 50
164.999999999997101
 51
270.0
  0
LINE
  5
DAF4
  8
01_表面形状
 62
     3
 10
846.4409325682033796
 20
-63.21775954048735
 30
0.0
 11
846.0772002674415262
 21
-64.5752269672846637
 31
0.0
  0
ARC
  5
DAF5
  8
01_表面形状
 62
     3
 10
844.0342671448402143
 20
-64.0278246868927567
 30
0.0
 40
2.1149999999999989
 50
270.0
 51
345.0
  0
LINE
  5
DAF6
  8
01_表面形状
 62
     3
 10
845.2255936925475908
 20
-63.2136145892891221
 30
0.0
 11
844.8781587250042548
 21
-64.5102595404872545
 31
0.0
  0
ARC
  5
DAF7
  8
01_表面形状
 62
     3
 10
844.3176234158358966
 20
-62.970324686892738
 30
0.0
 40
0.9399999999999998
 50
345.0000000000021032
 51
90.0
  0
LINE
  5
DAF8
  8
01_表面形状
 62
     3
 10
849.2115882261105071
 20
-61.4428246868927488
 30
0.0
 11
849.2130314795321055
 21
-61.4428246868927488
 31
0.0
  0
LINE
  5
DAF9
  8
01_表面形状
 62
     3
 10
847.7609030941400761
 20
-65.5553246868927602
 30
0.0
 11
850.2145268740955544
 21
-65.5553246868930017
 31
0.0
  0
LINE
  5
DAFA
  8
01_表面形状
 62
     3
 10
848.6839681512375364
 20
-64.9678246868927545
 30
0.0
 11
849.6270268740953497
 21
-64.9678246868929534
 31
0.0
  0
LINE
  5
DAFB
  8
01_表面形状
 62
     3
 10
849.2115882261106208
 20
-62.6178246868927602
 30
0.0
 11
849.2130314795321055
 21
-62.6178246868927602
 31
0.0
  0
LINE
  5
DAFC
  8
01_表面形状
 62
     3
 10
847.2263580930050466
 20
-63.0104224065008012
 30
0.0
 11
846.5851969152041647
 21
-65.4032684978950272
 31
0.0
  0
LINE
  5
DAFD
  8
01_表面形状
 62
     3
 10
848.3762555715358076
 20
-63.2587979766881006
 30
0.0
 11
848.116486728292557
 21
-64.2282684978950726
 31
0.0
  0
LINE
  5
DAFE
  8
01_表面形状
 62
     3
 10
847.7609030941400761
 20
-65.5553246868927602
 30
0.0
 11
847.7201597610938961
 21
-65.7073808758905926
 31
0.0
  0
LINE
  5
DAFF
  8
01_表面形状
 62
     3
 10
851.3895268740956226
 20
-63.4826246868929189
 30
0.0
 11
851.3895268740951678
 21
-65.5553246868930444
 31
0.0
  0
LINE
  5
DB00
  8
01_表面形状
 62
     3
 10
850.2145268740955544
 20
-63.5578246868927579
 30
0.0
 11
850.2145268740955544
 21
-64.3803246868929193
 31
0.0
  0
ARC
  5
DB01
  8
01_表面形状
 62
     3
 10
847.152678338148803
 20
-65.5553246868927602
 30
0.0
 40
0.5875
 50
165.0000000000021885
 51
344.9999999999873239
  0
ARC
  5
DB02
  8
01_表面形状
 62
     3
 10
850.8020268740953043
 20
-65.5553246868930017
 30
0.0
 40
0.5875
 50
180.0
 51
0.0
  0
ARC
  5
DB03
  8
01_表面形状
 62
     3
 10
848.6839681512375364
 20
-64.3803246868927488
 30
0.0
 40
0.5875
 50
165.0000000000021885
 51
270.0
  0
ARC
  5
DB04
  8
01_表面形状
 62
     3
 10
849.6270268740953497
 20
-64.3803246868929619
 30
0.0
 40
0.5875
 50
270.0
 51
0.0000000000032569
  0
ARC
  5
DB05
  8
01_表面形状
 62
     3
 10
849.2692912156066996
 20
-63.5578246868925305
 30
0.0
 40
2.1149999999999989
 50
89.9290824560277997
 51
165.3312556800391064
  0
ARC
  5
DB06
  8
01_表面形状
 62
     3
 10
849.2745268740954998
 20
-63.5578246868925305
 30
0.0
 40
2.1149999999999989
 50
359.9999999999919282
 51
90.0709175439656633
  0
ARC
  5
DB07
  8
01_表面形状
 62
     3
 10
849.2692912156066996
 20
-63.5578246868927579
 30
0.0
 40
0.9399999999999998
 50
89.8404353605604769
 51
165.4968843844536082
  0
ARC
  5
DB08
  8
01_表面形状
 62
     3
 10
849.2745268740954998
 20
-63.5578246868927579
 30
0.0
 40
0.9399999999999998
 50
0.0
 51
90.1595646394394947
  0
LINE
  5
DB09
  8
01_表面形状
 62
     3
 10
837.0026389752449631
 20
-61.4428246868927488
 30
0.0
 11
840.6519875111904412
 21
-61.4428246868927488
 31
0.0
  0
LINE
  5
DB0A
  8
01_表面形状
 62
     3
 10
839.1614410311481151
 20
-63.0532684978949973
 30
0.0
 11
838.4502737628424711
 21
-65.7073808758904931
 31
0.0
  0
LINE
  5
DB0B
  8
01_表面形状
 62
     3
 10
839.1614410311481151
 20
-63.0532684978949973
 30
0.0
 11
838.4502737628424711
 21
-65.7073808758904931
 31
0.0
  0
LINE
  5
DB0C
  8
01_表面形状
 62
     3
 10
839.1614410311481151
 20
-63.0532684978947628
 30
0.0
 11
838.4502737628424711
 21
-65.7073808758904931
 31
0.0
  0
ARC
  5
DB0D
  8
01_表面形状
 62
     3
 10
837.0026389752449631
 20
-62.0303246868927189
 30
0.0
 40
0.5875
 50
90.0
 51
270.0
  0
ARC
  5
DB0E
  8
01_表面形状
 62
     3
 10
840.6519875111904412
 20
-62.0303246868927189
 30
0.0
 40
0.5875
 50
270.0
 51
90.0
  0
ARC
  5
DB0F
  8
01_表面形状
 62
     3
 10
837.8827923398977191
 20
-65.5553246868927317
 30
0.0
 40
0.5875
 50
164.2944179854808056
 51
345.0
  0
LINE
  5
DB10
  8
01_表面形状
 62
     3
 10
837.9428163653510637
 20
-63.0615584002911973
 30
0.0
 11
837.3134814629346465
 21
-65.4102682310849559
 31
0.0
  0
VIEWPORT
  5
542
 67
     1
  8
0
 10
185.6233038915470104
 20
148.4223392912986128
 30
0.0
 40
450.4060917083240838
 41
309.2814998667927853
 68
     1
 69
     1
1001
ACAD
1000
MVIEW
1002
{
1070
    16
1010
0.0
1020
0.0
1030
0.0
1010
0.0
1020
0.0
1030
1.0
1040
0.0
1040
309.2814998667927853
1040
185.6233038915470104
1040
148.4223392912986128
1040
50.0
1040
0.0
1040
0.0
1070
     0
1070
  1000
1070
     1
1070
     1
1070
     0
1070
     0
1070
     0
1070
     0
1040
0.0
1040
0.0
1040
0.0
1040
10.0
1040
10.0
1040
10.0
1040
10.0
1070
     0
1002
{
1002
}
1002
}
  0
ENDSEC
  0
EOF
