  0
SECTION
  2
HEADER
  9
$ACADVER
  1
AC1009
  9
$INSBASE
 10
0.0
 20
0.0
 30
0.0
  9
$EXTMIN
 10
906.5306150562572611
 20
-274.5261878393718007
 30
-0.0000000349181948
  9
$EXTMAX
 10
1028.7293017115669045
 20
-118.4217834481577967
 30
0.0000000814935747
  9
$LIMMIN
 10
0.0
 20
0.0
  9
$LIMMAX
 10
297.0
 20
210.0
  9
$ORTHOMODE
 70
     0
  9
$REGENMODE
 70
     1
  9
$FILLMODE
 70
     1
  9
$QTEXTMODE
 70
     0
  9
$MIRRTEXT
 70
     0
  9
$DRAGMODE
 70
     2
  9
$LTSCALE
 40
0.4
  9
$OSMODE
 70
  1447
  9
$ATTMODE
 70
     1
  9
$TEXTSIZE
 40
5.0
  9
$TRACEWID
 40
1.0
  9
$TEXTSTYLE
  7
STANDARD
  9
$CLAYER
  8
0
  9
$CELTYPE
  6
BYLAYER
  9
$CECOLOR
 62
   256
  9
$DIMSCALE
 40
1.0
  9
$DIMASZ
 40
2.5
  9
$DIMEXO
 40
1.0
  9
$DIMDLI
 40
10.0
  9
$DIMRND
 40
0.0
  9
$DIMDLE
 40
0.0
  9
$DIMEXE
 40
1.0
  9
$DIMTP
 40
0.1
  9
$DIMTM
 40
0.1
  9
$DIMTXT
 40
2.5
  9
$DIMCEN
 40
0.0
  9
$DIMTSZ
 40
0.0
  9
$DIMTOL
 70
     0
  9
$DIMLIM
 70
     0
  9
$DIMTIH
 70
     0
  9
$DIMTOH
 70
     0
  9
$DIMSE1
 70
     0
  9
$DIMSE2
 70
     0
  9
$DIMTAD
 70
     3
  9
$DIMZIN
 70
     8
  9
$DIMBLK
  1

  9
$DIMASO
 70
     1
  9
$DIMSHO
 70
     1
  9
$DIMPOST
  1

  9
$DIMAPOST
  1

  9
$DIMALT
 70
     0
  9
$DIMALTD
 70
     2
  9
$DIMALTF
 40
25.3999999999999986
  9
$DIMLFAC
 40
1.0
  9
$DIMTOFL
 70
     1
  9
$DIMTVP
 40
0.0
  9
$DIMTIX
 70
     0
  9
$DIMSOXD
 70
     0
  9
$DIMSAH
 70
     0
  9
$DIMBLK1
  1

  9
$DIMBLK2
  1

  9
$DIMSTYLE
  2
部品図用_1_1
  9
$DIMCLRD
 70
   256
  9
$DIMCLRE
 70
   256
  9
$DIMCLRT
 70
   256
  9
$DIMTFAC
 40
0.7
  9
$DIMGAP
 40
1.0
  9
$LUNITS
 70
     2
  9
$LUPREC
 70
     2
  9
$SKETCHINC
 40
1.0
  9
$FILLETRAD
 40
0.59
  9
$AUNITS
 70
     1
  9
$AUPREC
 70
     3
  9
$MENU
  1
.
  9
$ELEVATION
 40
0.0
  9
$PELEVATION
 40
0.0
  9
$THICKNESS
 40
0.0
  9
$LIMCHECK
 70
     0
  9
$BLIPMODE
 70
     0
  9
$CHAMFERA
 40
0.0
  9
$CHAMFERB
 40
0.0
  9
$SKPOLY
 70
     0
  9
$TDCREATE
 40
2457049.1045601852238178
  9
$TDUPDATE
 40
2460132.4758217590861022
  9
$TDINDWG
 40
0.0969830324
  9
$TDUSRTIMER
 40
0.0969824884
  9
$USRTIMER
 70
     1
  9
$ANGBASE
 50
0.0
  9
$ANGDIR
 70
     0
  9
$PDMODE
 70
     3
  9
$PDSIZE
 40
0.0
  9
$PLINEWID
 40
0.0
  9
$COORDS
 70
     1
  9
$SPLFRAME
 70
     0
  9
$SPLINETYPE
 70
     6
  9
$SPLINESEGS
 70
     8
  9
$ATTDIA
 70
     1
  9
$ATTREQ
 70
     1
  9
$HANDLING
 70
     1
  9
$HANDSEED
  5
E01A
  9
$SURFTAB1
 70
     6
  9
$SURFTAB2
 70
     6
  9
$SURFTYPE
 70
     6
  9
$SURFU
 70
     6
  9
$SURFV
 70
     6
  9
$UCSNAME
  2

  9
$UCSORG
 10
0.0
 20
0.0
 30
0.0
  9
$UCSXDIR
 10
1.0
 20
0.0
 30
0.0
  9
$UCSYDIR
 10
0.0
 20
1.0
 30
0.0
  9
$PUCSNAME
  2

  9
$PUCSORG
 10
0.0
 20
0.0
 30
0.0
  9
$PUCSXDIR
 10
1.0
 20
0.0
 30
0.0
  9
$PUCSYDIR
 10
0.0
 20
1.0
 30
0.0
  9
$USERI1
 70
     0
  9
$USERI2
 70
     0
  9
$USERI3
 70
     0
  9
$USERI4
 70
     0
  9
$USERI5
 70
     0
  9
$USERR1
 40
0.0
  9
$USERR2
 40
0.0
  9
$USERR3
 40
0.0
  9
$USERR4
 40
0.0
  9
$USERR5
 40
0.0
  9
$WORLDVIEW
 70
     1
  9
$SHADEDGE
 70
     3
  9
$SHADEDIF
 70
    70
  9
$TILEMODE
 70
     1
  9
$MAXACTVP
 70
    64
  9
$PLIMCHECK
 70
     0
  9
$PEXTMIN
 10
1.0000000000000000E+20
 20
1.0000000000000000E+20
 30
1.0000000000000000E+20
  9
$PEXTMAX
 10
-1.0000000000000000E+20
 20
-1.0000000000000000E+20
 30
-1.0000000000000000E+20
  9
$PLIMMIN
 10
-5.873748779296875
 20
-5.8737497329711914
  9
$PLIMMAX
 10
291.1369018554688068
 20
204.0995779037475018
  9
$UNITMODE
 70
     0
  9
$VISRETAIN
 70
     1
  9
$PLINEGEN
 70
     0
  9
$PSLTSCALE
 70
     1
  0
ENDSEC
  0
SECTION
  2
TABLES
  0
TABLE
  2
VPORT
 70
     1
  0
VPORT
  2
*ACTIVE
 70
     0
 10
0.0
 20
0.0
 11
1.0
 21
1.0
 12
967.6299583839125944
 22
-196.4739856437647916
 13
0.0
 23
0.0
 14
10.0
 24
10.0
 15
10.0
 25
10.0
 16
0.0
 26
0.0
 36
1.0
 17
0.0
 27
0.0
 37
0.0
 40
157.2220970240865938
 41
1.765830346475507
 42
50.0
 43
0.0
 44
0.0
 50
0.0
 51
0.0
 71
     0
 72
  1000
 73
     1
 74
     3
 75
     0
 76
     0
 77
     0
 78
     0
  0
ENDTAB
  0
TABLE
  2
LTYPE
 70
     2
  0
LTYPE
  2
CONTINUOUS
 70
     0
  3
Solid line
 72
    65
 73
     0
 40
0.0
  0
LTYPE
  2
CENTER
 70
     0
  3
Center ____ _ ____ _ ____ _ ____ _ ____ _ ____
 72
    65
 73
     4
 40
50.7999999999999972
 49
31.75
 49
-6.3499999999999979
 49
6.3499999999999979
 49
-6.3499999999999979
  0
ENDTAB
  0
TABLE
  2
LAYER
 70
     6
  0
LAYER
  2
0
 70
     0
 62
     7
  6
CONTINUOUS
  0
LAYER
  2
01_表面形状
 70
     0
 62
     7
  6
CONTINUOUS
  0
LAYER
  2
04_中心線
 70
     0
 62
     4
  6
CENTER
  0
LAYER
  2
12_文字
 70
     0
 62
     2
  6
CONTINUOUS
  0
LAYER
  2
DEFPOINTS
 70
     0
 62
     7
  6
CONTINUOUS
  0
ENDTAB
  0
TABLE
  2
STYLE
 70
     2
  0
STYLE
  2
STANDARD
 70
     0
 40
0.0
 41
1.0
 50
0.0
 71
     0
 42
5.0
  3
isocp.shx
  4
extfont2.shx
  0
STYLE
  2
MX_NOTE_STANDARD
 70
     0
 40
0.0
 41
1.0
 50
0.0
 71
     0
 42
3.299999999999998
  3
txt.shx
  4
extfont.shx
  0
ENDTAB
  0
TABLE
  2
VIEW
 70
     0
  0
ENDTAB
  0
TABLE
  2
UCS
 70
     0
  0
ENDTAB
  0
TABLE
  2
APPID
 70
    38
  0
APPID
  2
ACAD
 70
     0
  0
APPID
  2
ACAECLAYERSTANDARD
 70
     0
  0
APPID
  2
ACAD_PSEXT
 70
     0
  0
APPID
  2
ACAD_EXEMPT_FROM_CAD_STANDARDS
 70
     0
  0
APPID
  2
GENIUS_GENODEF_13
 70
     0
  0
APPID
  2
GENIUS_GENOBJ-N-CEN_13
 70
     0
  0
APPID
  2
GENIUS_GENCEN_19
 70
     0
  0
APPID
  2
GENIUS_GENTRA_14
 70
     0
  0
APPID
  2
GENIUS_GENOREF_13
 70
     0
  0
APPID
  2
GENIUS_GENSCREG_15
 70
     0
  0
APPID
  2
GENIUS_GENOBJ-N-SDF_13
 70
     0
  0
APPID
  2
GENIUS_GENOBJ-N-LIB_13
 70
     0
  0
APPID
  2
GENIUS_GENOBJ-N-RSBK_13
 70
     0
  0
APPID
  2
GENIUS_GENSCALE_13
 70
     0
  0
APPID
  2
GENIUS_AMGTXT_16
 70
     0
  0
APPID
  2
GENIUS_GENFIL_13
 70
     0
  0
APPID
  2
GENIUS_GENOBJ-N-CHA_13
 70
     0
  0
APPID
  2
GENIUS_GENOBJ-N-FIL_13
 70
     0
  0
APPID
  2
GENIUS_GENDTOL_13
 70
     0
  0
APPID
  2
ACAD_DIMASSOC_DIMLFAC
 70
     0
  0
APPID
  2
ACAD_DIMASSOC_CALC_DIMLFAC
 70
     0
  0
APPID
  2
ACAD_DIMASSOC_OVERRIDDEN_D
 70
     0
  0
APPID
  2
GENIUS_GENOBJ-N-ZOO_13
 70
     0
  0
APPID
  2
GENIUS_GENZOO_16
 70
     0
  0
APPID
  2
ACAD_DSTYLE_DIMJAG
 70
     0
  0
APPID
  2
ACAD_DSTYLE_DIMTALN
 70
     0
  0
APPID
  2
ACAD_DSTYLE_DIMBREAK
 70
     0
  0
APPID
  2
ACAD_DSTYLE_DIMARC_LENGTH_
 70
     0
  0
APPID
  2
ACAD_DSTYLE_DIMJOGGED_JOGA
 70
     0
  0
APPID
  2
ACAD_DSTYLE_DIM_LINETYPE
 70
     0
  0
APPID
  2
ACAD_DSTYLE_DIM_EXT1_LINETYPE
 70
     0
  0
APPID
  2
ACAD_DSTYLE_DIM_EXT2_LINETYPE
 70
     0
  0
APPID
  2
ACDBATTR
 70
     0
  0
APPID
  2
ACAD_MLEADERVER
 70
     0
  0
APPID
  2
ACAD_DSTYLE_DIMRADIAL_EXTENSION
 70
     0
  0
APPID
  2
ACADANNOPO
 70
     0
  0
APPID
  2
ACAUTHENVIRON
 70
     0
  0
APPID
  2
ACAD_NAV_VCDISPLAY
 70
     0
  0
ENDTAB
  0
TABLE
  2
DIMSTYLE
 70
     2
  0
DIMSTYLE
  2
部品図用_1_1
 70
     0
  3

  4

  5

  6

  7

 40
1.0
 41
2.5
 42
1.0
 43
10.0
 44
1.0
 45
0.0
 46
0.0
 47
0.1
 48
0.1
140
2.5
141
0.0
142
0.0
143
25.3999999999999986
144
1.0
145
0.0
146
0.7
147
1.0
 71
     0
 72
     0
 73
     0
 74
     0
 75
     0
 76
     0
 77
     3
 78
     8
170
     0
171
     2
172
     1
173
     0
174
     0
175
     0
176
   256
177
   256
178
   256
  0
DIMSTYLE
  2
STANDARD
 70
     0
  3

  4

  5
OPEN30
  6

  7

 40
1.0
 41
0.18
 42
0.0625
 43
0.38
 44
0.18
 45
0.0
 46
0.0
 47
0.0
 48
0.0
140
0.18
141
0.09
142
0.0
143
25.3999999999999986
144
1.0
145
0.0
146
1.0
147
0.09
 71
     0
 72
     0
 73
     0
 74
     0
 75
     0
 76
     0
 77
     1
 78
     0
170
     0
171
     2
172
     1
173
     0
174
     0
175
     0
176
     0
177
     0
178
     0
  0
ENDTAB
  0
ENDSEC
  0
SECTION
  2
BLOCKS
  0
BLOCK
  8
0
  2
$MODEL_SPACE
 70
     2
 10
0.0
 20
0.0
 30
0.0
  3
$MODEL_SPACE
  1

  0
ENDBLK
  5
39
  8
0
  0
BLOCK
 67
     1
  8
0
  2
$PAPER_SPACE
 70
     0
 10
0.0
 20
0.0
 30
0.0
  3
$PAPER_SPACE
  1

  0
ENDBLK
  5
35
 67
     1
  8
0
  0
BLOCK
  8
0
  2
_OPEN30
 70
     0
 10
0.0
 20
0.0
 30
0.0
  3
_OPEN30
  1

  0
LINE
  5
93EB
  8
0
  6
BYBLOCK
 62
     0
 10
-1.0
 20
0.26794919
 30
0.0
 11
0.0
 21
0.0
 31
0.0
  0
LINE
  5
93EC
  8
0
  6
BYBLOCK
 62
     0
 10
0.0
 20
0.0
 30
0.0
 11
-1.0
 21
-0.26794919
 31
0.0
  0
LINE
  5
93ED
  8
0
  6
BYBLOCK
 62
     0
 10
0.0
 20
0.0
 30
0.0
 11
-1.0
 21
0.0
 31
0.0
  0
ENDBLK
  5
93EE
  8
0
  0
ENDSEC
  0
SECTION
  2
ENTITIES
  0
LINE
  5
D695
  8
01_表面形状
 62
     3
 10
1021.6665111419899858
 20
-190.1382315534106908
 30
0.0
 11
1023.2810624788479572
 21
-208.5926377791932964
 31
0.0
  0
LINE
  5
D696
  8
04_中心線
 62
   110
 10
1007.1665111419899858
 20
-171.0188398530472114
 30
0.0
 11
1007.1665111419899858
 21
-233.6382315534106908
 31
0.0
  0
LINE
  5
D697
  8
01_表面形状
 62
     3
 10
992.6665111419902132
 20
-190.1382315534106908
 30
0.0
 11
991.0519598051321282
 21
-208.5926377791932964
 31
0.0
  0
ARC
  5
D698
  8
01_表面形状
 62
     3
 10
1007.1665111419899858
 20
-212.1382315534106908
 30
0.0
 40
16.5
 50
167.5912504273090065
 51
12.4087495726909207
  0
LINE
  5
D699
  8
04_中心線
 62
   110
 10
985.6665111419902132
 20
-212.1382315534106908
 30
0.0
 11
1028.6665111419899858
 21
-212.1382315534106908
 31
0.0
  0
LINE
  5
D69A
  8
04_中心線
 62
   110
 10
1007.1665111419899858
 20
-211.1382315534106908
 30
0.0
 11
1007.1665111419899858
 21
-213.1382315534106908
 31
0.0
  0
LINE
  5
D69B
  8
04_中心線
 62
   110
 10
1006.1665111419899858
 20
-212.1382315534106908
 30
0.0
 11
1008.1665111419899858
 21
-212.1382315534106908
 31
0.0
  0
ARC
  5
D69C
  8
01_表面形状
 62
     3
 10
955.0455527664591955
 20
-127.4503342560151964
 30
0.0
 40
2.0
 50
233.1301023541533084
 51
270.0
  0
ARC
  5
D69D
  8
01_表面形状
 62
     3
 10
937.0455527664591955
 20
-151.4503342560151111
 30
0.0
 40
27.9999999999999893
 50
53.1301023541533723
 51
90.0
  0
ARC
  5
D69E
  8
01_表面形状
 62
     3
 10
955.0455527664591955
 20
-152.4503342560151111
 30
0.0
 40
2.0
 50
90.0
 51
126.8698976458447021
  0
ARC
  5
D69F
  8
01_表面形状
 62
     3
 10
937.0455527664591955
 20
-128.4503342560151111
 30
0.0
 40
27.9999999999999893
 50
270.0
 51
306.8698976458446737
  0
LINE
  5
D6A0
  8
04_中心線
 62
   110
 10
906.5455527664591955
 20
-139.9503342560151964
 30
0.0
 11
967.5455527664589681
 21
-139.9503342560151964
 31
0.0
  0
LINE
  5
D6A1
  8
01_表面形状
 62
     3
 10
922.9234636390675632
 20
-145.0801665843032993
 30
0.0
 11
923.5207202824392425
 21
-156.4765022341366034
 31
0.0
  0
ARC
  5
D6A2
  8
01_表面形状
 62
     3
 10
937.0455527664591955
 20
-139.9503342560151111
 30
0.0
 40
15.0249319811554294
 50
262.9115824285308918
 51
199.9634931250768943
  0
LINE
  5
D6A3
  8
01_表面形状
 62
     3
 10
924.0200350498165562
 20
-156.9503342560151111
 30
0.0
 11
929.0455527664591955
 21
-156.9503342560151111
 31
0.0
  0
ARC
  5
D6A4
  8
01_表面形状
 62
     3
 10
924.0200350498165562
 20
-156.4503342560151111
 30
0.0
 40
0.5
 50
182.9999999999988916
 51
270.0
  0
LINE
  5
D6A5
  8
01_表面形状
 62
     3
 10
934.6304478422380271
 20
-155.3304397109612012
 30
0.0
 11
934.5703852504788074
 21
-156.4765022341366034
 31
0.0
  0
ARC
  5
D6A6
  8
01_表面形状
 62
     3
 10
934.0710704831018347
 20
-156.4503342560151111
 30
0.0
 40
0.5
 50
270.0
 51
356.9999999999977831
  0
ARC
  5
D6A7
  8
01_表面形状
 62
     3
 10
935.1297626096155682
 20
-155.3566076890826935
 30
0.0
 40
0.5
 50
82.9115824285308918
 51
177.0000000000011084
  0
ARC
  5
D6A8
  8
01_表面形状
 62
     3
 10
937.0455527664589681
 20
-136.4503342560151111
 30
0.0
 40
19.9999999999999893
 50
262.917985573605506
 51
270.0
  0
LINE
  5
D6A9
  8
01_表面形状
 62
     3
 10
929.0455527664591955
 20
-156.9503342560151111
 30
0.0
 11
934.0710704831018347
 21
-156.9503342560151111
 31
0.0
  0
ARC
  5
D6AA
  8
01_表面形状
 62
     3
 10
937.0455527664589681
 20
-143.4503342560151111
 30
0.0
 40
19.9999999999999893
 50
90.0
 51
133.3417582272199127
  0
LINE
  5
D6AB
  8
04_中心線
 62
   110
 10
937.0455527664587407
 20
-161.4503342560151111
 30
0.0
 11
937.0455527664587407
 21
-118.4503342560150969
 31
0.0
  0
LINE
  5
D6AC
  8
01_表面形状
 62
     3
 10
917.2568776318643131
 20
-150.4503342560151964
 30
0.0
 11
918.3974965674875648
 21
-150.4503342560151111
 31
0.0
  0
LINE
  5
D6AD
  8
01_表面形状
 62
     3
 10
921.9458838959170635
 20
-150.4503342560145995
 30
0.0
 11
917.2568776318643131
 21
-150.4503342560151964
 31
0.0
  0
ARC
  5
D6AE
  8
01_表面形状
 62
     3
 10
921.9458838959177456
 20
-152.4503342560151111
 30
0.0
 40
2.0
 50
50.0795418828284298
 51
89.9999999999934772
  0
LINE
  5
D6AF
  8
01_表面形状
 62
     3
 10
912.5455527664590818
 20
-150.4503342560151964
 30
0.0
 11
917.2568776318643131
 21
-150.4503342560151964
 31
0.0
  0
LINE
  5
D6B0
  8
01_表面形状
 62
     3
 10
921.9458838959170635
 20
-129.450334256015708
 30
0.0
 11
917.2568776318643131
 21
-129.4503342560149974
 31
0.0
  0
ARC
  5
D6B1
  8
01_表面形状
 62
     3
 10
921.9458838959177456
 20
-127.4503342560151964
 30
0.0
 40
2.0
 50
270.0
 51
313.3417582272199979
  0
LINE
  5
D6B2
  8
01_表面形状
 62
     3
 10
912.5455527664590818
 20
-129.4503342560149974
 30
0.0
 11
917.2568776318643131
 21
-129.4503342560149974
 31
0.0
  0
LINE
  5
D6B3
  8
01_表面形状
 62
     3
 10
1007.1665111419899858
 20
-183.6382315534106908
 30
0.0
 11
1021.3665111419900313
 21
-183.6382315534106908
 31
0.0
  0
LINE
  5
D6B4
  8
01_表面形状
 62
     3
 10
1007.1665111419899858
 20
-183.6382315534106908
 30
0.0
 11
1021.3665111419900313
 21
-183.6382315534106908
 31
0.0
  0
LINE
  5
D6B5
  8
01_表面形状
 62
     3
 10
1007.1665111419899858
 20
-183.6382315534106908
 30
0.0
 11
992.9665111419901677
 21
-183.6382315534106908
 31
0.0
  0
LINE
  5
D6B6
  8
01_表面形状
 62
     3
 10
992.6665111419902132
 20
-181.6382315534106908
 30
0.0
 11
992.6665111419902132
 21
-190.1382315534104919
 31
0.0
  0
LINE
  5
D6B7
  8
01_表面形状
 62
     3
 10
1021.6665111419899858
 20
-181.6382315534106908
 30
0.0
 11
1021.6665111419899858
 21
-190.1382315534104919
 31
0.0
  0
LINE
  5
D6B8
  8
01_表面形状
 62
     3
 10
962.5455527664590818
 20
-139.9503342560151964
 30
0.0
 11
962.5455527664590818
 21
-130.0303342560150099
 31
0.0
  0
LINE
  5
D6B9
  8
01_表面形状
 62
     3
 10
962.5455527664588544
 20
-150.4503342560151964
 30
0.0
 11
956.8342279010539642
 21
-150.4503342560151964
 31
0.0
  0
LINE
  5
D6BA
  8
01_表面形状
 62
     3
 10
962.5455527664590818
 20
-139.9503342560151111
 30
0.0
 11
962.5455527664590818
 21
-149.8703342560152976
 31
0.0
  0
LINE
  5
D6BB
  8
01_表面形状
 62
     3
 10
955.6936089654307125
 20
-150.4503342560151111
 30
0.0
 11
956.8342279010539642
 21
-150.4503342560151964
 31
0.0
  0
LINE
  5
D6BC
  8
01_表面形状
 62
     3
 10
956.8342279010539642
 20
-150.4503342560151964
 30
0.0
 11
955.0455527664594229
 21
-150.4503342560149974
 31
0.0
  0
LINE
  5
D6BD
  8
01_表面形状
 62
     3
 10
962.5455527664588544
 20
-129.4503342560149974
 30
0.0
 11
956.8342279010539642
 21
-129.4503342560149974
 31
0.0
  0
LINE
  5
D6BE
  8
01_表面形状
 62
     3
 10
955.0455527664594229
 20
-129.4503342560153101
 30
0.0
 11
956.8342279010539642
 21
-129.4503342560149974
 31
0.0
  0
LINE
  5
D6C3
  8
01_表面形状
 62
     3
 10
922.5455527664587407
 20
-181.6382315534106908
 30
0.0
 11
951.5455527664589681
 21
-181.6382315534106908
 31
0.0
  0
LINE
  5
D6C4
  8
01_表面形状
 62
     3
 10
922.5455527664587407
 20
-183.6382315534106908
 30
0.0
 11
951.5455527664589681
 21
-183.6382315534106908
 31
0.0
  0
ARC
  5
D6C5
  8
01_表面形状
 62
     3
 10
937.0455527664587407
 20
-200.6382315534106908
 30
0.0
 40
28.0
 50
270.0
 51
306.8698976458446737
  0
LINE
  5
D6C6
  8
01_表面形状
 62
     3
 10
922.5455527664587407
 20
-190.1382315534106908
 30
0.0
 11
921.5247977750592554
 21
-199.8500665601104913
 31
0.0
  0
ARC
  5
D6C7
  8
01_表面形状
 62
     3
 10
929.0455527664587407
 20
-196.1382315534106908
 30
0.0
 40
5.5
 50
245.3800226713433972
 51
294.6199773286567165
  0
ARC
  5
D6C8
  8
01_表面形状
 62
     3
 10
929.0455527664587407
 20
-196.1382315534106908
 30
0.0
 40
5.5
 50
305.3800226713432835
 51
354.6199773286570007
  0
ARC
  5
D6C9
  8
01_表面形状
 62
     3
 10
929.0455527664587407
 20
-196.1382315534106908
 30
0.0
 40
5.5
 50
5.3800226713429966
 51
54.6199773286566668
  0
ARC
  5
D6CA
  8
01_表面形状
 62
     3
 10
929.0455527664587407
 20
-196.1382315534106908
 30
0.0
 40
5.5
 50
65.3800226713446193
 51
114.6199773286553949
  0
ARC
  5
D6CB
  8
01_表面形状
 62
     3
 10
929.0455527664587407
 20
-196.1382315534106908
 30
0.0
 40
5.5
 50
125.3800226713432977
 51
174.6199773286570007
  0
ARC
  5
D6CC
  8
01_表面形状
 62
     3
 10
929.0455527664587407
 20
-196.1382315534106908
 30
0.0
 40
5.5
 50
185.3800226713429993
 51
234.6199773286585923
  0
LINE
  5
D6CD
  8
04_中心線
 62
   110
 10
937.0455527664587407
 20
-171.4638096441094035
 30
0.0
 11
937.0455527664587407
 21
-233.6382315534106908
 31
0.0
  0
LINE
  5
D6CE
  8
01_表面形状
 62
     3
 10
918.1229030356589647
 20
-222.6382315534106908
 30
0.0
 11
921.9458838959177456
 21
-222.6382315534106908
 31
0.0
  0
LINE
  5
D6CF
  8
01_表面形状
 62
     3
 10
916.9682024972587442
 20
-223.6382315534106908
 30
0.0
 11
917.2568776318588561
 21
-223.1382315534106908
 31
0.0
  0
ARC
  5
D6D0
  8
01_表面形状
 62
     3
 10
918.1229030356589647
 20
-223.6382315534106908
 30
0.0
 40
1.0
 50
90.0
 51
149.9999999999965894
  0
LINE
  5
D6D1
  8
01_表面形状
 62
     3
 10
911.5455527664590818
 20
-223.0608812842106943
 30
0.0
 11
911.5455527664590818
 21
-223.0143309338106974
 31
0.0
  0
ARC
  5
D6D2
  8
01_表面形状
 62
     3
 10
921.9458838959177456
 20
-224.6382315534106908
 30
0.0
 40
2.0
 50
46.6582417727800305
 51
90.0
  0
ARC
  5
D6D3
  8
01_表面形状
 62
     3
 10
937.0455527664587407
 20
-208.6382315534106908
 30
0.0
 40
20.0
 50
226.6582417727800021
 51
270.0
  0
POLYLINE
  5
D6D4
  8
01_表面形状
 62
     3
 66
     1
 10
0.0
 20
0.0
 30
0.0
 70
   128
  0
VERTEX
  5
DFD6
  8
01_表面形状
 62
     3
 10
921.5211272474588213
 20
-199.8498734229106901
 30
0.0
  0
VERTEX
  5
DFD7
  8
01_表面形状
 62
     3
 10
921.5180759593592938
 20
-199.9057391318106909
 30
0.0
  0
VERTEX
  5
DFD8
  8
01_表面形状
 62
     3
 10
921.4511026177586928
 20
-200.214912955710588
 30
0.0
  0
VERTEX
  5
DFD9
  8
01_表面形状
 62
     3
 10
921.3273287572590107
 20
-200.5277873494106871
 30
0.0
  0
VERTEX
  5
DFDA
  8
01_表面形状
 62
     3
 10
921.1468853452589656
 20
-200.8236429057106989
 30
0.0
  0
VERTEX
  5
DFDB
  8
01_表面形状
 62
     3
 10
920.9141237308592736
 20
-201.0876815068108101
 30
0.0
  0
VERTEX
  5
DFDC
  8
01_表面形状
 62
     3
 10
920.6364884830591109
 20
-201.3082703433107952
 30
0.0
  0
VERTEX
  5
DFDD
  8
01_表面形状
 62
     3
 10
920.3061422709592989
 20
-201.4840253251107924
 30
0.0
  0
VERTEX
  5
DFDE
  8
01_表面形状
 62
     3
 10
919.972438428158739
 20
-201.5900420415107135
 30
0.0
  0
VERTEX
  5
DFDF
  8
01_表面形状
 62
     3
 10
919.6461617134585822
 20
-201.6351984107107
 30
0.0
  0
VERTEX
  5
DFE0
  8
01_表面形状
 62
     3
 10
919.5382380068590464
 20
-201.6327502507106999
 30
0.0
  0
SEQEND
  5
DFE1
  8
01_表面形状
 62
     3
  0
LINE
  5
D6D5
  8
01_表面形状
 62
     3
 10
919.538097113858953
 20
-201.6382315534106908
 30
0.0
 11
918.1229030356589647
 21
-201.6382315534106908
 31
0.0
  0
LINE
  5
D6D6
  8
01_表面形状
 62
     3
 10
917.2568776318588561
 20
-201.1382315534106908
 30
0.0
 11
916.9682024972587442
 21
-200.6382315534106908
 31
0.0
  0
ARC
  5
D6D7
  8
01_表面形状
 62
     3
 10
918.1229030356589647
 20
-200.6382315534106908
 30
0.0
 40
1.0
 50
210.0000000000034106
 51
270.0
  0
LINE
  5
D6FD
  8
01_表面形状
 62
     3
 10
922.5455527664587407
 20
-181.6382315534106908
 30
0.0
 11
922.5455527664587407
 21
-190.1382315534106908
 31
0.0
  0
LINE
  5
D6FE
  8
01_表面形状
 62
     3
 10
952.4695031541590424
 20
-198.9290322798107127
 30
0.0
 11
951.5455527664589681
 21
-190.1382315534106908
 31
0.0
  0
LINE
  5
D6FF
  8
01_表面形状
 62
     3
 10
957.1229030356587373
 20
-218.8862904132109009
 30
0.0
 11
957.1229030356587373
 21
-216.8286473132106096
 31
0.0
  0
LINE
  5
D700
  8
01_表面形状
 62
     3
 10
962.5455527664588544
 20
-216.7038968348107062
 30
0.0
 11
962.5455527664588544
 21
-218.4486656524107104
 31
0.0
  0
ARC
  5
D701
  8
01_表面形状
 62
     3
 10
955.9682024972587442
 20
-223.6382315534106908
 30
0.0
 40
1.0
 50
30.0000000000033715
 51
90.0
  0
LINE
  5
D702
  8
01_表面形状
 62
     3
 10
956.8342279010589664
 20
-223.1382315534106908
 30
0.0
 11
957.1229030356587373
 21
-224.262587206393107
 31
0.0
  0
LINE
  5
D703
  8
01_表面形状
 62
     3
 10
955.0455527664589681
 20
-222.6382315534106908
 30
0.0
 11
955.9682024972587442
 21
-222.6382315534106908
 31
0.0
  0
LINE
  5
D704
  8
01_表面形状
 62
     3
 10
962.5455527664588544
 20
-218.4486656524107104
 30
0.0
 11
962.5455527664588544
 21
-223.0143309338106974
 31
0.0
  0
LINE
  5
D705
  8
01_表面形状
 62
     3
 10
962.5455527664588544
 20
-223.0143309338106974
 30
0.0
 11
962.5455527664588544
 21
-223.0608812842106943
 31
0.0
  0
ARC
  5
D706
  8
01_表面形状
 62
     3
 10
955.0455527664589681
 20
-224.6382315534106908
 30
0.0
 40
2.0
 50
90.0
 51
126.8698976458447021
  0
LINE
  5
D707
  8
04_中心線
 62
   110
 10
906.5455527664587407
 20
-212.1382315534106908
 30
0.0
 11
967.5455527664589681
 21
-212.1382315534106908
 31
0.0
  0
ARC
  5
D70B
  8
01_表面形状
 62
     3
 10
955.9682024972587442
 20
-200.6382315534106908
 30
0.0
 40
1.0
 50
270.0
 51
329.9999999999965894
  0
LINE
  5
D70C
  8
01_表面形状
 62
     3
 10
957.1229030356587373
 20
-200.0138759004283884
 30
0.0
 11
956.8342279010589664
 21
-201.1382315534106908
 31
0.0
  0
ARC
  5
D70D
  8
01_表面形状
 62
     3
 10
955.6936089653590898
 20
-199.6382315534106908
 30
0.0
 40
2.0
 50
231.5667936591003127
 51
270.0
  0
LINE
  5
D70E
  8
01_表面形状
 62
     3
 10
955.9682024972587442
 20
-201.6382315534106908
 30
0.0
 11
955.6936089653590898
 21
-201.6382315534106908
 31
0.0
  0
LINE
  5
D70F
  8
01_表面形状
 62
     3
 10
962.5455527664588544
 20
-201.2621321730107979
 30
0.0
 11
962.5455527664588544
 21
-205.8277974543107121
 31
0.0
  0
LINE
  5
D710
  8
01_表面形状
 62
     3
 10
962.5455527664588544
 20
-201.2155818226106874
 30
0.0
 11
962.5455527664588544
 21
-201.2621321730107979
 31
0.0
  0
LINE
  5
D711
  8
01_表面形状
 62
     3
 10
957.1229030356587373
 20
-207.4478157936106868
 30
0.0
 11
957.1229030356587373
 21
-205.3901726936107082
 31
0.0
  0
LINE
  5
D712
  8
01_表面形状
 62
     3
 10
962.5455527664588544
 20
-205.8277974543107121
 30
0.0
 11
962.5455527664588544
 21
-207.5725662720107039
 31
0.0
  0
POLYLINE
  5
D713
  8
01_表面形状
 62
     3
 66
     1
 10
0.0
 20
0.0
 30
0.0
 70
   128
  0
VERTEX
  5
DFE2
  8
01_表面形状
 62
     3
 10
953.2939477238589916
 20
-200.3265625178106006
 30
0.0
  0
VERTEX
  5
DFE3
  8
01_表面形状
 62
     3
 10
953.1072565740589653
 20
-200.1837030795107069
 30
0.0
  0
VERTEX
  5
DFE4
  8
01_表面形状
 62
     3
 10
952.8681872482591189
 20
-199.9224886934107133
 30
0.0
  0
VERTEX
  5
DFE5
  8
01_表面形状
 62
     3
 10
952.6668205757592887
 20
-199.5992786275106141
 30
0.0
  0
VERTEX
  5
DFE6
  8
01_表面形状
 62
     3
 10
952.5372297622592441
 20
-199.2678701035106883
 30
0.0
  0
VERTEX
  5
DFE7
  8
01_表面形状
 62
     3
 10
952.4708225194590341
 20
-198.9402976335107098
 30
0.0
  0
VERTEX
  5
DFE8
  8
01_表面形状
 62
     3
 10
952.4704471803590877
 20
-198.9302838650106935
 30
0.0
  0
SEQEND
  5
DFE9
  8
01_表面形状
 62
     3
  0
ARC
  5
D714
  8
01_表面形状
 62
     3
 10
937.0455527664587407
 20
-223.1382315534106908
 30
0.0
 40
28.0
 50
51.5667936591002771
 51
54.5410376362062195
  0
LINE
  5
D715
  8
01_表面形状
 62
     3
 10
962.5455527664588544
 20
-207.5725662720107039
 30
0.0
 11
962.5455527664588544
 21
-216.7038968348107062
 31
0.0
  0
LINE
  5
D716
  8
01_表面形状
 62
     3
 10
951.5455527664589681
 20
-190.1382315534106908
 30
0.0
 11
951.5455527664589681
 21
-181.6382315534106908
 31
0.0
  0
POLYLINE
  5
D717
  8
01_表面形状
 62
     3
 66
     1
 10
0.0
 20
0.0
 30
0.0
  0
VERTEX
  5
DFEA
  8
01_表面形状
 62
     3
 10
927.2455527664587862
 20
-175.8962641914689868
 30
0.0
  0
VERTEX
  5
DFEB
  8
01_表面形状
 62
     3
 10
927.2455527664587862
 20
-181.6382315534106908
 30
0.0
  0
VERTEX
  5
DFEC
  8
01_表面形状
 62
     3
 10
946.8455527664585816
 20
-181.6382315534106908
 30
0.0
  0
VERTEX
  5
DFED
  8
01_表面形状
 62
     3
 10
946.8455527664585816
 20
-175.8962641914689868
 30
0.0
  0
SEQEND
  5
DFEE
  8
01_表面形状
 62
     3
  0
POLYLINE
  5
D718
  8
01_表面形状
 62
     3
 66
     1
 10
0.0
 20
0.0
 30
0.0
  0
VERTEX
  5
DFEF
  8
01_表面形状
 62
     3
 10
945.5326017235463496
 20
-175.1382315534106908
 30
0.0
  0
VERTEX
  5
DFF0
  8
01_表面形状
 62
     3
 10
928.5585038093713592
 20
-175.1382315534106908
 30
0.0
  0
SEQEND
  5
DFF1
  8
01_表面形状
 62
     3
  0
LINE
  5
D719
  8
01_表面形状
 62
     3
 10
941.9455527664589454
 20
-181.6382315534106908
 30
0.0
 11
941.9455527664586043
 21
-175.8962641914689016
 31
0.0
  0
LINE
  5
D71A
  8
01_表面形状
 62
     3
 10
932.1455527664586498
 20
-181.6382315534106908
 30
0.0
 11
932.1455527664586498
 21
-175.8962641914689016
 31
0.0
  0
ARC
  5
D71B
  8
01_表面形状
 62
     3
 10
944.3955527664587635
 20
-179.4765101117116899
 30
0.0
 40
4.338278558300984
 50
55.6157525319613129
 51
124.3842474680386943
  0
ARC
  5
D71C
  8
01_表面形状
 62
     3
 10
937.0455527664587407
 20
-191.3542968295274989
 30
0.0
 40
16.2160652761168009
 50
72.4120462260085418
 51
107.5879537739914014
  0
ARC
  5
D71D
  8
01_表面形状
 62
     3
 10
929.6955527664588317
 20
-179.4765101117116899
 30
0.0
 40
4.338278558300984
 50
55.6157525319613129
 51
124.3842474680386943
  0
LINE
  5
D71E
  8
01_表面形状
 62
     3
 10
928.5585038093713592
 20
-175.1382315534106908
 30
0.0
 11
927.2455527664590136
 21
-175.8962641914689868
 31
0.0
  0
POLYLINE
  5
D71F
  8
01_表面形状
 62
     3
 66
     1
 10
0.0
 20
0.0
 30
0.0
 70
     1
  0
VERTEX
  5
DFF2
  8
01_表面形状
 62
     3
 10
946.84555276645915
 20
-139.9503342560151964
 30
0.0
  0
VERTEX
  5
DFF3
  8
01_表面形状
 62
     3
 10
941.9455527664591727
 20
-131.4632852989277012
 30
0.0
  0
VERTEX
  5
DFF4
  8
01_表面形状
 62
     3
 10
932.1455527664593319
 20
-131.4632852989277012
 30
0.0
  0
VERTEX
  5
DFF5
  8
01_表面形状
 62
     3
 10
927.2455527664591273
 20
-139.9503342560151964
 30
0.0
  0
VERTEX
  5
DFF6
  8
01_表面形状
 62
     3
 10
932.1455527664593319
 20
-148.4373832131026063
 30
0.0
  0
VERTEX
  5
DFF7
  8
01_表面形状
 62
     3
 10
941.9455527664591727
 20
-148.4373832131026063
 30
0.0
  0
SEQEND
  5
DFF8
  8
01_表面形状
 62
     3
  0
CIRCLE
  5
D720
  8
01_表面形状
 62
     3
 10
937.0455527664591955
 20
-139.9503342560151964
 30
0.0
 40
8.4870489570874632
  0
CIRCLE
  5
D721
  8
01_表面形状
 62
     3
 10
937.0455527664591955
 20
-139.9503342560151964
 30
0.0
 40
14.4999999999999396
  0
LINE
  5
D722
  8
04_中心線
 62
   110
 10
929.0455527664591955
 20
-149.6630845765726008
 30
0.0
 11
929.0455527664591955
 21
-162.3878428384597896
 31
0.0
  0
LINE
  5
D723
  8
01_表面形状
 62
     3
 10
924.0455527664590818
 20
-161.1607412287951036
 30
0.0
 11
934.0455527664590818
 21
-161.1607412287949899
 31
0.0
  0
ARC
  5
D724
  8
01_表面形状
 62
     3
 10
933.3759284394332099
 20
-158.6054703956874903
 30
0.0
 40
2.555270833107417
 50
235.6005266118986015
 51
304.3994733880959984
  0
LINE
  5
D725
  8
01_表面形状
 62
     3
 10
934.0455527664590818
 20
-161.1607412287949899
 30
0.0
 11
924.0455527664590818
 21
-161.1607412287949899
 31
0.0
  0
LINE
  5
D728
  8
01_表面形状
 62
     3
 10
924.0455527664590818
 20
-161.1607412287951036
 30
0.0
 11
923.2715527664590809
 21
-160.713872120442602
 31
0.0
  0
ARC
  5
D729
  8
01_表面形状
 62
     3
 10
924.71517709348484
 20
-158.6054703956874903
 30
0.0
 40
2.555270833107417
 50
235.6005266118986015
 51
304.3994733880959984
  0
ARC
  5
D72A
  8
01_表面形状
 62
     3
 10
929.0455527664591955
 20
-151.61317442026359
 30
0.0
 40
9.54756680853143
 50
252.4009153227634101
 51
287.5990846772367036
  0
LINE
  5
D72B
  8
01_表面形状
 62
     3
 10
934.0455527664590818
 20
-161.1607412287949899
 30
0.0
 11
934.8195527664590827
 21
-160.7138721204420051
 31
0.0
  0
LINE
  5
D72D
  8
01_表面形状
 62
     3
 10
934.8190554583552512
 20
-160.7142125415618068
 30
0.0
 11
934.8190554583552512
 21
-158.4342439206930067
 31
0.0
  0
LINE
  5
D72E
  8
01_表面形状
 62
     3
 10
931.9323041124071096
 20
-160.7138721204420904
 30
0.0
 11
931.9323041124071096
 21
-158.4345843418105062
 31
0.0
  0
LINE
  5
D72F
  8
01_表面形状
 62
     3
 10
926.1588014205112813
 20
-160.7138721204420904
 30
0.0
 11
926.1588014205112813
 21
-158.4345843418124957
 31
0.0
  0
LINE
  5
D730
  8
01_表面形状
 62
     3
 10
923.2720500745625714
 20
-160.7142125415618068
 30
0.0
 11
923.2720500745625714
 21
-158.4342439206913014
 31
0.0
  0
POLYLINE
  5
D731
  8
01_表面形状
 62
     3
 66
     1
 10
0.0
 20
0.0
 30
0.0
 70
     1
  0
VERTEX
  5
DFF9
  8
01_表面形状
 62
     3
 10
926.1588014205107129
 20
-201.1382315534106908
 30
0.0
  0
VERTEX
  5
DFFA
  8
01_表面形状
 62
     3
 10
931.9323041124071096
 20
-201.1382315534106908
 30
0.0
  0
VERTEX
  5
DFFB
  8
01_表面形状
 62
     3
 10
934.8190554583552512
 20
-196.1382315534106908
 30
0.0
  0
VERTEX
  5
DFFC
  8
01_表面形状
 62
     3
 10
931.9323041124071096
 20
-191.1382315534106056
 30
0.0
  0
VERTEX
  5
DFFD
  8
01_表面形状
 62
     3
 10
926.1588014205107129
 20
-191.1382315534106056
 30
0.0
  0
VERTEX
  5
DFFE
  8
01_表面形状
 62
     3
 10
923.2720500745625714
 20
-196.1382315534106056
 30
0.0
  0
SEQEND
  5
DFFF
  8
01_表面形状
 62
     3
  0
CIRCLE
  5
D732
  8
01_表面形状
 62
     3
 10
929.0455527664587407
 20
-196.1382315534106908
 30
0.0
 40
4.9999999999999867
  0
LINE
  5
D733
  8
04_中心線
 62
   110
 10
922.2978961142365506
 20
-196.1382315534106908
 30
0.0
 11
935.0226543761235689
 21
-196.1382315534106908
 31
0.0
  0
LINE
  5
D734
  8
04_中心線
 62
   110
 10
921.9126185929576422
 20
-196.1382315534106908
 30
0.0
 11
934.6373768548446606
 21
-196.1382315534106908
 31
0.0
  0
LINE
  5
D735
  8
04_中心線
 62
   110
 10
922.2978961142365506
 20
-196.1382315534106908
 30
0.0
 11
936.090688433578066
 21
-196.1382315534106908
 31
0.0
  0
LINE
  5
D736
  8
04_中心線
 62
   110
 10
929.0455527664587407
 20
-202.8858882056331936
 30
0.0
 11
929.0455527664587407
 21
-189.2881133115785985
 31
0.0
  0
POLYLINE
  5
D737
  8
01_表面形状
 62
     3
 66
     1
 10
0.0
 20
0.0
 30
0.0
  0
VERTEX
  5
E000
  8
01_表面形状
 62
     3
 10
1015.6535600990770263
 20
-175.1382315534106908
 30
0.0
  0
VERTEX
  5
E001
  8
01_表面形状
 62
     3
 10
998.6794621849022633
 20
-175.1382315534106908
 30
0.0
  0
SEQEND
  5
E002
  8
01_表面形状
 62
     3
  0
LINE
  5
D739
  8
01_表面形状
 62
     3
 10
998.6794621849028317
 20
-181.6382315534108045
 30
0.0
 11
998.6794621849028317
 21
-175.1382315534106908
 31
0.0
  0
LINE
  5
D73A
  8
01_表面形状
 62
     3
 10
1015.6535600990770263
 20
-181.6382315534108045
 30
0.0
 11
1015.6535600990770263
 21
-175.1382315534106908
 31
0.0
  0
ARC
  5
D73B
  8
01_表面形状
 62
     3
 10
1002.9229866634469772
 20
-187.3950345877767916
 30
0.0
 40
12.2568030345195407
 50
69.743841995570051
 51
110.2561580044299063
  0
ARC
  5
D73C
  8
01_表面形状
 62
     3
 10
1011.4100356205340177
 20
-187.3950339594036905
 30
0.0
 40
12.2568024450086899
 50
69.7438409785948039
 51
110.2561590214050966
  0
LINE
  5
D73E
  8
04_中心線
 62
   110
 10
997.453760821432752
 20
-196.1382315534104919
 30
0.0
 11
984.7290025595455063
 21
-196.1382315534106908
 31
0.0
  0
LINE
  5
D73F
  8
01_表面形状
 62
     3
 10
985.9561041692101071
 20
-191.1382315534108898
 30
0.0
 11
985.9561041692103345
 21
-201.1382315534106908
 31
0.0
  0
LINE
  5
D740
  8
01_表面形状
 62
     3
 10
985.9561041692103345
 20
-201.1382315534106908
 30
0.0
 11
985.9561041692103345
 21
-191.1382315534106908
 31
0.0
  0
LINE
  5
D741
  8
01_表面形状
 62
     3
 10
985.9561041692103345
 20
-201.1382315534104919
 30
0.0
 11
989.4561041692103345
 21
-201.1382315534104919
 31
0.0
  0
LINE
  5
D742
  8
01_表面形状
 62
     3
 10
985.9561041692101071
 20
-191.1382315534104919
 30
0.0
 11
989.4561041692101071
 21
-191.1382315534104919
 31
0.0
  0
LINE
  5
D743
  8
01_表面形状
 62
     3
 10
986.4029732775632056
 20
-196.1382315534106908
 30
0.0
 11
989.0091817607054736
 21
-196.1382315534108898
 31
0.0
  0
LINE
  5
D744
  8
01_表面形状
 62
     3
 10
992.6340808308627857
 20
-190.5089117057906094
 30
0.0
 11
990.6403431638685788
 21
-190.6133990693905957
 31
0.0
  0
LINE
  5
D745
  8
01_表面形状
 62
     3
 10
990.1665111419902132
 20
-191.1127138367679947
 30
0.0
 11
990.1665111419902132
 21
-196.1382315534106056
 31
0.0
  0
ARC
  5
D746
  8
01_表面形状
 62
     3
 10
990.6665111419902132
 20
-191.1127138367679947
 30
0.0
 40
0.5
 50
92.9999999999991047
 51
180.0
  0
LINE
  5
D747
  8
01_表面形状
 62
     3
 10
991.6535732031599082
 20
-201.7161651736925876
 30
0.0
 11
990.6403431638685788
 21
-201.6630640374305017
 31
0.0
  0
ARC
  5
D748
  8
01_表面形状
 62
     3
 10
990.6665111419902132
 20
-201.163749270053188
 30
0.0
 40
0.5
 50
180.0
 51
266.9999999999943725
  0
LINE
  5
D749
  8
01_表面形状
 62
     3
 10
990.1665111419902132
 20
-196.1382315534106056
 30
0.0
 11
990.1665111419902132
 21
-201.1637492700533016
 31
0.0
  0
CIRCLE
  5
D74A
  8
01_表面形状
 62
     3
 10
1007.1665111419899858
 20
-212.1382315534106908
 30
0.0
 40
7.4749999999999979
  0
CIRCLE
  5
D74B
  8
01_表面形状
 62
     3
 10
1007.1665111419899858
 20
-212.1382315534106908
 30
0.0
 40
8.3309999999999995
  0
POLYLINE
  5
D74C
  8
01_表面形状
 62
     3
 66
     1
 10
0.0
 20
0.0
 30
0.0
 70
     1
  0
VERTEX
  5
E003
  8
01_表面形状
 62
     3
 10
996.6665111419900995
 20
-218.2004093799021121
 30
0.0
  0
VERTEX
  5
E004
  8
01_表面形状
 62
     3
 10
1007.1665111419899858
 20
-224.262587206393107
 30
0.0
  0
VERTEX
  5
E005
  8
01_表面形状
 62
     3
 10
1017.6665111419899858
 20
-218.2004093799017994
 30
0.0
  0
VERTEX
  5
E006
  8
01_表面形状
 62
     3
 10
1017.6665111419899858
 20
-206.0760537269196107
 30
0.0
  0
VERTEX
  5
E007
  8
01_表面形状
 62
     3
 10
1007.1665111419899858
 20
-200.0138759004285873
 30
0.0
  0
VERTEX
  5
E008
  8
01_表面形状
 62
     3
 10
996.6665111419900995
 20
-206.0760537269198096
 30
0.0
  0
SEQEND
  5
E009
  8
01_表面形状
 62
     3
  0
LINE
  5
D74D
  8
01_表面形状
 62
     3
 10
962.5455527664588544
 20
-200.0138759004283884
 30
0.0
 11
957.1229030356587373
 21
-200.0138759004283884
 31
0.0
  0
LINE
  5
D74E
  8
01_表面形状
 62
     3
 10
962.5455527664588544
 20
-206.0760537269198096
 30
0.0
 11
957.1229030356587373
 21
-206.0760537269198096
 31
0.0
  0
LINE
  5
D74F
  8
01_表面形状
 62
     3
 10
962.5455527664588544
 20
-218.2004093799021121
 30
0.0
 11
957.1229030356587373
 21
-218.2004093799021121
 31
0.0
  0
LINE
  5
D750
  8
01_表面形状
 62
     3
 10
962.5455527664588544
 20
-224.262587206393107
 30
0.0
 11
957.1229030356587373
 21
-224.262587206393107
 31
0.0
  0
LINE
  5
D751
  8
01_表面形状
 62
     3
 10
962.5455527664588544
 20
-224.262587206393107
 30
0.0
 11
962.5455527664588544
 21
-200.0138759004283884
 31
0.0
  0
LINE
  5
D752
  8
01_表面形状
 62
     3
 10
957.1229030356587373
 20
-224.262587206393107
 30
0.0
 11
957.1229030356587373
 21
-200.0138759004283884
 31
0.0
  0
LINE
  5
D753
  8
01_表面形状
 62
     3
 10
911.5455527664590818
 20
-216.7038968348107062
 30
0.0
 11
911.5455527664590818
 21
-218.4486656524107104
 31
0.0
  0
LINE
  5
D754
  8
01_表面形状
 62
     3
 10
917.2568776318588561
 20
-223.1382315534106908
 30
0.0
 11
916.9682024972587442
 21
-224.2625872063929933
 31
0.0
  0
LINE
  5
D755
  8
01_表面形状
 62
     3
 10
911.5455527664590818
 20
-218.4486656524107104
 30
0.0
 11
911.5455527664590818
 21
-223.0143309338106974
 31
0.0
  0
LINE
  5
D756
  8
01_表面形状
 62
     3
 10
916.9682024972587442
 20
-200.0138759004283884
 30
0.0
 11
917.2568776318588561
 21
-201.1382315534106908
 31
0.0
  0
LINE
  5
D757
  8
01_表面形状
 62
     3
 10
911.5455527664590818
 20
-201.2621321730107127
 30
0.0
 11
911.5455527664590818
 21
-205.8277974543107121
 31
0.0
  0
LINE
  5
D758
  8
01_表面形状
 62
     3
 10
911.5455527664590818
 20
-201.2155818226106874
 30
0.0
 11
911.5455527664590818
 21
-201.2621321730107127
 31
0.0
  0
LINE
  5
D759
  8
01_表面形状
 62
     3
 10
916.9682024972587442
 20
-207.4478157936106868
 30
0.0
 11
916.9682024972587442
 21
-205.3901726936107082
 31
0.0
  0
LINE
  5
D75A
  8
01_表面形状
 62
     3
 10
911.5455527664590818
 20
-205.8277974543107121
 30
0.0
 11
911.5455527664590818
 21
-207.5725662720107039
 31
0.0
  0
LINE
  5
D75B
  8
01_表面形状
 62
     3
 10
911.5455527664590818
 20
-207.5725662720107039
 30
0.0
 11
911.5455527664590818
 21
-216.7038968348107062
 31
0.0
  0
LINE
  5
D75C
  8
01_表面形状
 62
     3
 10
911.5455527664590818
 20
-200.0138759004283884
 30
0.0
 11
916.9682024972587442
 21
-200.0138759004283884
 31
0.0
  0
LINE
  5
D75D
  8
01_表面形状
 62
     3
 10
911.5455527664590818
 20
-206.0760537269198096
 30
0.0
 11
916.9682024972587442
 21
-206.0760537269198096
 31
0.0
  0
LINE
  5
D75E
  8
01_表面形状
 62
     3
 10
911.5455527664590818
 20
-218.2004093799019984
 30
0.0
 11
916.9682024972587442
 21
-218.2004093799019984
 31
0.0
  0
LINE
  5
D75F
  8
01_表面形状
 62
     3
 10
911.5455527664590818
 20
-224.2625872063929933
 30
0.0
 11
916.9682024972587442
 21
-224.2625872063929933
 31
0.0
  0
LINE
  5
D760
  8
01_表面形状
 62
     3
 10
911.5455527664590818
 20
-224.2625872063929933
 30
0.0
 11
911.5455527664590818
 21
-200.0138759004283884
 31
0.0
  0
LINE
  5
D761
  8
01_表面形状
 62
     3
 10
916.9682024972587442
 20
-224.2625872063929933
 30
0.0
 11
916.9682024972587442
 21
-200.0138759004283884
 31
0.0
  0
LINE
  5
D762
  8
01_表面形状
 62
     3
 10
962.5455527664588544
 20
-150.4503342560151964
 30
0.0
 11
962.5455527664588544
 21
-129.4503342560149974
 31
0.0
  0
LINE
  5
D763
  8
01_表面形状
 62
     3
 10
956.8342279010539642
 20
-150.4503342560151964
 30
0.0
 11
956.8342279010539642
 21
-129.4503342560149974
 31
0.0
  0
LINE
  5
D764
  8
01_表面形状
 62
     3
 10
962.5455527664588544
 20
-139.9503342560151111
 30
0.0
 11
956.8342279010539642
 21
-139.9503342560151111
 31
0.0
  0
LINE
  5
D765
  8
01_表面形状
 62
     3
 10
911.5455527664590818
 20
-139.9503342560149122
 30
0.0
 11
911.5455527664590818
 21
-130.0303342560146973
 31
0.0
  0
LINE
  5
D766
  8
01_表面形状
 62
     3
 10
911.5455527664590818
 20
-150.4503342560149122
 30
0.0
 11
917.2568776318638584
 21
-150.4503342560149974
 31
0.0
  0
LINE
  5
D767
  8
01_表面形状
 62
     3
 10
911.5455527664590818
 20
-139.9503342560147985
 30
0.0
 11
911.5455527664590818
 21
-149.8703342560150134
 31
0.0
  0
LINE
  5
D768
  8
01_表面形状
 62
     3
 10
918.3974965674872237
 20
-150.4503342560149122
 30
0.0
 11
917.2568776318638584
 21
-150.4503342560149974
 31
0.0
  0
LINE
  5
D769
  8
01_表面形状
 62
     3
 10
917.2568776318638584
 20
-150.4503342560149974
 30
0.0
 11
919.0455527664583997
 21
-150.4503342560147985
 31
0.0
  0
LINE
  5
D76A
  8
01_表面形状
 62
     3
 10
911.5455527664590818
 20
-129.4503342560147132
 30
0.0
 11
917.2568776318643131
 21
-129.4503342560147985
 31
0.0
  0
LINE
  5
D76B
  8
01_表面形状
 62
     3
 10
919.0455527664587407
 20
-129.4503342560151111
 30
0.0
 11
917.2568776318643131
 21
-129.4503342560147985
 31
0.0
  0
LINE
  5
D76C
  8
01_表面形状
 62
     3
 10
911.5455527664590818
 20
-150.4503342560149122
 30
0.0
 11
911.5455527664590818
 21
-129.4503342560147132
 31
0.0
  0
LINE
  5
D76D
  8
01_表面形状
 62
     3
 10
917.2568776318638584
 20
-150.4503342560149974
 30
0.0
 11
917.2568776318643131
 21
-129.4503342560147985
 31
0.0
  0
TEXT
  5
D76E
  8
12_文字
 62
   110
 10
911.3622111695543708
 20
-258.4966183174952903
 30
0.0
 40
4.1671809999999976
  1
         SWING CHECK VALVE 3/8
 41
0.938395
  7
MX_NOTE_STANDARD
 11
911.3622111695543708
 21
-256.4130278174952764
 31
0.0
 73
     2
  0
TEXT
  5
D76F
  8
12_文字
 62
   110
 10
911.3442171695544403
 20
-274.496618317495404
 30
0.0
 40
4.1671809999999976
  1
TOA
 41
0.9124859999999999
  7
MX_NOTE_STANDARD
 11
911.3442171695544403
 21
-272.4130278174952764
 31
0.0
 73
     2
  0
TEXT
  5
D770
  8
12_文字
 62
   110
 10
911.396614169554482
 20
-266.496618317495404
 30
0.0
 40
4.1671809999999976
  1
FIG   TS3/8
 41
0.9879279999999999
  7
MX_NOTE_STANDARD
 11
911.396614169554482
 21
-264.4130278174952764
 31
0.0
 73
     2
  0
TEXT
  5
D771
  8
12_文字
 62
   110
 10
911.346358169554378
 20
-250.4966183174952903
 30
0.0
 40
4.1671809999999976
  1
NAME  CLASS 125 CAST BRASS
 41
0.9155689999999999
  7
MX_NOTE_STANDARD
 11
911.346358169554378
 21
-248.4130278174953048
 31
0.0
 73
     2
  0
LINE
  5
D772
  8
01_表面形状
 62
     3
 10
985.9561041692101071
 20
-191.1382315534108898
 30
0.0
 11
985.9561041692103345
 21
-201.1382315534106908
 31
0.0
  0
LINE
  5
D773
  8
01_表面形状
 62
     3
 10
985.9561041692103345
 20
-201.1382315534106908
 30
0.0
 11
985.9561041692103345
 21
-191.1382315534106908
 31
0.0
  0
LINE
  5
D774
  8
01_表面形状
 62
     3
 10
985.9561041692103345
 20
-201.1382315534104919
 30
0.0
 11
989.4561041692107892
 21
-201.1382315534104919
 31
0.0
  0
LINE
  5
D775
  8
01_表面形状
 62
     3
 10
985.9561041692101071
 20
-191.1382315534104919
 30
0.0
 11
989.4561041692101071
 21
-191.1382315534104919
 31
0.0
  0
ARC
  5
D776
  8
01_表面形状
 62
     3
 10
993.1687222915966231
 20
-198.6382315534106056
 30
0.0
 40
7.2128607168649781
 50
159.7203133156143053
 51
200.2796866843856094
  0
ARC
  5
D777
  8
01_表面形状
 62
     3
 10
993.1714774374496528
 20
-193.6382315534106056
 30
0.0
 40
7.2154451395875938
 50
159.7278962371507021
 51
200.2721037628492127
  0
ARC
  5
D778
  8
01_表面形状
 62
     3
 10
982.241162929925963
 20
-198.6382315534106908
 30
0.0
 40
7.2149898748222761
 50
339.7265608717349892
 51
20.2734391282650108
  0
ARC
  5
D779
  8
01_表面形状
 62
     3
 10
982.2399198354027021
 20
-193.6382315534106908
 30
0.0
 40
7.21615597207773
 50
339.729980864259403
 51
20.2700191357406112
  0
LINE
  5
D77B
  8
01_表面形状
 62
     3
 10
989.4561041692107892
 20
-201.1382315534104919
 30
0.0
 11
990.1665111419902132
 21
-200.4278245806308973
 31
0.0
  0
LINE
  5
D77C
  8
01_表面形状
 62
     3
 10
989.4561041692101071
 20
-191.1382315534104919
 30
0.0
 11
990.1665111419902132
 21
-191.848638526190399
 31
0.0
  0
ARC
  5
D77D
  8
01_表面形状
 62
     3
 10
933.3759284394316182
 20
-160.5429860665661863
 30
0.0
 40
2.555270833107417
 50
55.6005266118987009
 51
124.3994733881012991
  0
ARC
  5
D77E
  8
01_表面形状
 62
     3
 10
924.7151770934840442
 20
-160.5429860665663
 30
0.0
 40
2.555270833107417
 50
55.6005266118987009
 51
124.3994733881012991
  0
ARC
  5
D77F
  8
01_表面形状
 62
     3
 10
929.0455527664576039
 20
-167.5352820419900866
 30
0.0
 40
9.54756680853143
 50
72.4009153227633107
 51
107.5990846772366041
  0
LINE
  5
D780
  8
01_表面形状
 62
     3
 10
934.8190554583603671
 20
-158.4342439206963036
 30
0.0
 11
933.3351457936792031
 21
-156.9503342560151111
 31
0.0
  0
LINE
  5
D781
  8
01_表面形状
 62
     3
 10
923.2720500745625714
 20
-158.4342439206913866
 30
0.0
 11
924.7559597392389605
 21
-156.9503342560151111
 31
0.0
  0
LINE
  5
D782
  8
01_表面形状
 62
     3
 10
1007.1665111419899858
 20
-181.6382315534108045
 30
0.0
 11
1007.1665111419899858
 21
-175.8962641914689868
 31
0.0
  0
LINE
  5
D783
  8
01_表面形状
 62
     3
 10
911.5455527664590818
 20
-139.9503342560151964
 30
0.0
 11
917.2568776318638584
 21
-139.9503342560149122
 31
0.0
  0
LINE
  5
D784
  8
01_表面形状
 62
     3
 10
956.8342279010539642
 20
-139.9503342560151964
 30
0.0
 11
962.5455527664590818
 21
-139.9503342560151111
 31
0.0
  0
LINE
  5
D785
  8
01_表面形状
 62
     3
 10
992.6665111419899858
 20
-181.6382315534106908
 30
0.0
 11
1021.6665111419899858
 21
-181.6382315534106908
 31
0.0
  0
LINE
  5
D786
  8
01_表面形状
 62
     3
 10
992.6665111419899858
 20
-183.6382315534106908
 30
0.0
 11
1021.6665111419899858
 21
-183.6382315534106908
 31
0.0
  0
LINE
  5
DE9E
  8
01_表面形状
 62
     3
 10
942.3576998809519409
 20
-209.7882315534106965
 30
0.0
 11
942.3591431343738805
 21
-209.7882315534106965
 31
0.0
  0
LINE
  5
DE9F
  8
01_表面形状
 62
     3
 10
940.907014748981851
 20
-213.9007315534107079
 30
0.0
 11
943.3606385289373293
 21
-213.9007315534109068
 31
0.0
  0
LINE
  5
DEA0
  8
01_表面形状
 62
     3
 10
941.8300798060791976
 20
-213.3132315534107022
 30
0.0
 11
942.773138528937352
 21
-213.3132315534109011
 31
0.0
  0
LINE
  5
DEA1
  8
01_表面形状
 62
     3
 10
942.3576998809521683
 20
-210.9632315534107079
 30
0.0
 11
942.3591431343735394
 21
-210.9632315534107079
 31
0.0
  0
LINE
  5
DEA2
  8
01_表面形状
 62
     3
 10
940.3874043804878511
 20
-211.3000924652106107
 30
0.0
 11
939.7313085700458259
 21
-213.7486753644130033
 31
0.0
  0
LINE
  5
DEA3
  8
01_表面形状
 62
     3
 10
941.5223672263775825
 20
-211.6042048432059914
 30
0.0
 11
941.2625983831343319
 21
-212.5736753644129919
 31
0.0
  0
LINE
  5
DEA4
  8
01_表面形状
 62
     3
 10
940.907014748981851
 20
-213.9007315534107079
 30
0.0
 11
940.866271415935671
 21
-214.0527877424084977
 31
0.0
  0
LINE
  5
DEA5
  8
01_表面形状
 62
     3
 10
944.5356385289371701
 20
-211.8280315534109093
 30
0.0
 11
944.5356385289370564
 21
-213.9007315534109068
 31
0.0
  0
LINE
  5
DEA6
  8
01_表面形状
 62
     3
 10
943.3606385289373293
 20
-211.8280315534107956
 30
0.0
 11
943.3606385289373293
 21
-212.7257315534108955
 31
0.0
  0
ARC
  5
DEA7
  8
01_表面形状
 62
     3
 10
940.2987899929906916
 20
-213.9007315534107079
 30
0.0
 40
0.5875
 50
165.0000000000023874
 51
344.9999999999881197
  0
ARC
  5
DEA8
  8
01_表面形状
 62
     3
 10
943.9481385289371929
 20
-213.9007315534109068
 30
0.0
 40
0.5875
 50
180.0
 51
0.0
  0
ARC
  5
DEA9
  8
01_表面形状
 62
     3
 10
941.8300798060791976
 20
-212.7257315534106965
 30
0.0
 40
0.5875
 50
165.0000000000023874
 51
270.0
  0
ARC
  5
DEAA
  8
01_表面形状
 62
     3
 10
942.773138528937352
 20
-212.7257315534108955
 30
0.0
 40
0.5875
 50
270.0
 51
0.0000000000032569
  0
LINE
  5
DEAB
  8
01_表面形状
 62
     3
 10
930.1487506300868517
 20
-210.9632315534105089
 30
0.0
 11
930.7484391664256691
 21
-210.9632315534105089
 31
0.0
  0
LINE
  5
DEAC
  8
01_表面形状
 62
     3
 10
932.8750341089346421
 20
-210.9632315534105089
 30
0.0
 11
933.7980991660319887
 21
-210.9632315534105089
 31
0.0
  0
ARC
  5
DEAD
  8
01_表面形状
 62
     3
 10
932.8750341089346421
 20
-211.5507315534104862
 30
0.0
 40
0.5875
 50
90.0
 51
164.9999999999990905
  0
ARC
  5
DEAE
  8
01_表面形状
 62
     3
 10
930.7484391664256691
 20
-211.315731553410501
 30
0.0
 40
0.3525
 50
344.9999999999992042
 51
90.0
  0
ARC
  5
DEAF
  8
01_表面形状
 62
     3
 10
942.4154028704482471
 20
-211.9032315534105066
 30
0.0
 40
2.1149999999999989
 50
89.9290824560277997
 51
165.3312556800399022
  0
ARC
  5
DEB0
  8
01_表面形状
 62
     3
 10
942.4206385289372747
 20
-211.9032315534105066
 30
0.0
 40
2.1149999999999989
 50
359.9999999999919282
 51
90.0709175439656633
  0
ARC
  5
DEB1
  8
01_表面形状
 62
     3
 10
942.4154028704482471
 20
-211.9032315534107056
 30
0.0
 40
0.9399999999999998
 50
89.8404353605604769
 51
165.4968843844542903
  0
ARC
  5
DEB2
  8
01_表面形状
 62
     3
 10
942.4206385289372747
 20
-211.9032315534107056
 30
0.0
 40
0.9399999999999998
 50
0.0
 51
90.1595646394394947
  0
LINE
  5
DEB3
  8
01_表面形状
 62
     3
 10
936.8197351153315822
 20
-209.7882315534106965
 30
0.0
 11
938.2250888079774995
 21
-209.7882315534106965
 31
0.0
  0
LINE
  5
DEB4
  8
01_表面形状
 62
     3
 10
935.7750251070359582
 20
-214.4882315534107136
 30
0.0
 11
937.1803787996818755
 21
-214.4882315534107136
 31
0.0
  0
LINE
  5
DEB5
  8
01_表面形状
 62
     3
 10
936.5363788443357862
 20
-213.9007315534107079
 30
0.0
 11
936.6623149647783748
 21
-213.9007315534107079
 31
0.0
  0
ARC
  5
DEB6
  8
01_表面形状
 62
     3
 10
936.6623149647783748
 20
-212.4907315534107113
 30
0.0
 40
1.409999999999999
 50
270.0
 51
345.0000000000022737
  0
LINE
  5
DEB7
  8
01_表面形状
 62
     3
 10
936.8197351153315822
 20
-209.7882315534106965
 30
0.0
 11
938.2250888079774995
 21
-209.7882315534106965
 31
0.0
  0
ARC
  5
DEB8
  8
01_表面形状
 62
     3
 10
938.2250888079774995
 20
-211.1982315534106931
 30
0.0
 40
1.409999999999999
 50
344.9999999999992042
 51
90.0
  0
ARC
  5
DEB9
  8
01_表面形状
 62
     3
 10
936.8197351153315822
 20
-211.9032315534107056
 30
0.0
 40
2.1149999999999989
 50
90.0
 51
164.9999999999990905
  0
LINE
  5
DEBA
  8
01_表面形状
 62
     3
 10
937.3377989502356513
 20
-210.3757315534107022
 30
0.0
 11
937.4637350706776715
 21
-210.3757315534107022
 31
0.0
  0
ARC
  5
DEBB
  8
01_表面形状
 62
     3
 10
937.3377989502356513
 20
-211.7857315534106988
 30
0.0
 40
1.409999999999999
 50
90.0
 51
164.9999999999961062
  0
LINE
  5
DEBC
  8
01_表面形状
 62
     3
 10
934.7768019927301566
 20
-211.3558292730189123
 30
0.0
 11
934.4130696919684169
 21
-212.7132966998161976
 31
0.0
  0
ARC
  5
DEBD
  8
01_表面形状
 62
     3
 10
935.7750251070359582
 20
-213.0782315534106885
 30
0.0
 40
1.409999999999999
 50
164.9999999999990905
 51
270.0
  0
LINE
  5
DEBE
  8
01_表面形状
 62
     3
 10
935.9758435351678827
 20
-211.4207966998158952
 30
0.0
 11
935.628408567624092
 21
-212.7174416510142123
 31
0.0
  0
ARC
  5
DEBF
  8
01_表面形状
 62
     3
 10
936.5363788443357862
 20
-212.9607315534107101
 30
0.0
 40
0.9399999999999998
 50
164.9999999999961062
 51
270.0
  0
LINE
  5
DEC0
  8
01_表面形状
 62
     3
 10
939.5870442230451545
 20
-211.5631664070052977
 30
0.0
 11
939.2233119222833011
 21
-212.9206338338026114
 31
0.0
  0
ARC
  5
DEC1
  8
01_表面形状
 62
     3
 10
937.1803787996818755
 20
-212.3732315534107045
 30
0.0
 40
2.1149999999999989
 50
270.0
 51
344.9999999999992042
  0
LINE
  5
DEC2
  8
01_表面形状
 62
     3
 10
938.3717053473893657
 20
-211.5590214558069988
 30
0.0
 11
938.024270379845575
 21
-212.8556664070052022
 31
0.0
  0
ARC
  5
DEC3
  8
01_表面形状
 62
     3
 10
937.4637350706776715
 20
-211.3157315534106999
 30
0.0
 40
0.9399999999999998
 50
345.0000000000022737
 51
90.0
  0
LINE
  5
DEC4
  8
01_表面形状
 62
     3
 10
942.3576998809519409
 20
-209.7882315534106965
 30
0.0
 11
942.3591431343738805
 21
-209.7882315534106965
 31
0.0
  0
LINE
  5
DEC5
  8
01_表面形状
 62
     3
 10
940.907014748981851
 20
-213.9007315534107079
 30
0.0
 11
943.3606385289373293
 21
-213.9007315534109068
 31
0.0
  0
LINE
  5
DEC6
  8
01_表面形状
 62
     3
 10
941.8300798060791976
 20
-213.3132315534107022
 30
0.0
 11
942.773138528937352
 21
-213.3132315534109011
 31
0.0
  0
LINE
  5
DEC7
  8
01_表面形状
 62
     3
 10
942.3576998809521683
 20
-210.9632315534107079
 30
0.0
 11
942.3591431343735394
 21
-210.9632315534107079
 31
0.0
  0
LINE
  5
DEC8
  8
01_表面形状
 62
     3
 10
940.3724697478465941
 20
-211.3558292730187134
 30
0.0
 11
939.7313085700458259
 21
-213.7486753644130033
 31
0.0
  0
LINE
  5
DEC9
  8
01_表面形状
 62
     3
 10
941.5223672263775825
 20
-211.6042048432059914
 30
0.0
 11
941.2625983831343319
 21
-212.5736753644129919
 31
0.0
  0
LINE
  5
DECA
  8
01_表面形状
 62
     3
 10
940.907014748981851
 20
-213.9007315534107079
 30
0.0
 11
940.866271415935671
 21
-214.0527877424084977
 31
0.0
  0
LINE
  5
DECB
  8
01_表面形状
 62
     3
 10
944.5356385289371701
 20
-211.8280315534109093
 30
0.0
 11
944.5356385289370564
 21
-213.9007315534109921
 31
0.0
  0
LINE
  5
DECC
  8
01_表面形状
 62
     3
 10
943.3606385289373293
 20
-211.9032315534107056
 30
0.0
 11
943.3606385289373293
 21
-212.7257315534108955
 31
0.0
  0
ARC
  5
DECD
  8
01_表面形状
 62
     3
 10
940.2987899929906916
 20
-213.9007315534107079
 30
0.0
 40
0.5875
 50
165.0000000000023874
 51
344.9999999999881197
  0
ARC
  5
DECE
  8
01_表面形状
 62
     3
 10
943.9481385289371929
 20
-213.9007315534109068
 30
0.0
 40
0.5875
 50
180.0
 51
0.0
  0
ARC
  5
DECF
  8
01_表面形状
 62
     3
 10
941.8300798060791976
 20
-212.7257315534106965
 30
0.0
 40
0.5875
 50
165.0000000000023874
 51
270.0
  0
ARC
  5
DED0
  8
01_表面形状
 62
     3
 10
942.773138528937352
 20
-212.7257315534108955
 30
0.0
 40
0.5875
 50
270.0
 51
0.0000000000032569
  0
ARC
  5
DED1
  8
01_表面形状
 62
     3
 10
942.4154028704482471
 20
-211.9032315534105066
 30
0.0
 40
2.1149999999999989
 50
89.9290824560277997
 51
165.3312556800399022
  0
ARC
  5
DED2
  8
01_表面形状
 62
     3
 10
942.4206385289372747
 20
-211.9032315534105066
 30
0.0
 40
2.1149999999999989
 50
359.9999999999919282
 51
90.0709175439656633
  0
ARC
  5
DED3
  8
01_表面形状
 62
     3
 10
942.4154028704482471
 20
-211.9032315534107056
 30
0.0
 40
0.9399999999999998
 50
89.8404353605604769
 51
165.4968843844542903
  0
ARC
  5
DED4
  8
01_表面形状
 62
     3
 10
942.4206385289372747
 20
-211.9032315534107056
 30
0.0
 40
0.9399999999999998
 50
0.0
 51
90.1595646394394947
  0
LINE
  5
DED5
  8
01_表面形状
 62
     3
 10
930.1487506300868517
 20
-209.7882315534106965
 30
0.0
 11
933.7980991660319887
 21
-209.7882315534106965
 31
0.0
  0
LINE
  5
DED6
  8
01_表面形状
 62
     3
 10
932.3075526859896627
 20
-211.3986753644128953
 30
0.0
 11
931.596385417684246
 21
-214.0527877424084977
 31
0.0
  0
LINE
  5
DED7
  8
01_表面形状
 62
     3
 10
932.3075526859896627
 20
-211.3986753644128953
 30
0.0
 11
931.596385417684246
 21
-214.0527877424084977
 31
0.0
  0
LINE
  5
DED8
  8
01_表面形状
 62
     3
 10
932.3075526859896627
 20
-211.3986753644126964
 30
0.0
 11
931.596385417684246
 21
-214.0527877424084977
 31
0.0
  0
ARC
  5
DED9
  8
01_表面形状
 62
     3
 10
930.1487506300868517
 20
-210.3757315534107022
 30
0.0
 40
0.5875
 50
90.0
 51
270.0
  0
ARC
  5
DEDA
  8
01_表面形状
 62
     3
 10
933.7980991660319887
 20
-210.3757315534107022
 30
0.0
 40
0.5875
 50
270.0
 51
90.0
  0
ARC
  5
DEDB
  8
01_表面形状
 62
     3
 10
931.0289039947391529
 20
-213.9007315534107079
 30
0.0
 40
0.5875
 50
164.2944179854833067
 51
344.9999999999992042
  0
LINE
  5
DEDC
  8
01_表面形状
 62
     3
 10
931.0889280201926113
 20
-211.406965266809209
 30
0.0
 11
930.4595931177763077
 21
-213.7556750976029036
 31
0.0
  0
VIEWPORT
  5
542
 67
     1
  8
0
 10
185.6233038915470104
 20
148.4223392912986128
 30
0.0
 40
450.4060917083240838
 41
309.2814998667927853
 68
     1
 69
     1
1001
ACAD
1000
MVIEW
1002
{
1070
    16
1010
0.0
1020
0.0
1030
0.0
1010
0.0
1020
0.0
1030
1.0
1040
0.0
1040
309.2814998667927853
1040
185.6233038915470104
1040
148.4223392912986128
1040
50.0
1040
0.0
1040
0.0
1070
     0
1070
  1000
1070
     1
1070
     1
1070
     0
1070
     0
1070
     0
1070
     0
1040
0.0
1040
0.0
1040
0.0
1040
10.0
1040
10.0
1040
10.0
1040
10.0
1070
     0
1002
{
1002
}
1002
}
  0
ENDSEC
  0
EOF
