  0
SECTION
  2
HEADER
  9
$ACADVER
  1
AC1009
  9
$INSBASE
 10
0.0
 20
0.0
 30
0.0
  9
$EXTMIN
 10
167.5129720106743036
 20
144.1656352245774997
 30
-0.0000000349181948
  9
$EXTMAX
 10
360.6028065168347894
 20
426.6128538106706856
 30
0.0000000814935747
  9
$LIMMIN
 10
0.0
 20
0.0
  9
$LIMMAX
 10
297.0
 20
210.0
  9
$ORTHOMODE
 70
     0
  9
$REGENMODE
 70
     1
  9
$FILLMODE
 70
     1
  9
$QTEXTMODE
 70
     0
  9
$MIRRTEXT
 70
     0
  9
$DRAGMODE
 70
     2
  9
$LTSCALE
 40
0.4
  9
$OSMODE
 70
  1463
  9
$ATTMODE
 70
     1
  9
$TEXTSIZE
 40
5.0
  9
$TRACEWID
 40
1.0
  9
$TEXTSTYLE
  7
STANDARD
  9
$CLAYER
  8
01_表面形状
  9
$CELTYPE
  6
BYLAYER
  9
$CECOLOR
 62
   256
  9
$DIMSCALE
 40
1.0
  9
$DIMASZ
 40
2.5
  9
$DIMEXO
 40
1.0
  9
$DIMDLI
 40
10.0
  9
$DIMRND
 40
0.0
  9
$DIMDLE
 40
0.0
  9
$DIMEXE
 40
1.0
  9
$DIMTP
 40
0.1
  9
$DIMTM
 40
0.1
  9
$DIMTXT
 40
2.5
  9
$DIMCEN
 40
0.0
  9
$DIMTSZ
 40
0.0
  9
$DIMTOL
 70
     0
  9
$DIMLIM
 70
     0
  9
$DIMTIH
 70
     0
  9
$DIMTOH
 70
     0
  9
$DIMSE1
 70
     0
  9
$DIMSE2
 70
     0
  9
$DIMTAD
 70
     3
  9
$DIMZIN
 70
     8
  9
$DIMBLK
  1

  9
$DIMASO
 70
     1
  9
$DIMSHO
 70
     1
  9
$DIMPOST
  1

  9
$DIMAPOST
  1

  9
$DIMALT
 70
     0
  9
$DIMALTD
 70
     2
  9
$DIMALTF
 40
25.3999999999999986
  9
$DIMLFAC
 40
1.0
  9
$DIMTOFL
 70
     1
  9
$DIMTVP
 40
0.0
  9
$DIMTIX
 70
     0
  9
$DIMSOXD
 70
     0
  9
$DIMSAH
 70
     0
  9
$DIMBLK1
  1

  9
$DIMBLK2
  1

  9
$DIMSTYLE
  2
部品図用_1_1
  9
$DIMCLRD
 70
   256
  9
$DIMCLRE
 70
   256
  9
$DIMCLRT
 70
   256
  9
$DIMTFAC
 40
0.7
  9
$DIMGAP
 40
1.0
  9
$LUNITS
 70
     2
  9
$LUPREC
 70
     2
  9
$SKETCHINC
 40
1.0
  9
$FILLETRAD
 40
0.0
  9
$AUNITS
 70
     1
  9
$AUPREC
 70
     3
  9
$MENU
  1
.
  9
$ELEVATION
 40
0.0
  9
$PELEVATION
 40
0.0
  9
$THICKNESS
 40
0.0
  9
$LIMCHECK
 70
     0
  9
$BLIPMODE
 70
     0
  9
$CHAMFERA
 40
0.0
  9
$CHAMFERB
 40
0.0
  9
$SKPOLY
 70
     0
  9
$TDCREATE
 40
2457034.6846643518656492
  9
$TDUPDATE
 40
2459837.4079050929285586
  9
$TDINDWG
 40
0.1147456829
  9
$TDUSRTIMER
 40
0.1147456829
  9
$USRTIMER
 70
     1
  9
$ANGBASE
 50
0.0
  9
$ANGDIR
 70
     0
  9
$PDMODE
 70
     3
  9
$PDSIZE
 40
0.0
  9
$PLINEWID
 40
0.0
  9
$COORDS
 70
     2
  9
$SPLFRAME
 70
     0
  9
$SPLINETYPE
 70
     6
  9
$SPLINESEGS
 70
     8
  9
$ATTDIA
 70
     1
  9
$ATTREQ
 70
     1
  9
$HANDLING
 70
     1
  9
$HANDSEED
  5
EA09
  9
$SURFTAB1
 70
     6
  9
$SURFTAB2
 70
     6
  9
$SURFTYPE
 70
     6
  9
$SURFU
 70
     6
  9
$SURFV
 70
     6
  9
$UCSNAME
  2

  9
$UCSORG
 10
0.0
 20
0.0
 30
0.0
  9
$UCSXDIR
 10
1.0
 20
0.0
 30
0.0
  9
$UCSYDIR
 10
0.0
 20
1.0
 30
0.0
  9
$PUCSNAME
  2

  9
$PUCSORG
 10
0.0
 20
0.0
 30
0.0
  9
$PUCSXDIR
 10
1.0
 20
0.0
 30
0.0
  9
$PUCSYDIR
 10
0.0
 20
1.0
 30
0.0
  9
$USERI1
 70
     0
  9
$USERI2
 70
     0
  9
$USERI3
 70
     0
  9
$USERI4
 70
     0
  9
$USERI5
 70
     0
  9
$USERR1
 40
0.0
  9
$USERR2
 40
0.0
  9
$USERR3
 40
0.0
  9
$USERR4
 40
0.0
  9
$USERR5
 40
0.0
  9
$WORLDVIEW
 70
     1
  9
$SHADEDGE
 70
     3
  9
$SHADEDIF
 70
    70
  9
$TILEMODE
 70
     1
  9
$MAXACTVP
 70
    64
  9
$PLIMCHECK
 70
     0
  9
$PEXTMIN
 10
1.0000000000000000E+20
 20
1.0000000000000000E+20
 30
1.0000000000000000E+20
  9
$PEXTMAX
 10
-1.0000000000000000E+20
 20
-1.0000000000000000E+20
 30
-1.0000000000000000E+20
  9
$PLIMMIN
 10
-5.873748779296875
 20
-5.8737497329711914
  9
$PLIMMAX
 10
291.1369018554688068
 20
204.0995779037475018
  9
$UNITMODE
 70
     0
  9
$VISRETAIN
 70
     1
  9
$PLINEGEN
 70
     0
  9
$PSLTSCALE
 70
     1
  0
ENDSEC
  0
SECTION
  2
TABLES
  0
TABLE
  2
VPORT
 70
     1
  0
VPORT
  2
*ACTIVE
 70
     0
 10
0.0
 20
0.0
 11
1.0
 21
1.0
 12
264.0578892637544755
 22
285.3892445176242063
 13
0.0
 23
0.0
 14
10.0
 24
10.0
 15
10.0
 25
10.0
 16
0.0
 26
0.0
 36
1.0
 17
0.0
 27
0.0
 37
0.0
 40
284.3470877694077785
 41
1.6217732884399549
 42
50.0
 43
0.0
 44
0.0
 50
0.0
 51
0.0
 71
     0
 72
  1000
 73
     1
 74
     3
 75
     0
 76
     0
 77
     0
 78
     0
  0
ENDTAB
  0
TABLE
  2
LTYPE
 70
     3
  0
LTYPE
  2
CONTINUOUS
 70
     0
  3
Solid line
 72
    65
 73
     0
 40
0.0
  0
LTYPE
  2
CENTER
 70
     0
  3
Center ____ _ ____ _ ____ _ ____ _ ____ _ ____
 72
    65
 73
     4
 40
50.7999999999999972
 49
31.75
 49
-6.3499999999999979
 49
6.3499999999999979
 49
-6.3499999999999979
  0
ENDTAB
  0
TABLE
  2
LAYER
 70
     6
  0
LAYER
  2
0
 70
     0
 62
     7
  6
CONTINUOUS
  0
LAYER
  2
01_表面形状
 70
     0
 62
     7
  6
CONTINUOUS
  0
LAYER
  2
04_中心線
 70
     0
 62
     4
  6
CENTER
  0
LAYER
  2
12_文字
 70
     0
 62
     2
  6
CONTINUOUS
  0
LAYER
  2
DEFPOINTS
 70
     0
 62
     7
  6
CONTINUOUS
  0
LAYER
  2
CENTER
 70
     0
 62
     2
  6
CENTER
  0
ENDTAB
  0
TABLE
  2
STYLE
 70
     2
  0
STYLE
  2
STANDARD
 70
     0
 40
0.0
 41
1.0
 50
0.0
 71
     0
 42
5.0
  3
isocp.shx
  4
extfont2.shx
  0
STYLE
  2
MX_NOTE_STANDARD
 70
     0
 40
0.0
 41
1.0
 50
0.0
 71
     0
 42
3.299999999999998
  3
txt.shx
  4
extfont.shx
  0
ENDTAB
  0
TABLE
  2
VIEW
 70
     0
  0
ENDTAB
  0
TABLE
  2
UCS
 70
     0
  0
ENDTAB
  0
TABLE
  2
APPID
 70
    38
  0
APPID
  2
ACAD
 70
     0
  0
APPID
  2
ACAECLAYERSTANDARD
 70
     0
  0
APPID
  2
ACAD_PSEXT
 70
     0
  0
APPID
  2
ACAD_EXEMPT_FROM_CAD_STANDARDS
 70
     0
  0
APPID
  2
GENIUS_GENODEF_13
 70
     0
  0
APPID
  2
GENIUS_GENOBJ-N-CEN_13
 70
     0
  0
APPID
  2
GENIUS_GENCEN_19
 70
     0
  0
APPID
  2
GENIUS_GENTRA_14
 70
     0
  0
APPID
  2
GENIUS_GENOREF_13
 70
     0
  0
APPID
  2
GENIUS_GENSCREG_15
 70
     0
  0
APPID
  2
GENIUS_GENOBJ-N-SDF_13
 70
     0
  0
APPID
  2
GENIUS_GENOBJ-N-LIB_13
 70
     0
  0
APPID
  2
GENIUS_GENOBJ-N-RSBK_13
 70
     0
  0
APPID
  2
GENIUS_GENSCALE_13
 70
     0
  0
APPID
  2
GENIUS_AMGTXT_16
 70
     0
  0
APPID
  2
GENIUS_GENFIL_13
 70
     0
  0
APPID
  2
GENIUS_GENOBJ-N-CHA_13
 70
     0
  0
APPID
  2
GENIUS_GENOBJ-N-FIL_13
 70
     0
  0
APPID
  2
GENIUS_GENDTOL_13
 70
     0
  0
APPID
  2
ACAD_DIMASSOC_DIMLFAC
 70
     0
  0
APPID
  2
ACAD_DIMASSOC_CALC_DIMLFAC
 70
     0
  0
APPID
  2
ACAD_DIMASSOC_OVERRIDDEN_D
 70
     0
  0
APPID
  2
GENIUS_GENOBJ-N-ZOO_13
 70
     0
  0
APPID
  2
GENIUS_GENZOO_16
 70
     0
  0
APPID
  2
ACAD_DSTYLE_DIMJAG
 70
     0
  0
APPID
  2
ACAD_DSTYLE_DIMTALN
 70
     0
  0
APPID
  2
ACAD_DSTYLE_DIMBREAK
 70
     0
  0
APPID
  2
ACAD_DSTYLE_DIMARC_LENGTH_
 70
     0
  0
APPID
  2
ACAD_DSTYLE_DIMJOGGED_JOGA
 70
     0
  0
APPID
  2
ACAD_DSTYLE_DIM_LINETYPE
 70
     0
  0
APPID
  2
ACAD_DSTYLE_DIM_EXT1_LINETYPE
 70
     0
  0
APPID
  2
ACAD_DSTYLE_DIM_EXT2_LINETYPE
 70
     0
  0
APPID
  2
ACDBATTR
 70
     0
  0
APPID
  2
ACAD_MLEADERVER
 70
     0
  0
APPID
  2
ACAD_DSTYLE_DIMRADIAL_EXTENSION
 70
     0
  0
APPID
  2
ACADANNOPO
 70
     0
  0
APPID
  2
ACAUTHENVIRON
 70
     0
  0
APPID
  2
ACAD_NAV_VCDISPLAY
 70
     0
  0
ENDTAB
  0
TABLE
  2
DIMSTYLE
 70
     3
  0
DIMSTYLE
  2
部品図用_1_1
 70
     0
  3

  4

  5

  6

  7

 40
1.0
 41
2.5
 42
1.0
 43
10.0
 44
1.0
 45
0.0
 46
0.0
 47
0.1
 48
0.1
140
2.5
141
0.0
142
0.0
143
25.3999999999999986
144
1.0
145
0.0
146
0.7
147
1.0
 71
     0
 72
     0
 73
     0
 74
     0
 75
     0
 76
     0
 77
     3
 78
     8
170
     0
171
     2
172
     1
173
     0
174
     0
175
     0
176
   256
177
   256
178
   256
  0
DIMSTYLE
  2
STANDARD
 70
     0
  3

  4

  5
OPEN30
  6

  7

 40
1.0
 41
0.18
 42
0.0625
 43
0.38
 44
0.18
 45
0.0
 46
0.0
 47
0.0
 48
0.0
140
0.18
141
0.09
142
0.0
143
25.3999999999999986
144
1.0
145
0.0
146
1.0
147
0.09
 71
     0
 72
     0
 73
     0
 74
     0
 75
     0
 76
     0
 77
     1
 78
     0
170
     0
171
     2
172
     1
173
     0
174
     0
175
     0
176
     0
177
     0
178
     0
  0
ENDTAB
  0
ENDSEC
  0
SECTION
  2
BLOCKS
  0
BLOCK
  8
0
  2
$MODEL_SPACE
 70
     2
 10
0.0
 20
0.0
 30
0.0
  3
$MODEL_SPACE
  1

  0
ENDBLK
  5
39
  8
0
  0
BLOCK
 67
     1
  8
0
  2
$PAPER_SPACE
 70
     0
 10
0.0
 20
0.0
 30
0.0
  3
$PAPER_SPACE
  1

  0
ENDBLK
  5
35
 67
     1
  8
0
  0
BLOCK
  8
0
  2
_OPEN30
 70
     0
 10
0.0
 20
0.0
 30
0.0
  3
_OPEN30
  1

  0
LINE
  5
93EB
  8
0
  6
BYBLOCK
 62
     0
 10
-1.0
 20
0.26794919
 30
0.0
 11
0.0
 21
0.0
 31
0.0
  0
LINE
  5
93EC
  8
0
  6
BYBLOCK
 62
     0
 10
0.0
 20
0.0
 30
0.0
 11
-1.0
 21
-0.26794919
 31
0.0
  0
LINE
  5
93ED
  8
0
  6
BYBLOCK
 62
     0
 10
0.0
 20
0.0
 30
0.0
 11
-1.0
 21
0.0
 31
0.0
  0
ENDBLK
  5
93EE
  8
0
  0
ENDSEC
  0
SECTION
  2
ENTITIES
  0
LINE
  5
DDD0
  8
04_中心線
 62
   110
 10
291.6906907777346873
 20
223.5972396984707018
 30
0.0
 11
352.4906907777346987
 21
223.5972396984707871
 31
0.0
  0
LINE
  5
DDD1
  8
01_表面形状
 62
     3
 10
339.5906907777347215
 20
252.5972396984707871
 30
0.0
 11
304.5906907777347215
 21
252.5972396984707871
 31
0.0
  0
ARC
  5
DDD2
  8
01_表面形状
 62
     3
 10
322.0906907777347215
 20
223.5972396984707871
 30
0.0
 40
25.3999999999999986
 50
133.9022924012382987
 51
142.3019429152504927
  0
ARC
  5
DDD3
  8
01_表面形状
 62
     3
 10
322.0906907777347215
 20
223.5972396984707871
 30
0.0
 40
25.3999999999999986
 50
157.6980570847509
 51
202.3019429152489863
  0
ARC
  5
DDD4
  8
01_表面形状
 62
     3
 10
322.0906907777347215
 20
223.5972396984707871
 30
0.0
 40
25.3999999999999986
 50
217.6980570847516958
 51
262.3019429152487874
  0
ARC
  5
DDD5
  8
01_表面形状
 62
     3
 10
322.0906907777347215
 20
223.5972396984707871
 30
0.0
 40
25.3999999999999986
 50
277.698057084751099
 51
322.3019429152482758
  0
ARC
  5
DDD6
  8
01_表面形状
 62
     3
 10
322.0906907777347215
 20
223.5972396984707871
 30
0.0
 40
25.3999999999999986
 50
337.6980570847508716
 51
22.3019429152490609
  0
ARC
  5
DDD7
  8
01_表面形状
 62
     3
 10
322.0906907777347215
 20
223.5972396984707871
 30
0.0
 40
25.3999999999999986
 50
37.6980570847494576
 51
46.0977075987616871
  0
LINE
  5
DDD8
  8
01_表面形状
 62
     3
 10
304.5906907777347215
 20
252.5972396984709007
 30
0.0
 11
304.5906907777347215
 21
249.5972396984707871
 31
0.0
  0
LINE
  5
DDD9
  8
01_表面形状
 62
     3
 10
304.5906907777344941
 20
252.5972396984707871
 30
0.0
 11
304.5906907777347215
 21
249.5972396984707871
 31
0.0
  0
LINE
  5
DDDA
  8
01_表面形状
 62
     3
 10
305.0906907777346078
 20
249.30856456387599
 30
0.0
 11
305.0906907777346078
 21
243.3395799852756909
 31
0.0
  0
ARC
  5
DDDB
  8
01_表面形状
 62
     3
 10
303.0906907777346078
 20
243.3395799852756909
 30
0.0
 40
2.0
 50
313.9022924012382987
 51
0.0
  0
LINE
  5
DDDC
  8
01_表面形状
 62
     3
 10
305.0906907777346078
 20
249.30856456387599
 30
0.0
 11
304.5906907777347215
 21
249.5972396984707871
 31
0.0
  0
LINE
  5
DDDD
  8
04_中心線
 62
   110
 10
322.0906907777344941
 20
316.5774541629887722
 30
0.0
 11
322.0906907777347215
 21
192.0972396984707871
 31
0.0
  0
LINE
  5
DDDE
  8
01_表面形状
 62
     3
 10
339.5906907777347215
 20
252.5972396984709007
 30
0.0
 11
339.5906907777347215
 21
249.5972396984707871
 31
0.0
  0
LINE
  5
DDDF
  8
01_表面形状
 62
     3
 10
339.5906907777344941
 20
252.5972396984707871
 30
0.0
 11
339.5906907777347215
 21
249.5972396984707871
 31
0.0
  0
POLYLINE
  5
DDE0
  8
01_表面形状
 62
     3
 66
     1
 10
0.0
 20
0.0
 30
0.0
 70
     1
  0
VERTEX
  5
E7EA
  8
01_表面形状
 62
     3
 10
320.9472924955329063
 20
250.0725610443631126
 30
0.0
  0
VERTEX
  5
E7EB
  8
01_表面形状
 62
     3
 10
299.7340890599361956
 20
237.8251123304467001
 30
0.0
 42
0.0215836025747868
  0
VERTEX
  5
E7EC
  8
01_表面形状
 62
     3
 10
298.5906907777346078
 20
235.844688412386887
 30
0.0
  0
VERTEX
  5
E7ED
  8
01_表面形状
 62
     3
 10
298.5906907777347783
 20
211.3497909845546872
 30
0.0
 42
0.0215836025747952
  0
VERTEX
  5
E7EE
  8
01_表面形状
 62
     3
 10
299.7340890599364798
 20
209.3693670664943909
 30
0.0
  0
VERTEX
  5
E7EF
  8
01_表面形状
 62
     3
 10
320.9472924955329063
 20
197.1219183525786036
 30
0.0
 42
0.0215836025747955
  0
VERTEX
  5
E7F0
  8
01_表面形状
 62
     3
 10
323.2340890599365935
 20
197.1219183525786036
 30
0.0
  0
VERTEX
  5
E7F1
  8
01_表面形状
 62
     3
 10
344.4472924955327926
 20
209.3693670664941919
 30
0.0
 42
0.0215836025747951
  0
VERTEX
  5
E7F2
  8
01_表面形状
 62
     3
 10
345.5906907777347215
 20
211.3497909845549998
 30
0.0
  0
VERTEX
  5
E7F3
  8
01_表面形状
 62
     3
 10
345.5906907777346078
 20
235.8446884123870007
 30
0.0
 42
0.0215836025747937
  0
VERTEX
  5
E7F4
  8
01_表面形状
 62
     3
 10
344.4472924955327926
 20
237.825112330447098
 30
0.0
  0
VERTEX
  5
E7F5
  8
01_表面形状
 62
     3
 10
323.2340890599364229
 20
250.0725610443631126
 30
0.0
 42
0.0215836025747954
  0
SEQEND
  5
E7F6
  8
01_表面形状
 62
     3
  0
LINE
  5
DDE1
  8
01_表面形状
 62
     3
 10
339.0906907777347215
 20
249.3085645638761036
 30
0.0
 11
339.0906907777347215
 21
243.3395799852756909
 31
0.0
  0
ARC
  5
DDE2
  8
01_表面形状
 62
     3
 10
341.0906907777347215
 20
243.3395799852756909
 30
0.0
 40
2.0
 50
180.0
 51
226.0977075987617013
  0
LINE
  5
DDE3
  8
01_表面形状
 62
     3
 10
339.0906907777347215
 20
249.30856456387599
 30
0.0
 11
339.5906907777347215
 21
249.5972396984707871
 31
0.0
  0
LINE
  5
DDE4
  8
01_表面形状
 62
     3
 10
247.5233961037233996
 20
223.5972396984707871
 30
0.0
 11
247.5233961037233996
 21
249.7198894292812099
 31
0.0
  0
LINE
  5
DDE5
  8
01_表面形状
 62
     3
 10
215.5800166535165943
 20
226.9001313417913082
 30
0.0
 11
215.5800166535165943
 21
228.9255454046823104
 31
0.0
  0
LINE
  5
DDE6
  8
01_表面形状
 62
     3
 10
216.4583624779392039
 20
226.9001313417913082
 30
0.0
 11
216.4583624779392039
 21
230.3256800570393068
 31
0.0
  0
LINE
  5
DDE7
  8
01_表面形状
 62
     3
 10
215.5800166535165943
 20
228.9255454046823104
 30
0.0
 11
213.9484331028542954
 21
226.9001313417913082
 31
0.0
  0
LINE
  5
DDE8
  8
01_表面形状
 62
     3
 10
213.0328137626912053
 20
226.0217855173688122
 30
0.0
 11
213.0328137626912053
 21
227.1636350891180882
 31
0.0
  0
LINE
  5
DDE9
  8
01_表面形状
 62
     3
 10
216.7611107372096058
 20
233.7090027794517084
 30
0.0
 11
210.6192811194063097
 21
226.3894552673330907
 31
0.0
  0
LINE
  5
DDEA
  8
01_表面形状
 62
     3
 10
206.5916168051776935
 20
231.3081892279832061
 30
0.0
 11
206.5916168051776935
 21
226.3894552673330907
 31
0.0
  0
LINE
  5
DDEB
  8
01_表面形状
 62
     3
 10
207.821300295339995
 20
233.7675562083082923
 30
0.0
 11
207.821300295339995
 21
226.3894552673330907
 31
0.0
  0
LINE
  5
DDEC
  8
01_表面形状
 62
     3
 10
215.6218294782989062
 20
233.7090027794517084
 30
0.0
 11
209.4799998604956102
 21
226.3894552673330907
 31
0.0
  0
LINE
  5
DDED
  8
01_表面形状
 62
     3
 10
174.5233961037232859
 20
223.5972396984707871
 30
0.0
 11
174.5233961037232859
 21
249.7198894292812099
 31
0.0
  0
LINE
  5
DDEE
  8
01_表面形状
 62
     3
 10
215.4411328329088917
 20
217.399565233470895
 30
0.0
 11
215.8940315000376984
 21
217.399565233470895
 31
0.0
  0
LINE
  5
DDEF
  8
01_表面形状
 62
     3
 10
215.4411328329088917
 20
217.7972396485959052
 30
0.0
 11
215.8940315000376984
 21
217.7972396485959052
 31
0.0
  0
LINE
  5
DDF0
  8
01_表面形状
 62
     3
 10
215.4411328329088917
 20
212.0972396984707871
 30
0.0
 11
215.8940315000376984
 21
212.0972396984707871
 31
0.0
  0
LINE
  5
DDF1
  8
01_表面形状
 62
     3
 10
215.4411328329088917
 20
212.494914113595911
 30
0.0
 11
215.8940315000376984
 21
212.494914113595911
 31
0.0
  0
LINE
  5
DDF2
  8
01_表面形状
 62
     3
 10
213.9484331028542954
 20
226.9001313417913082
 30
0.0
 11
215.5800166535165943
 21
226.9001313417913082
 31
0.0
  0
LINE
  5
DDF3
  8
01_表面形状
 62
     3
 10
213.0328137626912053
 20
226.0217855173688122
 30
0.0
 11
215.5800166535165943
 21
226.0217855173688122
 31
0.0
  0
LINE
  5
DDF4
  8
01_表面形状
 62
     3
 10
217.2733961037233996
 20
220.8847396984708098
 30
0.0
 11
203.0233961037233996
 21
220.8847396984708098
 31
0.0
  0
LINE
  5
DDF5
  8
01_表面形状
 62
     3
 10
217.2733961037233996
 20
222.3097396984707927
 30
0.0
 11
203.0233961037233996
 21
222.3097396984707927
 31
0.0
  0
LINE
  5
DDF6
  8
04_中心線
 62
   110
 10
252.5233961037233996
 20
223.5972396984707018
 30
0.0
 11
169.5233961037232859
 21
223.5972396984707018
 31
0.0
  0
ARC
  5
DDF7
  8
01_表面形状
 62
     3
 10
211.0233961037233996
 20
338.1972396984709235
 30
0.0
 40
140.0
 50
270.0
 51
279.4188045929860778
  0
LINE
  5
DDF8
  8
01_表面形状
 62
     3
 10
174.5233961037232859
 20
211.3497909845548861
 30
0.0
 11
185.5233961037232859
 21
211.3497909845548861
 31
0.0
  0
LINE
  5
DDF9
  8
01_表面形状
 62
     3
 10
174.5233961037232859
 20
209.3693670664943056
 30
0.0
 11
185.5233961037233996
 21
209.3693670664943056
 31
0.0
  0
LINE
  5
DDFA
  8
01_表面形状
 62
     3
 10
185.5233961037232859
 20
196.8972396984707132
 30
0.0
 11
174.5233961037232859
 21
196.8972396984707132
 31
0.0
  0
LINE
  5
DDFB
  8
01_表面形状
 62
     3
 10
174.5233961037232859
 20
223.5972396984707018
 30
0.0
 11
174.5233961037232859
 21
197.4745899676603926
 31
0.0
  0
ARC
  5
DDFC
  8
01_表面形状
 62
     3
 10
211.0233961037233996
 20
338.1972396984709235
 30
0.0
 40
140.0
 50
260.5811954070138086
 51
270.0
  0
LINE
  5
DDFD
  8
01_表面形状
 62
     3
 10
187.0827561674751109
 20
199.5981305561826105
 30
0.0
 11
185.5233961037233996
 21
196.8972396984707984
 31
0.0
  0
ARC
  5
DDFE
  8
01_表面形状
 62
     3
 10
187.9487815712595022
 20
199.0981305561826105
 30
0.0
 40
1.0
 50
80.5811954070139365
 51
149.9999999999980105
  0
LINE
  5
DDFF
  8
01_表面形状
 62
     3
 10
185.5233961037232859
 20
211.3497909845548861
 30
0.0
 11
185.5233961037233996
 21
209.3693670664943056
 31
0.0
  0
LINE
  5
DE00
  8
01_表面形状
 62
     3
 10
206.103490483443295
 20
217.7761621593371899
 30
0.0
 11
206.103490483443295
 21
212.0972396984707871
 31
0.0
  0
LINE
  5
DE01
  8
01_表面形状
 62
     3
 10
205.6302469450378112
 20
216.3564315441205963
 30
0.0
 11
205.6302469450378112
 21
212.0972396984707871
 31
0.0
  0
ARC
  5
DE02
  8
01_表面形状
 62
     3
 10
206.6536286307413093
 20
214.9472396735332893
 30
0.0
 40
5.3023255349999987
 50
337.4596895364837792
 51
22.5403104635161817
  0
ARC
  5
DE03
  8
01_表面形状
 62
     3
 10
206.6536286307413093
 20
214.9472396735332893
 30
0.0
 40
4.904651119875
 50
337.4596895364837792
 51
22.5403104635161817
  0
ARC
  5
DE04
  8
01_表面形状
 62
     3
 10
219.1140937642232984
 20
214.9472396735332893
 30
0.0
 40
5.3023255349999987
 50
157.4596895364838076
 51
202.5403104635161924
  0
ARC
  5
DE05
  8
01_表面形状
 62
     3
 10
219.1140937642232984
 20
214.9472396735332893
 30
0.0
 40
4.904651119875
 50
157.4596895364838076
 51
202.5403104635161924
  0
ARC
  5
DE06
  8
01_表面形状
 62
     3
 10
213.5466518262414013
 20
214.9472396735332893
 30
0.0
 40
5.3023255349999987
 50
157.4596895364838076
 51
202.5403104635161924
  0
ARC
  5
DE07
  8
01_表面形状
 62
     3
 10
213.5466518262414013
 20
214.9472396735332893
 30
0.0
 40
4.904651119875
 50
157.4596895364838076
 51
202.5403104635161924
  0
LINE
  5
DE08
  8
01_表面形状
 62
     3
 10
205.6302469450378112
 20
212.0972396984707871
 30
0.0
 11
206.103490483443295
 21
212.0972396984707871
 31
0.0
  0
ARC
  5
DE09
  8
01_表面形状
 62
     3
 10
210.3265895620556876
 20
213.4228210822207927
 30
0.0
 40
1.325581383749999
 50
270.0
 51
337.459689536485314
  0
ARC
  5
DE0A
  8
01_表面形状
 62
     3
 10
210.3265895620556876
 20
213.4228210822207927
 30
0.0
 40
0.9279069686250002
 50
270.0
 51
337.459689536485314
  0
LINE
  5
DE0B
  8
01_表面形状
 62
     3
 10
209.8736908949269093
 20
212.0972396984707871
 30
0.0
 11
210.3265895620556876
 21
212.0972396984707871
 31
0.0
  0
LINE
  5
DE0C
  8
01_表面形状
 62
     3
 10
209.8736908949269093
 20
212.494914113595911
 30
0.0
 11
210.3265895620556876
 21
212.494914113595911
 31
0.0
  0
ARC
  5
DE0D
  8
01_表面形状
 62
     3
 10
209.8736908949269093
 20
213.4228210822207927
 30
0.0
 40
1.325581383749999
 50
202.540310463514686
 51
270.0
  0
ARC
  5
DE0E
  8
01_表面形状
 62
     3
 10
209.8736908949269093
 20
213.4228210822207927
 30
0.0
 40
0.9279069686250002
 50
202.540310463514686
 51
270.0
  0
ARC
  5
DE0F
  8
01_表面形状
 62
     3
 10
215.4411328329088917
 20
213.4228210822207927
 30
0.0
 40
1.325581383749999
 50
202.540310463514686
 51
270.0
  0
ARC
  5
DE10
  8
01_表面形状
 62
     3
 10
215.4411328329088917
 20
213.4228210822207927
 30
0.0
 40
0.9279069686250002
 50
202.540310463514686
 51
270.0
  0
LINE
  5
DE11
  8
01_表面形状
 62
     3
 10
206.5916168051776935
 20
226.3894552673330907
 30
0.0
 11
207.821300295339995
 21
226.3894552673330907
 31
0.0
  0
LINE
  5
DE12
  8
01_表面形状
 62
     3
 10
203.0233961037233996
 20
222.3097396984707927
 30
0.0
 11
203.0233961037233996
 21
220.8847396984708098
 31
0.0
  0
LINE
  5
DE13
  8
01_表面形状
 62
     3
 10
205.7879947911729914
 20
217.7761621593371899
 30
0.0
 11
206.103490483443295
 21
217.7761621593371899
 31
0.0
  0
LINE
  5
DE14
  8
01_表面形状
 62
     3
 10
204.5260120220916065
 20
216.8296750825261086
 30
0.0
 11
204.7428297244570956
 21
216.8296750825261086
 31
0.0
  0
LINE
  5
DE15
  8
01_表面形状
 62
     3
 10
204.5260120220916065
 20
216.8296750825261086
 30
0.0
 11
204.5260120220916065
 21
216.3564315441205963
 31
0.0
  0
ARC
  5
DE16
  8
01_表面形状
 62
     3
 10
204.7107459483989089
 20
217.9154128265992085
 30
0.0
 40
1.0862116817596199
 50
271.6926096402705753
 51
352.6344992809430892
  0
LINE
  5
DE17
  8
01_表面形状
 62
     3
 10
204.5260120220916065
 20
216.3564315441205963
 30
0.0
 11
205.6302469450378112
 21
216.3564315441205963
 31
0.0
  0
ARC
  5
DE18
  8
01_表面形状
 62
     3
 10
210.3265895620556876
 20
216.4716582648457859
 30
0.0
 40
1.325581383749999
 50
22.5403104635146683
 51
90.0
  0
ARC
  5
DE19
  8
01_表面形状
 62
     3
 10
210.3265895620556876
 20
216.4716582648457859
 30
0.0
 40
0.9279069686250002
 50
22.5403104635146683
 51
90.0
  0
LINE
  5
DE1A
  8
01_表面形状
 62
     3
 10
209.8736908949269093
 20
217.399565233470895
 30
0.0
 11
210.3265895620556876
 21
217.399565233470895
 31
0.0
  0
LINE
  5
DE1B
  8
01_表面形状
 62
     3
 10
209.8736908949269093
 20
217.7972396485959052
 30
0.0
 11
210.3265895620556876
 21
217.7972396485959052
 31
0.0
  0
ARC
  5
DE1C
  8
01_表面形状
 62
     3
 10
209.8736908949269093
 20
216.4716582648457859
 30
0.0
 40
1.325581383749999
 50
90.0
 51
157.459689536485314
  0
ARC
  5
DE1D
  8
01_表面形状
 62
     3
 10
209.8736908949269093
 20
216.4716582648457859
 30
0.0
 40
0.9279069686250002
 50
90.0
 51
157.459689536485314
  0
ARC
  5
DE1E
  8
01_表面形状
 62
     3
 10
215.4411328329088917
 20
216.4716582648457859
 30
0.0
 40
1.325581383749999
 50
90.0
 51
157.459689536485314
  0
ARC
  5
DE1F
  8
01_表面形状
 62
     3
 10
215.4411328329088917
 20
216.4716582648457859
 30
0.0
 40
0.9279069686250002
 50
90.0
 51
157.459689536485314
  0
LINE
  5
DE20
  8
01_表面形状
 62
     3
 10
209.4799998604956102
 20
226.3894552673330907
 30
0.0
 11
210.6192811194063097
 21
226.3894552673330907
 31
0.0
  0
LINE
  5
DE21
  8
01_表面形状
 62
     3
 10
247.5233961037233996
 20
223.5972396984707018
 30
0.0
 11
247.5233961037233996
 21
197.4745899676603926
 31
0.0
  0
LINE
  5
DE22
  8
01_表面形状
 62
     3
 10
236.5233961037233996
 20
196.8972396984707132
 30
0.0
 11
247.5233961037233996
 21
196.8972396984707132
 31
0.0
  0
LINE
  5
DE23
  8
01_表面形状
 62
     3
 10
234.9640360399716883
 20
199.5981305561826105
 30
0.0
 11
236.5233961037233996
 21
196.8972396984707984
 31
0.0
  0
ARC
  5
DE24
  8
01_表面形状
 62
     3
 10
234.0980106361872117
 20
199.0981305561826105
 30
0.0
 40
1.0
 50
29.9999999999997193
 51
99.4188045929860635
  0
ARC
  5
DE25
  8
01_表面形状
 62
     3
 10
212.2210705687232917
 20
214.9472396735332893
 30
0.0
 40
4.904651119875
 50
337.4596895364837792
 51
22.5403104635161817
  0
ARC
  5
DE26
  8
01_表面形状
 62
     3
 10
212.2210705687232917
 20
214.9472396735332893
 30
0.0
 40
5.3023255349999987
 50
337.4596895364837792
 51
22.5403104635161817
  0
ARC
  5
DE27
  8
01_表面形状
 62
     3
 10
215.8940315000376984
 20
213.4228210822207927
 30
0.0
 40
1.325581383749999
 50
270.0
 51
337.459689536485314
  0
ARC
  5
DE28
  8
01_表面形状
 62
     3
 10
215.8940315000376984
 20
213.4228210822207927
 30
0.0
 40
0.9279069686250002
 50
270.0
 51
337.459689536485314
  0
LINE
  5
DE29
  8
01_表面形状
 62
     3
 10
222.0233961037233996
 20
221.5972396984707871
 30
0.0
 11
217.2733961037233996
 21
219.5784896984708041
 31
0.0
  0
ARC
  5
DE2A
  8
01_表面形状
 62
     3
 10
215.8940315000376984
 20
216.4716582648457859
 30
0.0
 40
1.325581383749999
 50
22.5403104635146683
 51
90.0
  0
ARC
  5
DE2B
  8
01_表面形状
 62
     3
 10
215.8940315000376984
 20
216.4716582648457859
 30
0.0
 40
0.9279069686250002
 50
22.5403104635146683
 51
90.0
  0
LINE
  5
DE2C
  8
01_表面形状
 62
     3
 10
217.2733961037233996
 20
220.8847396984708098
 30
0.0
 11
217.2733961037233996
 21
219.5784896984708041
 31
0.0
  0
LINE
  5
DE2D
  8
01_表面形状
 62
     3
 10
222.0233961037233996
 20
221.5972396984707871
 30
0.0
 11
217.2733961037233996
 21
223.6159896984707984
 31
0.0
  0
LINE
  5
DE2E
  8
01_表面形状
 62
     3
 10
216.4583624779392039
 20
226.9001313417913082
 30
0.0
 11
217.2488737199194873
 21
226.9001313417913082
 31
0.0
  0
LINE
  5
DE2F
  8
01_表面形状
 62
     3
 10
216.4583624779392039
 20
226.0217855173688122
 30
0.0
 11
217.2488737199194873
 21
226.0217855173688122
 31
0.0
  0
LINE
  5
DE30
  8
01_表面形状
 62
     3
 10
217.2488737199194873
 20
226.0217855173688122
 30
0.0
 11
217.2488737199194873
 21
226.9001313417913082
 31
0.0
  0
LINE
  5
DE31
  8
01_表面形状
 62
     3
 10
217.2733961037233996
 20
223.6159896984707984
 30
0.0
 11
217.2733961037233996
 21
222.3097396984707927
 31
0.0
  0
LINE
  5
DE32
  8
01_表面形状
 62
     3
 10
215.5800166535165943
 20
225.0556051105039046
 30
0.0
 11
216.4583624779392039
 21
225.0556051105039046
 31
0.0
  0
LINE
  5
DE33
  8
01_表面形状
 62
     3
 10
215.5800166535165943
 20
225.0556051105039046
 30
0.0
 11
215.5800166535165943
 21
226.0217855173688122
 31
0.0
  0
LINE
  5
DE34
  8
01_表面形状
 62
     3
 10
216.4583624779392039
 20
225.0556051105039046
 30
0.0
 11
216.4583624779392039
 21
226.0217855173688122
 31
0.0
  0
LINE
  5
DE35
  8
01_表面形状
 62
     3
 10
247.5233961037233996
 20
209.3693670664943056
 30
0.0
 11
236.523396103723087
 21
209.3693670664943056
 31
0.0
  0
LINE
  5
DE36
  8
01_表面形状
 62
     3
 10
247.5233961037233996
 20
211.3497909845548861
 30
0.0
 11
236.5233961037233996
 21
211.3497909845548861
 31
0.0
  0
LINE
  5
DE37
  8
01_表面形状
 62
     3
 10
236.5233961037233996
 20
211.3497909845548861
 30
0.0
 11
236.523396103723087
 21
209.3693670664943056
 31
0.0
  0
LINE
  5
DE38
  8
01_表面形状
 62
     3
 10
215.5800166535165943
 20
230.3256800570393068
 30
0.0
 11
213.0328137626912053
 21
227.1636350891180882
 31
0.0
  0
ARC
  5
DE39
  8
01_表面形状
 62
     3
 10
211.0233961037233996
 20
269.7887895987656748
 30
0.0
 40
27.3193481209581002
 50
231.5179367614497039
 51
308.4820632385503245
  0
LINE
  5
DE3A
  8
01_表面形状
 62
     3
 10
193.5233961037232859
 20
249.5972396984707871
 30
0.0
 11
228.5233961037233996
 21
249.5972396984707871
 31
0.0
  0
LINE
  5
DE3B
  8
01_表面形状
 62
     3
 10
211.0233961037233996
 20
252.5972396984707871
 30
0.0
 11
228.5233961037233996
 21
252.5972396984707871
 31
0.0
  0
LINE
  5
DE3C
  8
01_表面形状
 62
     3
 10
185.5233961037232859
 20
250.2972396984708894
 30
0.0
 11
174.5233961037232859
 21
250.2972396984708894
 31
0.0
  0
LINE
  5
DE3D
  8
01_表面形状
 62
     3
 10
174.5233961037232859
 20
235.844688412386887
 30
0.0
 11
185.5233961037232859
 21
235.844688412386887
 31
0.0
  0
LINE
  5
DE3E
  8
01_表面形状
 62
     3
 10
174.5233961037232859
 20
237.8251123304470127
 30
0.0
 11
185.5233961037232859
 21
237.8251123304470127
 31
0.0
  0
LINE
  5
DE3F
  8
04_中心線
 62
   110
 10
211.0233961037232859
 20
315.5617037664991926
 30
0.0
 11
211.0233961037232859
 21
193.1972396984708098
 31
0.0
  0
LINE
  5
DE40
  8
01_表面形状
 62
     3
 10
206.2733961037232859
 20
290.0758164712618736
 30
0.0
 11
206.2733961037233996
 21
282.0758164712619873
 31
0.0
  0
LINE
  5
DE41
  8
01_表面形状
 62
     3
 10
215.7733961037233996
 20
290.0758164712618736
 30
0.0
 11
215.7733961037233996
 21
282.0758164712619873
 31
0.0
  0
LINE
  5
DE42
  8
01_表面形状
 62
     3
 10
193.5233961037232859
 20
252.5972396984707871
 30
0.0
 11
193.5233961037232859
 21
249.5972396984707871
 31
0.0
  0
LINE
  5
DE43
  8
01_表面形状
 62
     3
 10
193.5233961037232859
 20
252.5972396984707871
 30
0.0
 11
193.5233961037232859
 21
249.5972396984707871
 31
0.0
  0
LINE
  5
DE44
  8
01_表面形状
 62
     3
 10
185.5233961037232859
 20
237.8251123304470127
 30
0.0
 11
185.5233961037232859
 21
235.844688412386887
 31
0.0
  0
ARC
  5
DE45
  8
01_表面形状
 62
     3
 10
211.0233961037233996
 20
108.997239698470807
 30
0.0
 40
140.0
 50
97.1550675747813131
 51
99.4188045929860635
  0
LINE
  5
DE46
  8
01_表面形状
 62
     3
 10
187.102517286143808
 20
247.5621215792104124
 30
0.0
 11
185.5233961037232859
 21
250.2972396984708894
 31
0.0
  0
ARC
  5
DE47
  8
01_表面形状
 62
     3
 10
187.9487815712595022
 20
248.0963488407589921
 30
0.0
 40
1.0
 50
209.9999999999996874
 51
279.4188045929860778
  0
ARC
  5
DE48
  8
01_表面形状
 62
     3
 10
193.5233961037232859
 20
248.4031219273063869
 30
0.0
 40
0.5
 50
277.1550675747845958
 51
0.0
  0
LINE
  5
DE49
  8
01_表面形状
 62
     3
 10
194.0233961037232859
 20
249.30856456387599
 30
0.0
 11
194.0233961037232859
 21
248.4031219273063869
 31
0.0
  0
LINE
  5
DE4A
  8
01_表面形状
 62
     3
 10
194.0233961037232859
 20
249.30856456387599
 30
0.0
 11
193.5233961037232859
 21
249.5972396984707871
 31
0.0
  0
LINE
  5
DE4B
  8
01_表面形状
 62
     3
 10
206.7965640535379066
 20
233.7675562083082923
 30
0.0
 11
207.821300295339995
 21
233.7675562083082923
 31
0.0
  0
ARC
  5
DE4C
  8
01_表面形状
 62
     3
 10
205.0287826555642141
 20
234.4233874030616107
 30
0.0
 40
1.885514684915881
 50
270.0000056753260083
 51
339.6455936017623003
  0
LINE
  5
DE4D
  8
01_表面形状
 62
     3
 10
204.7470915699337866
 20
232.5378727181455929
 30
0.0
 11
205.0287828423302869
 21
232.5378727181455929
 31
0.0
  0
LINE
  5
DE4E
  8
01_表面形状
 62
     3
 10
204.7470915699337866
 20
232.5378727181455929
 30
0.0
 11
204.7470915699337866
 21
231.3081892279832061
 31
0.0
  0
LINE
  5
DE4F
  8
01_表面形状
 62
     3
 10
204.7470915699337866
 20
231.3081892279832061
 30
0.0
 11
206.5916168051774946
 21
231.3081892279832061
 31
0.0
  0
LINE
  5
DE50
  8
01_表面形状
 62
     3
 10
210.5286124567315937
 20
233.5436575769994931
 30
0.0
 11
210.5286124567315937
 21
230.4364933340567063
 31
0.0
  0
LINE
  5
DE51
  8
01_表面形状
 62
     3
 10
211.3054035174673118
 20
235.0972396984707871
 30
0.0
 11
211.3054035174673118
 21
230.4364933340567063
 31
0.0
  0
LINE
  5
DE52
  8
01_表面形状
 62
     3
 10
210.5286124567315937
 20
230.4364933340567063
 30
0.0
 11
211.3054035174673118
 21
230.4364933340567063
 31
0.0
  0
ARC
  5
DE53
  8
01_表面形状
 62
     3
 10
209.5413701244208085
 20
235.5115282641964995
 30
0.0
 40
1.191079626461363
 50
270.0000056753260083
 51
339.6455936017623003
  0
LINE
  5
DE54
  8
01_表面形状
 62
     3
 10
210.6580776335208895
 20
235.0972396984707871
 30
0.0
 11
211.3054035174673118
 21
235.0972396984707871
 31
0.0
  0
LINE
  5
DE55
  8
01_表面形状
 62
     3
 10
209.3634258656281872
 20
234.3204486377350975
 30
0.0
 11
209.3634258656281872
 21
233.5436575769994931
 31
0.0
  0
LINE
  5
DE56
  8
01_表面形状
 62
     3
 10
209.3634258656281872
 20
234.3204486377350975
 30
0.0
 11
209.5413702424008875
 21
234.3204486377350975
 31
0.0
  0
LINE
  5
DE57
  8
01_表面形状
 62
     3
 10
209.3634258656281872
 20
233.5436575769994931
 30
0.0
 11
210.5286124567315937
 21
233.5436575769994931
 31
0.0
  0
LINE
  5
DE58
  8
01_表面形状
 62
     3
 10
211.0233961037233996
 20
252.5972396984707871
 30
0.0
 11
193.5233961037232859
 21
252.5972396984707871
 31
0.0
  0
LINE
  5
DE59
  8
01_表面形状
 62
     3
 10
228.5233961037233996
 20
252.5972396984707871
 30
0.0
 11
228.5233961037233996
 21
249.5972396984707871
 31
0.0
  0
ARC
  5
DE5A
  8
01_表面形状
 62
     3
 10
211.0233961037233996
 20
108.997239698470807
 30
0.0
 40
140.0
 50
80.5811954070139365
 51
82.8449324252187012
  0
LINE
  5
DE5B
  8
01_表面形状
 62
     3
 10
215.5800166535165943
 20
230.3256800570393068
 30
0.0
 11
216.4583624779392039
 21
230.3256800570393068
 31
0.0
  0
LINE
  5
DE5C
  8
01_表面形状
 62
     3
 10
215.6218294782989062
 20
233.7090027794517084
 30
0.0
 11
216.7611107372096058
 21
233.7090027794517084
 31
0.0
  0
LINE
  5
DE5D
  8
01_表面形状
 62
     3
 10
228.0233961037233996
 20
249.30856456387599
 30
0.0
 11
228.0233961037233996
 21
248.4031219273063869
 31
0.0
  0
ARC
  5
DE5E
  8
01_表面形状
 62
     3
 10
228.5233961037233996
 20
248.4031219273063869
 30
0.0
 40
0.5
 50
180.0
 51
262.8449324252155179
  0
LINE
  5
DE5F
  8
01_表面形状
 62
     3
 10
228.0233961037233996
 20
249.30856456387599
 30
0.0
 11
228.5233961037233996
 21
249.5972396984707871
 31
0.0
  0
LINE
  5
DE60
  8
01_表面形状
 62
     3
 10
247.5233961037233996
 20
237.8251123304470127
 30
0.0
 11
236.5233961037233996
 21
237.8251123304470127
 31
0.0
  0
LINE
  5
DE61
  8
01_表面形状
 62
     3
 10
247.5233961037233996
 20
235.844688412386887
 30
0.0
 11
236.5233961037233996
 21
235.844688412386887
 31
0.0
  0
LINE
  5
DE62
  8
01_表面形状
 62
     3
 10
236.5233961037233996
 20
237.8251123304470127
 30
0.0
 11
236.5233961037233996
 21
235.844688412386887
 31
0.0
  0
LINE
  5
DE63
  8
01_表面形状
 62
     3
 10
236.5233961037233996
 20
250.2972396984708894
 30
0.0
 11
247.5233961037233996
 21
250.2972396984708894
 31
0.0
  0
LINE
  5
DE64
  8
01_表面形状
 62
     3
 10
234.9640360399716883
 20
247.5963488407589921
 30
0.0
 11
236.5233961037233996
 21
250.2972396984708041
 31
0.0
  0
LINE
  5
DE65
  8
01_表面形状
 62
     3
 10
234.9442749213029913
 20
247.5621215792104124
 30
0.0
 11
236.5233961037233996
 21
250.2972396984708894
 31
0.0
  0
ARC
  5
DE66
  8
01_表面形状
 62
     3
 10
234.0980106361872117
 20
248.0963488407589921
 30
0.0
 40
1.0
 50
260.5811954070138086
 51
329.9999999999981242
  0
LINE
  5
DE67
  8
01_表面形状
 62
     3
 10
183.3206948091954871
 20
409.7990173589931828
 30
0.0
 11
174.5233961037232859
 21
409.7990173589931828
 31
0.0
  0
LINE
  5
DE68
  8
01_表面形状
 62
     3
 10
183.3206948091952881
 20
356.3990173589932056
 30
0.0
 11
174.5233961037232007
 21
356.3990173589932056
 31
0.0
  0
LINE
  5
DE69
  8
04_中心線
 62
   110
 10
167.5233961037233996
 20
383.0990173589931942
 30
0.0
 11
254.5233961037233996
 21
383.0990173589931942
 31
0.0
  0
LINE
  5
DE6E
  8
01_表面形状
 62
     3
 10
238.7260973982511985
 20
409.7990173589931828
 30
0.0
 11
247.5233961037233996
 21
409.7990173589931828
 31
0.0
  0
LINE
  5
DE6F
  8
01_表面形状
 62
     3
 10
238.7260973982515964
 20
356.3990173589932056
 30
0.0
 11
247.5233961037232859
 21
356.3990173589932056
 31
0.0
  0
LINE
  5
DE70
  8
01_表面形状
 62
     3
 10
247.5233961037233996
 20
388.3905199811222246
 30
0.0
 11
247.5233961037233996
 21
409.2216670898034181
 31
0.0
  0
LINE
  5
DE71
  8
01_表面形状
 62
     3
 10
247.5233961037233996
 20
377.8075147368641069
 30
0.0
 11
247.5233961037233996
 21
356.9763676281826861
 31
0.0
  0
LINE
  5
DE72
  8
04_中心線
 62
   110
 10
211.0233961037232859
 20
426.5990173589930805
 30
0.0
 11
211.0233961037232859
 21
339.5990173589931942
 31
0.0
  0
ARC
  5
DE73
  8
01_表面形状
 62
     3
 10
211.0233961037233996
 20
497.6990173589931032
 30
0.0
 40
140.0
 50
274.9327409586081217
 51
277.8562086108108815
  0
ARC
  5
DE75
  8
01_表面形状
 62
     3
 10
211.0233961037233996
 20
497.6990173589931032
 30
0.0
 40
140.0
 50
262.1437913891888911
 51
265.0672590413915941
  0
LINE
  5
DE79
  8
01_表面形状
 62
     3
 10
174.5233961037233996
 20
388.3905199811222815
 30
0.0
 11
174.5233961037233996
 21
409.2216670898034181
 31
0.0
  0
LINE
  5
DE7A
  8
01_表面形状
 62
     3
 10
174.5233961037233996
 20
377.807514736863709
 30
0.0
 11
174.5233961037233996
 21
356.9763676281826861
 31
0.0
  0
LINE
  5
DE7D
  8
01_表面形状
 62
     3
 10
202.0233961037235986
 20
271.0758164712618736
 30
0.0
 11
202.0233961037232859
 21
263.5972390352457069
 31
0.0
  0
LINE
  5
DE7E
  8
01_表面形状
 62
     3
 10
194.0233961037232859
 20
255.5972396984707871
 30
0.0
 11
211.0233961037232859
 21
255.5972396984707871
 31
0.0
  0
ARC
  5
DE7F
  8
01_表面形状
 62
     3
 10
194.0233961037232859
 20
255.0972396984707871
 30
0.0
 40
0.5
 50
90.0
 51
180.0
  0
LINE
  5
DE80
  8
01_表面形状
 62
     3
 10
193.5233961037232859
 20
255.0972396984707871
 30
0.0
 11
193.5233961037232859
 21
252.5972396984707871
 31
0.0
  0
LINE
  5
DE81
  8
01_表面形状
 62
     3
 10
220.023396103723087
 20
271.0758164712618736
 30
0.0
 11
220.023396103723087
 21
263.5972396984707871
 31
0.0
  0
LINE
  5
DE82
  8
01_表面形状
 62
     3
 10
228.0233961037233996
 20
255.5972396984707871
 30
0.0
 11
211.0233961037232859
 21
255.5972396984707871
 31
0.0
  0
ARC
  5
DE83
  8
01_表面形状
 62
     3
 10
228.0233961037233996
 20
255.0972396984707871
 30
0.0
 40
0.5
 50
0.0
 51
90.0
  0
LINE
  5
DE84
  8
01_表面形状
 62
     3
 10
228.5233961037233996
 20
255.0972396984707871
 30
0.0
 11
228.5233961037233996
 21
252.5972396984707871
 31
0.0
  0
LINE
  5
DE85
  8
01_表面形状
 62
     3
 10
313.0906907777350057
 20
271.0758164712618168
 30
0.0
 11
313.0906907777350057
 21
263.5337326984708284
 31
0.0
  0
LINE
  5
DE86
  8
01_表面形状
 62
     3
 10
305.0906907777346078
 20
255.5972396984707871
 30
0.0
 11
322.0906907777347215
 21
255.5972396984707018
 31
0.0
  0
ARC
  5
DE87
  8
01_表面形状
 62
     3
 10
305.0906907777346078
 20
255.0972396984707871
 30
0.0
 40
0.5
 50
90.0
 51
180.0
  0
LINE
  5
DE88
  8
01_表面形状
 62
     3
 10
304.5906907777347215
 20
255.0972396984707871
 30
0.0
 11
304.5906907777347215
 21
252.5972396984707871
 31
0.0
  0
LINE
  5
DE89
  8
01_表面形状
 62
     3
 10
331.0906907777344941
 20
271.0758164712618168
 30
0.0
 11
331.0906907777344941
 21
263.5337326984708284
 31
0.0
  0
LINE
  5
DE8A
  8
01_表面形状
 62
     3
 10
339.0906907777347215
 20
255.5972396984707871
 30
0.0
 11
322.0906907777347215
 21
255.5972396984707018
 31
0.0
  0
ARC
  5
DE8B
  8
01_表面形状
 62
     3
 10
339.0906907777347215
 20
255.0972396984707871
 30
0.0
 40
0.5
 50
0.0
 51
90.0
  0
LINE
  5
DE8C
  8
01_表面形状
 62
     3
 10
339.5906907777347215
 20
255.0972396984707871
 30
0.0
 11
339.5906907777347215
 21
252.5972396984707871
 31
0.0
  0
TEXT
  5
DE91
  8
12_文字
 62
   110
 10
177.3124024301779116
 20
160.1861914439726888
 30
0.0
 40
4.1671809999999976
  1
        GLOBE VALVE  11/4
 41
0.9916619999999999
  7
MX_NOTE_STANDARD
 11
177.3124024301779116
 21
162.2697819439727027
 31
0.0
 73
     2
  0
TEXT
  5
DE92
  8
12_文字
 62
   110
 10
177.2574124301779079
 20
144.1861914439726888
 30
0.0
 40
4.1671809999999976
  1
TOA
 41
0.9124859999999999
  7
MX_NOTE_STANDARD
 11
177.2574124301779079
 21
146.2697819439727027
 31
0.0
 73
     2
  0
TEXT
  5
DE93
  8
12_文字
 62
   110
 10
177.3498344301779071
 20
152.1861914439726888
 30
0.0
 40
4.1671809999999976
  1
FIG   TA11/4
 41
1.0455570000000001
  7
MX_NOTE_STANDARD
 11
177.3498344301779071
 21
154.269781943972589
 31
0.0
 73
     2
  0
TEXT
  5
DE94
  8
12_文字
 62
   110
 10
177.2682644301779078
 20
168.1861914439726888
 30
0.0
 40
4.1671809999999976
  1
NAME  CLASS 100 CAST BRONZE
 41
0.9281109999999999
  7
MX_NOTE_STANDARD
 11
177.2682644301779078
 21
170.2697819439727027
 31
0.0
 73
     2
  0
LINE
  5
DE95
  8
01_表面形状
 62
     3
 10
247.5233961037233996
 20
409.7990173589931828
 30
0.0
 11
247.5233961037233996
 21
388.3905199811222246
 31
0.0
  0
LINE
  5
DE97
  8
01_表面形状
 62
     3
 10
185.5233961037233996
 20
391.8762891961404193
 30
0.0
 11
185.5233961037233996
 21
390.310119909921525
 31
0.0
  0
LINE
  5
DE98
  8
01_表面形状
 62
     3
 10
185.5233961037232859
 20
375.887914808064977
 30
0.0
 11
185.5233961037232859
 21
374.3217455218464806
 31
0.0
  0
LINE
  5
DE9A
  8
01_表面形状
 62
     3
 10
174.5233961037233996
 20
409.7990173589931828
 30
0.0
 11
174.5233961037232859
 21
388.3905199811222246
 31
0.0
  0
ARC
  5
DF0A
  8
01_表面形状
 62
     3
 10
200.0233961037233996
 20
263.5972396984707871
 30
0.0
 40
2.0
 50
270.0000179999992156
 51
359.9999809999994227
  0
ARC
  5
DF0B
  8
01_表面形状
 62
     3
 10
222.0233961037233996
 20
263.5972396984707871
 30
0.0
 40
2.0
 50
180.0000189999989004
 51
270.0000009999981216
  0
LINE
  5
DF0C
  8
01_表面形状
 62
     3
 10
204.9612271037233882
 20
261.5972396984707871
 30
0.0
 11
204.9612271037233882
 21
255.5972396984707871
 31
0.0
  0
LINE
  5
DF0D
  8
01_表面形状
 62
     3
 10
217.0855651037232974
 20
261.5972396984707871
 30
0.0
 11
217.0855651037232974
 21
255.5972396984707871
 31
0.0
  0
LINE
  5
DF0E
  8
01_表面形状
 62
     3
 10
199.5233961037233996
 20
261.5972396984707871
 30
0.0
 11
199.5233961037233996
 21
255.5972396984707871
 31
0.0
  0
LINE
  5
DF0F
  8
01_表面形状
 62
     3
 10
199.5233961037233996
 20
261.5972396984707871
 30
0.0
 11
222.5233961037233996
 21
261.5972396984707871
 31
0.0
  0
LINE
  5
DF10
  8
01_表面形状
 62
     3
 10
222.5233961037233996
 20
261.5972396984707871
 30
0.0
 11
222.5233961037233996
 21
255.5972396984707871
 31
0.0
  0
LINE
  5
DF11
  8
01_表面形状
 62
     3
 10
202.6733961037234053
 20
271.0758164712618736
 30
0.0
 11
202.6733961037234053
 21
265.4991998296526958
 31
0.0
  0
LINE
  5
DF12
  8
01_表面形状
 62
     3
 10
219.3733961037233939
 20
271.0758164712618736
 30
0.0
 11
219.3733961037233939
 21
265.4991998296526958
 31
0.0
  0
LINE
  5
DF13
  8
01_表面形状
 62
     3
 10
202.0233961037233996
 20
265.4991998296526958
 30
0.0
 11
220.0233961037233996
 21
265.4991998296526958
 31
0.0
  0
LINE
  5
DF14
  8
01_表面形状
 62
     3
 10
205.2499021037232865
 20
282.0758164712618736
 30
0.0
 11
205.2499021037234002
 21
271.0758164712618736
 31
0.0
  0
LINE
  5
DF15
  8
01_表面形状
 62
     3
 10
216.7968901037233138
 20
282.0758164712618736
 30
0.0
 11
216.7968901037233991
 21
271.0758164712618736
 31
0.0
  0
LINE
  5
DF16
  8
01_表面形状
 62
     3
 10
221.9233961037232916
 20
282.0758164712618736
 30
0.0
 11
221.9233961037234053
 21
271.0758164712618736
 31
0.0
  0
LINE
  5
DF17
  8
01_表面形状
 62
     3
 10
200.1233961037233939
 20
282.0758164712618736
 30
0.0
 11
200.1233961037233939
 21
271.0758164712618736
 31
0.0
  0
LINE
  5
DF18
  8
01_表面形状
 62
     3
 10
200.1233961037233939
 20
271.0758164712618736
 30
0.0
 11
221.9233961037234053
 21
271.0758164712618736
 31
0.0
  0
LINE
  5
DF19
  8
01_表面形状
 62
     3
 10
200.1233961037233939
 20
282.0758164712618736
 30
0.0
 11
221.9233961037234053
 21
282.0758164712618736
 31
0.0
  0
LINE
  5
DF1A
  8
01_表面形状
 62
     3
 10
200.1233961037233939
 20
282.0758164712618736
 30
0.0
 11
221.9233961037234053
 21
282.0758164712618736
 31
0.0
  0
LINE
  5
DF1B
  8
01_表面形状
 62
     3
 10
312.0906907777347215
 20
282.0758164712618736
 30
0.0
 11
312.0906907777347215
 21
271.0758164712618168
 31
0.0
  0
LINE
  5
DF1C
  8
01_表面形状
 62
     3
 10
332.0906907777346078
 20
282.0758164712618736
 30
0.0
 11
332.0906907777346078
 21
271.0758164712618168
 31
0.0
  0
LINE
  5
DF1D
  8
01_表面形状
 62
     3
 10
313.7406847777348275
 20
271.0758164712617031
 30
0.0
 11
313.7406847777346002
 21
265.4991998296526958
 31
0.0
  0
LINE
  5
DF1E
  8
01_表面形状
 62
     3
 10
330.4406967777346722
 20
271.0758164712617031
 30
0.0
 11
330.4406967777346722
 21
265.4991998296526958
 31
0.0
  0
LINE
  5
DF1F
  8
01_表面形状
 62
     3
 10
313.0906907777347215
 20
265.4991998296526958
 30
0.0
 11
331.0906907777347215
 21
265.4991998296526958
 31
0.0
  0
LINE
  5
DF20
  8
01_表面形状
 62
     3
 10
312.0906907777347215
 20
271.0758164712618168
 30
0.0
 11
332.0906907777346078
 21
271.0758164712618168
 31
0.0
  0
LINE
  5
DF21
  8
01_表面形状
 62
     3
 10
312.0906907777347215
 20
282.0758164712618168
 30
0.0
 11
332.0906907777346078
 21
282.0758164712618168
 31
0.0
  0
LINE
  5
DF8C
  8
01_表面形状
 62
     3
 10
317.3406907777347215
 20
290.0758164712618168
 30
0.0
 11
317.3406907777347215
 21
282.0758164712618736
 31
0.0
  0
LINE
  5
DF8D
  8
01_表面形状
 62
     3
 10
326.8406907777347215
 20
290.0758164712618168
 30
0.0
 11
326.8406907777347215
 21
282.0758164712618736
 31
0.0
  0
ARC
  5
DF8E
  8
01_表面形状
 62
     3
 10
311.0906907777347215
 20
263.5337326984708284
 30
0.0
 40
2.0
 50
284.4775059999990958
 51
0.0000190000006095
  0
ARC
  5
DF8F
  8
01_表面形状
 62
     3
 10
333.0906907777347215
 20
263.5337326984708284
 30
0.0
 40
2.0
 50
179.9999809999993943
 51
255.5224760000004949
  0
LINE
  5
DF90
  8
01_表面形状
 62
     3
 10
311.5906907777347215
 20
261.5972396984707871
 30
0.0
 11
311.5906907777347215
 21
255.5972396984707871
 31
0.0
  0
LINE
  5
DF91
  8
01_表面形状
 62
     3
 10
332.5906907777347215
 20
261.5972396984707871
 30
0.0
 11
332.5906907777347215
 21
255.5972396984707871
 31
0.0
  0
LINE
  5
DF92
  8
01_表面形状
 62
     3
 10
311.5906907777347215
 20
261.5972396984707871
 30
0.0
 11
332.5906907777347215
 21
261.5972396984707871
 31
0.0
  0
LINE
  5
DF93
  8
01_表面形状
 62
     3
 10
322.0906907777347215
 20
261.5972396984707871
 30
0.0
 11
322.0906907777347215
 21
255.5972396984707871
 31
0.0
  0
LINE
  5
DF94
  8
01_表面形状
 62
     3
 10
322.0906907777347215
 20
282.0758164712618168
 30
0.0
 11
322.0906907777347215
 21
271.0758164712617031
 31
0.0
  0
CIRCLE
  5
DF95
  8
01_表面形状
 62
     3
 10
322.0906907777347215
 20
223.5972396984707871
 30
0.0
 40
19.4499969999999998
  0
CIRCLE
  5
DF96
  8
01_表面形状
 62
     3
 10
322.0906907777347215
 20
223.5972396984707871
 30
0.0
 40
20.9499969999999998
  0
LINE
  5
DF97
  8
01_表面形状
 62
     3
 10
339.5906907777347215
 20
249.5972396984707871
 30
0.0
 11
324.0573697809439864
 21
249.5972396984707871
 31
0.0
  0
LINE
  5
DF98
  8
01_表面形状
 62
     3
 10
320.1240117745255134
 20
249.5972396984707871
 30
0.0
 11
304.5906907777344941
 21
249.5972396984707871
 31
0.0
  0
LINE
  5
DF99
  8
01_表面形状
 62
     3
 10
236.5233961037230017
 20
250.2972396984700936
 30
0.0
 11
236.5233961037230017
 21
196.8972396984698889
 31
0.0
  0
LINE
  5
DF9A
  8
01_表面形状
 62
     3
 10
247.5233961037233996
 20
250.2972396984700936
 30
0.0
 11
247.5233961037233996
 21
196.8972396984698889
 31
0.0
  0
LINE
  5
DF9B
  8
01_表面形状
 62
     3
 10
185.5233961037232859
 20
250.2972396984708894
 30
0.0
 11
185.5233961037232859
 21
196.8972396984707132
 31
0.0
  0
LINE
  5
DF9C
  8
01_表面形状
 62
     3
 10
174.5233961037232859
 20
250.2972396984708894
 30
0.0
 11
174.5233961037232859
 21
196.8972396984707132
 31
0.0
  0
LINE
  5
E5AE
  8
01_表面形状
 62
     3
 10
215.7733961037232859
 20
401.4877410271806752
 30
0.0
 11
215.7733961037232859
 21
394.5018495736268846
 31
0.0
  0
LINE
  5
E5AF
  8
01_表面形状
 62
     3
 10
206.2733961037232859
 20
401.4877410271806752
 30
0.0
 11
206.2733961037233996
 21
394.5018495736268846
 31
0.0
  0
LINE
  5
E5B0
  8
01_表面形状
 62
     3
 10
237.2912471768507032
 20
379.5990173589930805
 30
0.0
 11
243.0139820138265065
 21
379.5990173589930805
 31
0.0
  0
LINE
  5
E5B1
  8
01_表面形状
 62
     3
 10
237.2912471768507032
 20
386.5990173589930805
 30
0.0
 11
243.013982013825995
 21
386.5990173589930805
 31
0.0
  0
LINE
  5
E5B2
  8
01_表面形状
 62
     3
 10
236.7599475735150918
 20
392.0276185060262151
 30
0.0
 11
239.0059443201866998
 21
392.9579408195432961
 31
0.0
  0
LINE
  5
E5B3
  8
01_表面形状
 62
     3
 10
235.5353605899466913
 20
394.9840330100623191
 30
0.0
 11
237.7813573366182993
 21
395.9143553235796276
 31
0.0
  0
ARC
  5
E5B4
  8
01_表面形状
 62
     3
 10
241.5233961037232859
 20
383.0990173589931942
 30
0.0
 40
8.0
 50
309.6684420862009119
 51
50.3315579137990881
  0
ARC
  5
E5B5
  8
01_表面形状
 62
     3
 10
257.4819946899469869
 20
402.3427989822545214
 30
0.0
 40
17.0
 50
174.668442086198894
 51
230.3315579137990881
  0
ARC
  5
E5B6
  8
01_表面形状
 62
     3
 10
257.4819946899469869
 20
402.3427989822545214
 30
0.0
 40
20.0
 50
179.0732569680247082
 51
195.874190435169993
  0
ARC
  5
E5B7
  8
01_表面形状
 62
     3
 10
237.475210590726391
 20
396.6534589495888099
 30
0.0
 40
0.8
 50
292.500000000005798
 51
15.8741904351874705
  0
ARC
  5
E5B8
  8
01_表面形状
 62
     3
 10
257.4819946899469869
 20
402.3427989822545214
 30
0.0
 40
20.0
 50
209.1258095648146877
 51
225.9267430319794983
  0
ARC
  5
E5B9
  8
01_表面形状
 62
     3
 10
239.312091066078608
 20
392.2188371935346254
 30
0.0
 40
0.8
 50
29.1258095648146806
 51
112.500000000005798
  0
ARC
  5
E5BA
  8
01_表面形状
 62
     3
 10
243.013982013825995
 20
387.3990173589930919
 30
0.0
 40
0.8
 50
270.0
 51
45.9267430319794911
  0
ARC
  5
E5BB
  8
01_表面形状
 62
     3
 10
232.5901529299131028
 20
404.6657741851827268
 30
0.0
 40
8.0
 50
354.6684420861989224
 51
95.3315579138010492
  0
ARC
  5
E5BC
  8
01_表面形状
 62
     3
 10
230.2671777269846984
 20
429.5576159452170941
 30
0.0
 40
17.0
 50
219.6684420862073921
 51
275.3315579138010207
  0
ARC
  5
E5BD
  8
01_表面形状
 62
     3
 10
211.0233961037232859
 20
413.5990173589930805
 30
0.0
 40
8.0
 50
39.6684420862074418
 51
140.3315579137926079
  0
ARC
  5
E5BE
  8
01_表面形状
 62
     3
 10
191.7796144804619018
 20
429.5576159452169804
 30
0.0
 40
17.0
 50
264.6684420861989793
 51
320.3315579137924942
  0
ARC
  5
E5BF
  8
01_表面形状
 62
     3
 10
189.4566392775336112
 20
404.6657741851827268
 30
0.0
 40
8.0
 50
84.6684420861989651
 51
185.3315579137878046
  0
ARC
  5
E5C0
  8
01_表面形状
 62
     3
 10
164.5647975174993007
 20
402.3427989822545783
 30
0.0
 40
17.0
 50
309.6684420861922717
 51
5.331557913787857
  0
ARC
  5
E5C1
  8
01_表面形状
 62
     3
 10
180.5233961037232859
 20
383.0990173589930237
 30
0.0
 40
8.0
 50
129.6684420861924139
 51
230.3315579138075861
  0
ARC
  5
E5C2
  8
01_表面形状
 62
     3
 10
164.5647975174993007
 20
363.8552357357315827
 30
0.0
 40
17.0
 50
354.6684420862121101
 51
50.3315579138075719
  0
ARC
  5
E5C3
  8
01_表面形状
 62
     3
 10
189.4566392775336112
 20
361.5322605328033774
 30
0.0
 40
8.0
 50
174.668442086198894
 51
275.3315579137880036
  0
ARC
  5
E5C4
  8
01_表面形状
 62
     3
 10
191.7796144804615039
 20
336.6404187727691237
 30
0.0
 40
17.0
 50
39.6684420861970182
 51
95.331557913787961
  0
ARC
  5
E5C5
  8
01_表面形状
 62
     3
 10
211.023396103722888
 20
352.5990173589930805
 30
0.0
 40
8.0
 50
219.6684420861971034
 51
320.3315579138024987
  0
ARC
  5
E5C6
  8
01_表面形状
 62
     3
 10
230.2671777269843005
 20
336.6404187727692943
 30
0.0
 40
17.0
 50
84.6684420862120248
 51
140.3315579138024987
  0
ARC
  5
E5C7
  8
01_表面形状
 62
     3
 10
232.5901529299131028
 20
361.5322605328032068
 30
0.0
 40
8.0
 50
264.6684420861989793
 51
5.3315579138011309
  0
ARC
  5
E5C8
  8
01_表面形状
 62
     3
 10
257.4819946899469869
 20
363.8552357357312985
 30
0.0
 40
17.0
 50
129.6684420862009119
 51
185.331557913801106
  0
ARC
  5
E5C9
  8
01_表面形状
 62
     3
 10
243.0139820138265065
 20
378.7990173589931828
 30
0.0
 40
0.8
 50
314.0732569680204733
 51
90.0
  0
LINE
  5
E5CA
  8
01_表面形状
 62
     3
 10
232.072445458882811
 20
399.1983192458470739
 30
0.0
 11
236.119030069040889
 21
403.2449038560048962
 31
0.0
  0
LINE
  5
E5CB
  8
01_表面形状
 62
     3
 10
227.1226979905769952
 20
404.1480667141527192
 30
0.0
 11
231.1692826007347037
 21
408.1946513243104846
 31
0.0
  0
ARC
  5
E5CC
  8
01_表面形状
 62
     3
 10
236.6847154939900975
 20
402.6792184310556877
 30
0.0
 40
0.8
 50
359.0732569680247934
 51
135.0000000000096065
  0
LINE
  5
E5CD
  8
01_表面形状
 62
     3
 10
214.5233961037232859
 20
409.3668684321206115
 30
0.0
 11
214.5233961037232859
 21
415.0896032690963011
 31
0.0
  0
LINE
  5
E5CE
  8
01_表面形状
 62
     3
 10
207.5233961037232859
 20
409.3668684321206115
 30
0.0
 11
207.5233961037232859
 21
415.0896032690957895
 31
0.0
  0
ARC
  5
E5CF
  8
01_表面形状
 62
     3
 10
215.3233961037230983
 20
415.0896032690963011
 30
0.0
 40
0.8
 50
44.0732569680384429
 51
180.0
  0
LINE
  5
E5D0
  8
01_表面形状
 62
     3
 10
194.9240942168694914
 20
404.1480667141526055
 30
0.0
 11
190.8775096067114987
 21
408.1946513243109962
 31
0.0
  0
LINE
  5
E5D1
  8
01_表面形状
 62
     3
 10
189.9743467485637041
 20
399.1983192458470171
 30
0.0
 11
185.9277621384057966
 21
403.2449038560048962
 31
0.0
  0
ARC
  5
E5D2
  8
01_表面形状
 62
     3
 10
191.4431950316607072
 20
408.7603367492603184
 30
0.0
 40
0.8
 50
89.0732569680247792
 51
225.000000000008697
  0
LINE
  5
E5D3
  8
01_表面形状
 62
     3
 10
184.7555450305958971
 20
386.59901735899291
 30
0.0
 11
179.0328101936202074
 21
386.59901735899291
 31
0.0
  0
LINE
  5
E5D4
  8
01_表面形状
 62
     3
 10
184.7555450305958971
 20
379.5990173589930237
 30
0.0
 11
179.0328101936206053
 21
379.5990173589927963
 31
0.0
  0
ARC
  5
E5D5
  8
01_表面形状
 62
     3
 10
179.0328101936202074
 20
387.3990173589929213
 30
0.0
 40
0.8
 50
134.0732569680384927
 51
270.0
  0
LINE
  5
E5D6
  8
01_表面形状
 62
     3
 10
189.9743467485635904
 20
366.9997154721392008
 30
0.0
 11
185.9277621384053134
 21
362.9531308619810943
 31
0.0
  0
LINE
  5
E5D7
  8
01_表面形状
 62
     3
 10
194.9240942168694914
 20
362.0499680038336123
 30
0.0
 11
190.8775096067114987
 21
358.0033833936756196
 31
0.0
  0
ARC
  5
E5D8
  8
01_表面形状
 62
     3
 10
185.3620767134561049
 20
363.5188162869304733
 30
0.0
 40
0.8
 50
179.0732569680247082
 51
315.0000000000096065
  0
LINE
  5
E5D9
  8
01_表面形状
 62
     3
 10
207.523396103722888
 20
356.8311662858658906
 30
0.0
 11
207.523396103722888
 21
351.1084314488900873
 31
0.0
  0
LINE
  5
E5DA
  8
01_表面形状
 62
     3
 10
214.523396103722888
 20
356.8311662858657201
 30
0.0
 11
214.523396103722888
 21
351.1084314488904852
 31
0.0
  0
ARC
  5
E5DB
  8
01_表面形状
 62
     3
 10
206.723396103723104
 20
351.1084314488900873
 30
0.0
 40
0.8
 50
224.0732569680384927
 51
0.0
  0
LINE
  5
E5DC
  8
01_表面形状
 62
     3
 10
227.1226979905767962
 20
362.0499680038336123
 30
0.0
 11
231.1692826007351869
 21
358.003383393675108
 31
0.0
  0
LINE
  5
E5DD
  8
01_表面形状
 62
     3
 10
232.0724454588828962
 20
366.9997154721394281
 30
0.0
 11
236.119030069040889
 21
362.9531308619813217
 31
0.0
  0
ARC
  5
E5DE
  8
01_表面形状
 62
     3
 10
230.6035971757860068
 20
357.4376979687260132
 30
0.0
 40
0.8
 50
269.0732569680247934
 51
45.000000000008761
  0
ARC
  5
E5DF
  8
01_表面形状
 62
     3
 10
211.0233961037232859
 20
383.0990173589931942
 30
0.0
 40
26.5
 50
7.5895423918542431
 51
17.4564976310526703
  0
ARC
  5
E5E0
  8
01_表面形状
 62
     3
 10
211.0233961037232859
 20
383.0990173589931942
 30
0.0
 40
26.5
 50
27.5435023689383591
 51
37.4104576081336688
  0
ARC
  5
E5E1
  8
01_表面形状
 62
     3
 10
237.0660943194070001
 20
391.2885148800170896
 30
0.0
 40
0.8
 50
112.500000000005798
 51
197.4564976310502971
  0
ARC
  5
E5E2
  8
01_表面形状
 62
     3
 10
235.2292138440548115
 20
395.7231366360712173
 30
0.0
 40
0.8
 50
207.5435023689383058
 51
292.4999999999918145
  0
LINE
  5
E5E3
  8
01_表面形状
 62
     3
 10
222.9084117547922119
 20
407.6109818452163722
 30
0.0
 11
223.8387340683098046
 21
409.8569785918880939
 31
0.0
  0
LINE
  5
E5E4
  8
01_表面形状
 62
     3
 10
219.9519972507563921
 20
408.8355688287848011
 30
0.0
 11
220.8823195642735016
 21
411.0815655754565796
 31
0.0
  0
ARC
  5
E5E5
  8
01_表面形状
 62
     3
 10
230.2671777269846984
 20
429.5576159452170941
 30
0.0
 40
20.0
 50
224.0732569680195923
 51
240.874190435168714
  0
ARC
  5
E5E6
  8
01_表面形状
 62
     3
 10
220.1432159382642908
 20
411.3877123213487721
 30
0.0
 40
0.8
 50
337.5000000000110276
 51
60.8741904351836922
  0
ARC
  5
E5E7
  8
01_表面形状
 62
     3
 10
230.2671777269846984
 20
429.5576159452170941
 30
0.0
 40
20.0
 50
254.1258095648279891
 51
270.9267430319752066
  0
ARC
  5
E5E8
  8
01_表面形状
 62
     3
 10
224.5778376943185037
 20
409.5508318459961856
 30
0.0
 40
0.8
 50
74.1258095648144604
 51
157.4999999999911893
  0
ARC
  5
E5E9
  8
01_表面形状
 62
     3
 10
211.0233961037232859
 20
383.0990173589931942
 30
0.0
 40
26.5
 50
52.5895423918600713
 51
62.4564976310554769
  0
ARC
  5
E5EA
  8
01_表面形状
 62
     3
 10
211.0233961037232859
 20
383.0990173589931942
 30
0.0
 40
26.5
 50
72.5435023689369842
 51
82.4104576081328162
  0
ARC
  5
E5EB
  8
01_表面形状
 62
     3
 10
223.6475153808013943
 20
407.3048350993245776
 30
0.0
 40
0.8
 50
157.5000000000102887
 51
242.4564976310408042
  0
ARC
  5
E5EC
  8
01_表面形状
 62
     3
 10
219.2128936247472097
 20
409.1417155746768231
 30
0.0
 40
0.8
 50
252.5435023689506124
 51
337.4999999999919851
  0
LINE
  5
E5ED
  8
01_表面形状
 62
     3
 10
202.0947949566902082
 20
408.8355688287848011
 30
0.0
 11
201.1644726431732124
 21
411.0815655754564091
 31
0.0
  0
LINE
  5
E5EE
  8
01_表面形状
 62
     3
 10
199.1383804526539905
 20
407.6109818452163722
 30
0.0
 11
198.2080581391369094
 21
409.8569785918883781
 31
0.0
  0
ARC
  5
E5EF
  8
01_表面形状
 62
     3
 10
191.7796144804619018
 20
429.5576159452169804
 30
0.0
 40
20.0
 50
269.0732569680247934
 51
285.8741904351720109
  0
ARC
  5
E5F0
  8
01_表面形状
 62
     3
 10
197.4689545131276986
 20
409.5508318459961856
 30
0.0
 40
0.8
 50
22.4999999999890292
 51
105.874190435185497
  0
ARC
  5
E5F1
  8
01_表面形状
 62
     3
 10
191.7796144804619018
 20
429.5576159452169804
 30
0.0
 40
20.0
 50
299.1258095648162794
 51
315.9267430319615073
  0
ARC
  5
E5F2
  8
01_表面形状
 62
     3
 10
201.9035762691819116
 20
411.3877123213483742
 30
0.0
 40
0.8
 50
119.1258095648162936
 51
202.4999999999890008
  0
ARC
  5
E5F3
  8
01_表面形状
 62
     3
 10
211.0233961037232859
 20
383.0990173589931942
 30
0.0
 40
26.5
 50
97.589542391854053
 51
107.4564976310493023
  0
ARC
  5
E5F4
  8
01_表面形状
 62
     3
 10
211.0233961037232859
 20
383.0990173589931942
 30
0.0
 40
26.5
 50
117.5435023689519056
 51
127.4104576081398932
  0
ARC
  5
E5F5
  8
01_表面形状
 62
     3
 10
202.8338985826993905
 20
409.1417155746769936
 30
0.0
 40
0.8
 50
202.4999999999890008
 51
287.4564976310492739
  0
ARC
  5
E5F6
  8
01_表面形状
 62
     3
 10
198.3992768266452913
 20
407.3048350993245776
 30
0.0
 40
0.8
 50
297.5435023689519198
 51
22.4999999999890292
  0
LINE
  5
E5F7
  8
01_表面形状
 62
     3
 10
186.511431617499909
 20
394.9840330100624897
 30
0.0
 11
184.265434870828301
 21
395.9143553235800255
 31
0.0
  0
LINE
  5
E5F8
  8
01_表面形状
 62
     3
 10
185.2868446339315938
 20
392.0276185060263856
 30
0.0
 11
183.0408478872600142
 21
392.957940819543694
 31
0.0
  0
ARC
  5
E5F9
  8
01_表面形状
 62
     3
 10
164.5647975174993007
 20
402.3427989822545783
 30
0.0
 40
20.0
 50
314.0732569680292841
 51
330.8741904351742846
  0
ARC
  5
E5FA
  8
01_表面形状
 62
     3
 10
182.7347011413675943
 20
392.2188371935346254
 30
0.0
 40
0.8
 50
67.5000000000082565
 51
150.8741904351743131
  0
ARC
  5
E5FB
  8
01_表面形状
 62
     3
 10
164.5647975174993007
 20
402.3427989822545783
 30
0.0
 40
20.0
 50
344.1258095648125277
 51
0.9267430319752225
  0
ARC
  5
E5FC
  8
01_表面形状
 62
     3
 10
184.5715816167202945
 20
396.6534589495888099
 30
0.0
 40
0.8
 50
164.1258095648124993
 51
247.5000000000082991
  0
ARC
  5
E5FD
  8
01_表面形状
 62
     3
 10
211.0233961037232859
 20
383.0990173589931942
 30
0.0
 40
26.5
 50
142.5895423918663028
 51
152.4564976310616089
  0
ARC
  5
E5FE
  8
01_表面形状
 62
     3
 10
211.0233961037232859
 20
383.0990173589931942
 30
0.0
 40
26.5
 50
162.5435023689489071
 51
172.4104576081456912
  0
ARC
  5
E5FF
  8
01_表面形状
 62
     3
 10
186.8175783633919025
 20
395.7231366360716152
 30
0.0
 40
0.8
 50
247.5000000000082991
 51
332.4564976310637121
  0
ARC
  5
E600
  8
01_表面形状
 62
     3
 10
184.9806978880397139
 20
391.2885148800174875
 30
0.0
 40
0.8
 50
342.5435023689487934
 51
67.4999999999941878
  0
LINE
  5
E601
  8
01_表面形状
 62
     3
 10
185.2868446339311959
 20
374.1704162119597754
 30
0.0
 11
183.0408478872595879
 21
373.240093898442808
 31
0.0
  0
LINE
  5
E602
  8
01_表面形状
 62
     3
 10
186.5114316174993974
 20
371.2140017079238987
 30
0.0
 11
184.2654348708277894
 21
370.2836793944064198
 31
0.0
  0
ARC
  5
E603
  8
01_表面形状
 62
     3
 10
164.5647975174993007
 20
363.8552357357315827
 30
0.0
 40
20.0
 50
359.0732569680247934
 51
15.8741904351874705
  0
ARC
  5
E604
  8
01_表面形状
 62
     3
 10
184.5715816167198113
 20
369.5445757683972943
 30
0.0
 40
0.8
 50
112.4999999999917009
 51
195.8741904351867049
  0
ARC
  5
E605
  8
01_表面形状
 62
     3
 10
164.5647975174993007
 20
363.8552357357315827
 30
0.0
 40
20.0
 50
29.1258095648257083
 51
45.9267430319614931
  0
ARC
  5
E606
  8
01_表面形状
 62
     3
 10
182.7347011413675943
 20
373.9791975244514788
 30
0.0
 40
0.8
 50
209.1258095648256869
 51
292.4999999999918145
  0
ARC
  5
E607
  8
01_表面形状
 62
     3
 10
211.0233961037232859
 20
383.0990173589930237
 30
0.0
 40
26.5
 50
187.5895423918541951
 51
197.4564976310502971
  0
ARC
  5
E608
  8
01_表面形状
 62
     3
 10
211.0233961037232859
 20
383.0990173589930237
 30
0.0
 40
26.5
 50
207.5435023689383058
 51
217.4104576081336972
  0
ARC
  5
E609
  8
01_表面形状
 62
     3
 10
184.9806978880392023
 20
374.9095198379690146
 30
0.0
 40
0.8
 50
292.4999999999918145
 51
17.456497631050329
  0
ARC
  5
E60A
  8
01_表面形状
 62
     3
 10
186.8175783633913909
 20
370.4748980819147732
 30
0.0
 40
0.8
 50
27.5435023689383591
 51
112.4999999999917009
  0
LINE
  5
E60B
  8
01_表面形状
 62
     3
 10
199.1383804526539905
 20
358.5870528727697888
 30
0.0
 11
198.2080581391363978
 21
356.3410561260981808
 31
0.0
  0
LINE
  5
E60C
  8
01_表面形状
 62
     3
 10
202.0947949566898103
 20
357.3624658892014168
 30
0.0
 11
201.1644726431727008
 21
355.1164691425296951
 31
0.0
  0
ARC
  5
E60D
  8
01_表面形状
 62
     3
 10
191.7796144804615039
 20
336.6404187727691237
 30
0.0
 40
20.0
 50
44.0732569680292272
 51
60.8741904351687282
  0
ARC
  5
E60E
  8
01_表面形状
 62
     3
 10
201.9035762691819116
 20
354.8103223966372752
 30
0.0
 40
0.8
 50
157.5000000000102887
 51
240.874190435168714
  0
ARC
  5
E60F
  8
01_表面形状
 62
     3
 10
191.7796144804615039
 20
336.6404187727691237
 30
0.0
 40
20.0
 50
74.1258095648144604
 51
90.9267430319752066
  0
ARC
  5
E610
  8
01_表面形状
 62
     3
 10
197.4689545131276986
 20
356.6472028719899754
 30
0.0
 40
0.8
 50
254.1258095648144035
 51
337.4999999999948841
  0
ARC
  5
E611
  8
01_表面形状
 62
     3
 10
211.0233961037232859
 20
383.0990173589931942
 30
0.0
 40
26.5
 50
232.5895423918601068
 51
242.4564976310554982
  0
ARC
  5
E612
  8
01_表面形状
 62
     3
 10
211.0233961037232859
 20
383.0990173589931942
 30
0.0
 40
26.5
 50
252.5435023689506124
 51
262.4104576081459186
  0
ARC
  5
E613
  8
01_表面形状
 62
     3
 10
198.3992768266448081
 20
358.8931996186615834
 30
0.0
 40
0.8
 50
337.5000000000110276
 51
62.4564976310554769
  0
ARC
  5
E614
  8
01_表面形状
 62
     3
 10
202.8338985826989926
 20
357.0563191433092811
 30
0.0
 40
0.8
 50
72.5435023689506551
 51
157.4999999999949978
  0
LINE
  5
E615
  8
01_表面形状
 62
     3
 10
219.9519972507559942
 20
357.3624658892014168
 30
0.0
 11
220.88231956427299
 21
355.1164691425296951
 31
0.0
  0
LINE
  5
E616
  8
01_表面形状
 62
     3
 10
222.9084117547922119
 20
358.5870528727697888
 30
0.0
 11
223.838734068309293
 21
356.3410561260978966
 31
0.0
  0
ARC
  5
E617
  8
01_表面形状
 62
     3
 10
230.2671777269843005
 20
336.6404187727692943
 30
0.0
 40
20.0
 50
89.0732569680247792
 51
105.874190435185497
  0
ARC
  5
E618
  8
01_表面形状
 62
     3
 10
224.5778376943185037
 20
356.6472028719899754
 30
0.0
 40
0.8
 50
202.5000000000042064
 51
285.8741904351854828
  0
ARC
  5
E619
  8
01_表面形状
 62
     3
 10
230.2671777269843005
 20
336.6404187727692943
 30
0.0
 40
20.0
 50
119.1258095648312008
 51
135.9267430319706875
  0
ARC
  5
E61A
  8
01_表面形状
 62
     3
 10
220.1432159382642908
 20
354.8103223966377868
 30
0.0
 40
0.8
 50
299.1258095648311723
 51
22.5000000000042988
  0
ARC
  5
E61B
  8
01_表面形状
 62
     3
 10
211.023396103722888
 20
383.0990173589931942
 30
0.0
 40
26.5
 50
277.5895423918540814
 51
287.4564976310492739
  0
ARC
  5
E61C
  8
01_表面形状
 62
     3
 10
211.023396103722888
 20
383.0990173589931942
 30
0.0
 40
26.5
 50
297.543502368944587
 51
307.4104576081400069
  0
ARC
  5
E61D
  8
01_表面形状
 62
     3
 10
219.2128936247468118
 20
357.0563191433092811
 30
0.0
 40
0.8
 50
22.5000000000042988
 51
107.4564976310493023
  0
ARC
  5
E61E
  8
01_表面形状
 62
     3
 10
223.6475153808009964
 20
358.8931996186615834
 30
0.0
 40
0.8
 50
117.5435023689445018
 51
202.4999999999890008
  0
LINE
  5
E61F
  8
01_表面形状
 62
     3
 10
235.5353605899466913
 20
371.2140017079238987
 30
0.0
 11
237.7813573366182993
 21
370.2836793944063061
 31
0.0
  0
LINE
  5
E620
  8
01_表面形状
 62
     3
 10
236.7599475735150918
 20
374.1704162119596049
 30
0.0
 11
239.0059443201866998
 21
373.2400938984425807
 31
0.0
  0
ARC
  5
E621
  8
01_表面形状
 62
     3
 10
257.4819946899469869
 20
363.8552357357312985
 30
0.0
 40
20.0
 50
134.0732569680201038
 51
150.8741904351743131
  0
ARC
  5
E622
  8
01_表面形状
 62
     3
 10
239.312091066078608
 20
373.9791975244517062
 30
0.0
 40
0.8
 50
247.5000000000082991
 51
330.8741904351853123
  0
ARC
  5
E623
  8
01_表面形状
 62
     3
 10
257.4819946899469869
 20
363.8552357357312985
 30
0.0
 40
20.0
 50
164.1258095648298934
 51
180.9267430319752066
  0
ARC
  5
E624
  8
01_表面形状
 62
     3
 10
237.475210590726391
 20
369.5445757683975785
 30
0.0
 40
0.8
 50
344.1258095648125277
 51
67.4999999999941878
  0
ARC
  5
E625
  8
01_表面形状
 62
     3
 10
211.0233961037232859
 20
383.0990173589931942
 30
0.0
 40
26.5
 50
322.5895423918663028
 51
332.4564976310637121
  0
ARC
  5
E626
  8
01_表面形状
 62
     3
 10
211.0233961037232859
 20
383.0990173589931942
 30
0.0
 40
26.5
 50
342.5435023689473155
 51
352.4104576081456912
  0
ARC
  5
E627
  8
01_表面形状
 62
     3
 10
235.2292138440548115
 20
370.4748980819143753
 30
0.0
 40
0.8
 50
67.5000000000082565
 51
152.4564976310360862
  0
ARC
  5
E628
  8
01_表面形状
 62
     3
 10
237.0660943194070001
 20
374.9095198379686735
 30
0.0
 40
0.8
 50
162.5435023689489071
 51
247.499999999994202
  0
ARC
  5
E629
  8
01_表面形状
 62
     3
 10
230.6035971757854952
 20
408.7603367492598068
 30
0.0
 40
0.8
 50
315.0000000000096065
 51
90.9267430319752066
  0
ARC
  5
E62A
  8
01_表面形状
 62
     3
 10
206.723396103723104
 20
415.0896032690957895
 30
0.0
 40
0.8
 50
0.0
 51
135.9267430319615073
  0
ARC
  5
E62B
  8
01_表面形状
 62
     3
 10
185.3620767134565881
 20
402.6792184310556877
 30
0.0
 40
0.8
 50
45.000000000008761
 51
180.9267430319752066
  0
ARC
  5
E62C
  8
01_表面形状
 62
     3
 10
179.0328101936206053
 20
378.7990173589930123
 30
0.0
 40
0.8
 50
90.0
 51
225.9267430319615073
  0
ARC
  5
E62D
  8
01_表面形状
 62
     3
 10
191.4431950316607072
 20
357.4376979687264111
 30
0.0
 40
0.8
 50
135.0000000000096065
 51
270.9267430319752066
  0
ARC
  5
E62E
  8
01_表面形状
 62
     3
 10
215.3233961037230983
 20
351.1084314488904852
 30
0.0
 40
0.8
 50
180.0
 51
315.9267430319615073
  0
ARC
  5
E62F
  8
01_表面形状
 62
     3
 10
236.6847154939900975
 20
363.518816286930587
 30
0.0
 40
0.8
 50
225.000000000008697
 51
0.9267430319752225
  0
ARC
  5
E630
  8
01_表面形状
 62
     3
 10
211.0233961037232859
 20
383.0990173589931942
 30
0.0
 40
21.5884572681200204
 50
290.1568119530620038
 51
339.8431880469398152
  0
ARC
  5
E631
  8
01_表面形状
 62
     3
 10
217.773396103722888
 20
364.7102936908053721
 30
0.0
 40
2.0
 50
180.0
 51
290.1568119530620038
  0
ARC
  5
E632
  8
01_表面形状
 62
     3
 10
229.4121197719109091
 20
376.3490173589933079
 30
0.0
 40
2.0
 50
339.8431880469398152
 51
90.0
  0
ARC
  5
E633
  8
01_表面形状
 62
     3
 10
211.0233961037232859
 20
383.0990173589931942
 30
0.0
 40
21.5884572681200204
 50
20.1568119530601599
 51
69.8431880469379536
  0
ARC
  5
E634
  8
01_表面形状
 62
     3
 10
229.4121197719109091
 20
389.8490173589931942
 30
0.0
 40
2.0
 50
270.0
 51
20.1568119530601599
  0
ARC
  5
E635
  8
01_表面形状
 62
     3
 10
217.7733961037232859
 20
401.4877410271806752
 30
0.0
 40
2.0
 50
69.8431880469379536
 51
180.0
  0
ARC
  5
E636
  8
01_表面形状
 62
     3
 10
211.0233961037232859
 20
383.0990173589931942
 30
0.0
 40
21.5884572681200204
 50
110.1568119530620038
 51
159.8431880469375983
  0
ARC
  5
E637
  8
01_表面形状
 62
     3
 10
192.6346724355354922
 20
389.8490173589931942
 30
0.0
 40
2.0
 50
159.8431880469375983
 51
270.0
  0
ARC
  5
E638
  8
01_表面形状
 62
     3
 10
204.2733961037232859
 20
401.4877410271806752
 30
0.0
 40
2.0
 50
0.0
 51
110.1568119530620038
  0
ARC
  5
E639
  8
01_表面形状
 62
     3
 10
211.0233961037232859
 20
383.0990173589931942
 30
0.0
 40
21.5884572681200204
 50
200.1568119530600995
 51
249.8431880469379109
  0
ARC
  5
E63A
  8
01_表面形状
 62
     3
 10
192.6346724355354922
 20
376.3490173589930805
 30
0.0
 40
2.0
 50
90.0
 51
200.1568119530600995
  0
ARC
  5
E63B
  8
01_表面形状
 62
     3
 10
204.273396103722888
 20
364.7102936908055995
 30
0.0
 40
2.0
 50
249.8431880469379109
 51
0.0
  0
LINE
  5
E63C
  8
01_表面形状
 62
     3
 10
192.6346724355354922
 20
387.8490173589930805
 30
0.0
 11
199.6205638890897092
 21
387.8490173589930805
 31
0.0
  0
LINE
  5
E63D
  8
01_表面形状
 62
     3
 10
192.6346724355354922
 20
378.3490173589930805
 30
0.0
 11
199.6205638890897092
 21
378.3490173589930805
 31
0.0
  0
LINE
  5
E63E
  8
01_表面形状
 62
     3
 10
206.273396103722888
 20
364.7102936908055995
 30
0.0
 11
206.273396103722888
 21
371.6961851443596743
 31
0.0
  0
LINE
  5
E63F
  8
01_表面形状
 62
     3
 10
215.773396103722888
 20
364.7102936908053721
 30
0.0
 11
215.773396103722888
 21
371.6961851443592764
 31
0.0
  0
LINE
  5
E640
  8
01_表面形状
 62
     3
 10
229.4121197719109091
 20
378.3490173589930805
 30
0.0
 11
222.4262283183570048
 21
378.3490173589930805
 31
0.0
  0
LINE
  5
E641
  8
01_表面形状
 62
     3
 10
229.4121197719109091
 20
387.8490173589933079
 30
0.0
 11
222.4262283183570048
 21
387.8490173589930805
 31
0.0
  0
LINE
  5
E669
  8
01_表面形状
 62
     3
 10
201.5233961037239112
 20
290.2608164712625012
 30
0.0
 11
220.5233961037237975
 21
290.2608164712625012
 31
0.0
  0
LINE
  5
E66A
  8
01_表面形状
 62
     3
 10
195.7310785903023884
 20
308.7608164712625012
 30
0.0
 11
207.5233961037233996
 21
308.7608164712622738
 31
0.0
  0
LINE
  5
E66B
  8
01_表面形状
 62
     3
 10
201.0233961037239112
 20
295.2608164712625012
 30
0.0
 11
201.0233961037239112
 21
290.7608164712625012
 31
0.0
  0
ARC
  5
E66C
  8
01_表面形状
 62
     3
 10
201.5233961037239112
 20
290.7608164712625012
 30
0.0
 40
0.5
 50
180.0
 51
270.0
  0
LINE
  5
E66D
  8
01_表面形状
 62
     3
 10
211.0233961037239112
 20
295.2608164712625012
 30
0.0
 11
173.5233961037237975
 21
295.2608164712625012
 31
0.0
  0
ARC
  5
E66E
  8
01_表面形状
 62
     3
 10
173.5233961037237975
 20
296.2608164712625012
 30
0.0
 40
1.0
 50
180.0
 51
270.0
  0
LINE
  5
E66F
  8
01_表面形状
 62
     3
 10
206.5233961037233996
 20
300.2608164712625012
 30
0.0
 11
172.9450186078310878
 21
300.2608164712622738
 31
0.0
  0
ARC
  5
E670
  8
01_表面形状
 62
     3
 10
206.5233961037233996
 20
301.2608164712625012
 30
0.0
 40
1.0
 50
270.0
 51
0.0
  0
LINE
  5
E671
  8
01_表面形状
 62
     3
 10
206.5233961037233996
 20
302.2608164712625012
 30
0.0
 11
201.7861056840407059
 21
302.2608164712625012
 31
0.0
  0
ARC
  5
E672
  8
01_表面形状
 62
     3
 10
201.7861056840407059
 20
302.7608164712625012
 30
0.0
 40
0.5
 50
167.6217400196541121
 51
270.0
  0
LINE
  5
E673
  8
01_表面形状
 62
     3
 10
197.8058916139293899
 20
302.2608164712625012
 30
0.0
 11
191.8813954633492926
 21
302.2608164712625012
 31
0.0
  0
ARC
  5
E674
  8
01_表面形状
 62
     3
 10
197.8058916139293899
 20
302.7608164712625012
 30
0.0
 40
0.5
 50
270.0
 51
347.6217400196391054
  0
LINE
  5
E675
  8
01_表面形状
 62
     3
 10
185.8099106402914913
 20
302.2608164712625012
 30
0.0
 11
185.096200969776902
 21
302.2608164712622738
 31
0.0
  0
ARC
  5
E676
  8
01_表面形状
 62
     3
 10
185.096200969776902
 20
302.7608164712622738
 30
0.0
 40
0.5
 50
152.0836107091857059
 51
270.0000000000130171
  0
LINE
  5
E677
  8
01_表面形状
 62
     3
 10
182.7399208269040116
 20
302.2608164712622738
 30
0.0
 11
178.421498317154601
 21
302.2608164712625012
 31
0.0
  0
ARC
  5
E678
  8
01_表面形状
 62
     3
 10
182.7399208269040116
 20
302.7608164712622738
 30
0.0
 40
0.5
 50
270.0
 51
332.0836107091885765
  0
ARC
  5
E679
  8
01_表面形状
 62
     3
 10
181.6614934563417876
 20
304.2608164712626717
 30
0.0
 40
7.0
 50
40.005200884851277
 51
127.3670826313672961
  0
ARC
  5
E67A
  8
01_表面形状
 62
     3
 10
190.7099589484874116
 20
297.7004641813920216
 30
0.0
 40
17.9942097644439905
 50
137.6424242000674099
 51
167.9101064442861002
  0
LINE
  5
E67B
  8
01_表面形状
 62
     3
 10
172.5233961037239112
 20
297.2608164712625012
 30
0.0
 11
173.1148572240280998
 21
301.4692810186442102
 31
0.0
  0
LINE
  5
E67C
  8
01_表面形状
 62
     3
 10
172.5233961037239112
 20
297.2608164712625012
 30
0.0
 11
172.5233961037239112
 21
296.2608164712625012
 31
0.0
  0
LINE
  5
E67D
  8
01_表面形状
 62
     3
 10
201.0233961037239112
 20
293.7608164712625012
 30
0.0
 11
189.0177445060321872
 21
294.8111748843024884
 31
0.0
  0
ARC
  5
E67E
  8
01_表面形状
 62
     3
 10
189.1920559915274964
 20
296.803564280485773
 30
0.0
 40
2.0
 50
230.4774250962790063
 51
265.0000000000002274
  0
LINE
  5
E67F
  8
01_表面形状
 62
     3
 10
187.0233961037237975
 20
308.7608164712625012
 30
0.0
 11
187.7454952625452904
 21
308.7608164712625012
 31
0.0
  0
LINE
  5
E680
  8
01_表面形状
 62
     3
 10
207.5233961037233996
 20
310.134213643667124
 30
0.0
 11
207.5233961037233996
 21
301.2608164712625012
 31
0.0
  0
ARC
  5
E681
  8
01_表面形状
 62
     3
 10
206.5233961037233996
 20
303.2608164712625012
 30
0.0
 40
1.0
 50
270.0
 51
0.0
  0
ARC
  5
E682
  8
01_表面形状
 62
     3
 10
178.421498317154601
 20
303.2608164712622738
 30
0.0
 40
1.0
 50
153.6629108525534946
 51
270.0
  0
ARC
  5
E683
  8
01_表面形状
 62
     3
 10
211.0233961037233996
 20
305.2608164712625012
 30
0.0
 40
6.0
 50
54.3146652873372489
 51
125.6853347126626943
  0
LINE
  5
E684
  8
01_表面形状
 62
     3
 10
207.5233961037233996
 20
306.4998335747155238
 30
0.0
 11
202.0947949566902935
 21
306.4998335747155238
 31
0.0
  0
LINE
  5
E685
  8
01_表面形状
 62
     3
 10
199.1383804526545021
 20
306.4998335747155238
 30
0.0
 11
194.9240942168698894
 21
306.4998335747155238
 31
0.0
  0
LINE
  5
E686
  8
01_表面形状
 62
     3
 10
202.0947949566902935
 20
306.4998335747155238
 30
0.0
 11
201.2977288409865935
 21
302.867998835336607
 31
0.0
  0
LINE
  5
E687
  8
01_表面形状
 62
     3
 10
198.2942684569835023
 20
302.6536341071882816
 30
0.0
 11
199.1383804526545021
 21
306.4998335747155238
 31
0.0
  0
ARC
  5
E688
  8
01_表面形状
 62
     3
 10
199.0178533370398952
 20
302.0356321442724834
 30
0.0
 40
13.2098621590734204
 50
155.1357192253256017
 51
187.7213446492824005
  0
ARC
  5
E689
  8
01_表面形状
 62
     3
 10
192.0000128785428046
 20
307.2462073657080737
 30
0.0
 40
4.0267719190559381
 50
22.0944686270900092
 51
85.5456379452948568
  0
ARC
  5
E68A
  8
01_表面形状
 62
     3
 10
192.3183134473079008
 20
305.6602766217890235
 30
0.0
 40
5.6005426106920382
 50
90.0568948534174183
 51
132.3816247185002055
  0
ARC
  5
E68B
  8
01_表面形状
 62
     3
 10
197.8772159292979893
 20
301.7880844987034266
 30
0.0
 40
12.2992176511456801
 50
139.3684567276060022
 51
151.8533893308861877
  0
ARC
  5
E68C
  8
01_表面形状
 62
     3
 10
196.5506017552652906
 20
302.7650275251015728
 30
0.0
 40
5.6954546186226196
 50
141.0178155477892119
 51
173.9388903579173871
  0
ARC
  5
E68D
  8
01_表面形状
 62
     3
 10
191.8813954633492926
 20
303.2608164712627854
 30
0.0
 40
1.0
 50
173.9388903579173871
 51
270.0
  0
ARC
  5
E68E
  8
01_表面形状
 62
     3
 10
193.6323828247431891
 20
304.4199849161681755
 30
0.0
 40
2.448323663858905
 50
58.157226458833172
 51
128.0521777931095926
  0
ARC
  5
E68F
  8
01_表面形状
 62
     3
 10
182.6643705104411026
 20
301.1604399218392132
 30
0.0
 40
5.7342946779983652
 50
68.6121958341977205
 51
153.6629108525505956
  0
LINE
  5
E690
  8
01_表面形状
 62
     3
 10
186.5697256749672874
 20
306.4998335747155238
 30
0.0
 11
184.755545030596295
 21
306.4998335747154101
 31
0.0
  0
LINE
  5
E691
  8
01_表面形状
 62
     3
 10
184.6543850977901116
 20
302.994907768110977
 30
0.0
 11
186.5114316174999942
 21
306.4998335747155238
 31
0.0
  0
LINE
  5
E692
  8
01_表面形状
 62
     3
 10
183.1817366988911999
 20
302.5267251744135137
 30
0.0
 11
185.2868446339317074
 21
306.4998335747155238
 31
0.0
  0
LINE
  5
E693
  8
01_表面形状
 62
     3
 10
226.3157136171454056
 20
308.7608164712625012
 30
0.0
 11
214.5233961037243091
 21
308.7608164712622738
 31
0.0
  0
LINE
  5
E694
  8
01_表面形状
 62
     3
 10
221.0233961037239112
 20
295.2608164712625012
 30
0.0
 11
221.0233961037239112
 21
290.7608164712625012
 31
0.0
  0
ARC
  5
E695
  8
01_表面形状
 62
     3
 10
220.5233961037237975
 20
290.7608164712625012
 30
0.0
 40
0.5
 50
270.0
 51
0.0
  0
LINE
  5
E696
  8
01_表面形状
 62
     3
 10
211.0233961037239112
 20
295.2608164712625012
 30
0.0
 11
248.5233961037239112
 21
295.2608164712625012
 31
0.0
  0
ARC
  5
E697
  8
01_表面形状
 62
     3
 10
248.5233961037239112
 20
296.2608164712625012
 30
0.0
 40
1.0
 50
270.0
 51
0.0
  0
LINE
  5
E698
  8
01_表面形状
 62
     3
 10
215.5233961037243091
 20
300.2608164712625012
 30
0.0
 11
249.1017735996165925
 21
300.2608164712622738
 31
0.0
  0
ARC
  5
E699
  8
01_表面形状
 62
     3
 10
215.5233961037243091
 20
301.2608164712625012
 30
0.0
 40
1.0
 50
180.0
 51
270.0
  0
LINE
  5
E69A
  8
01_表面形状
 62
     3
 10
215.5233961037243091
 20
302.2608164712625012
 30
0.0
 11
220.2606865234070028
 21
302.2608164712625012
 31
0.0
  0
ARC
  5
E69B
  8
01_表面形状
 62
     3
 10
220.2606865234070028
 20
302.7608164712625012
 30
0.0
 40
0.5
 50
270.0
 51
12.3782599803442803
  0
LINE
  5
E69C
  8
01_表面形状
 62
     3
 10
224.2409005935182904
 20
302.2608164712625012
 30
0.0
 11
230.1653967440985014
 21
302.2608164712625012
 31
0.0
  0
ARC
  5
E69D
  8
01_表面形状
 62
     3
 10
224.2409005935182904
 20
302.7608164712625012
 30
0.0
 40
0.5
 50
192.3782599803608093
 51
270.0
  0
LINE
  5
E69E
  8
01_表面形状
 62
     3
 10
236.236881567156189
 20
302.2608164712625012
 30
0.0
 11
236.950591237670892
 21
302.2608164712622738
 31
0.0
  0
ARC
  5
E69F
  8
01_表面形状
 62
     3
 10
236.950591237670892
 20
302.7608164712622738
 30
0.0
 40
0.5
 50
269.9999999999869829
 51
27.9163892908135196
  0
LINE
  5
E6A0
  8
01_表面形状
 62
     3
 10
239.3068713805438108
 20
302.2608164712622738
 30
0.0
 11
243.6252938902931078
 21
302.2608164712625012
 31
0.0
  0
ARC
  5
E6A1
  8
01_表面形状
 62
     3
 10
239.3068713805438108
 20
302.7608164712622738
 30
0.0
 40
0.5
 50
207.9163892908113098
 51
270.0
  0
ARC
  5
E6A2
  8
01_表面形状
 62
     3
 10
240.3852987511058927
 20
304.2608164712626717
 30
0.0
 40
7.0
 50
52.6329173686327323
 51
139.9947991151487088
  0
ARC
  5
E6A3
  8
01_表面形状
 62
     3
 10
231.3368332589602971
 20
297.7004641813920216
 30
0.0
 40
17.9942097644439905
 50
12.0898935557122993
 51
42.3575757999326115
  0
LINE
  5
E6A4
  8
01_表面形状
 62
     3
 10
249.5233961037239112
 20
297.2608164712625012
 30
0.0
 11
248.9319349834196089
 21
301.4692810186442102
 31
0.0
  0
LINE
  5
E6A5
  8
01_表面形状
 62
     3
 10
249.5233961037239112
 20
297.2608164712625012
 30
0.0
 11
249.5233961037239112
 21
296.2608164712625012
 31
0.0
  0
LINE
  5
E6A6
  8
01_表面形状
 62
     3
 10
221.0233961037239112
 20
293.7608164712625012
 30
0.0
 11
233.0290477014154931
 21
294.8111748843024884
 31
0.0
  0
ARC
  5
E6A7
  8
01_表面形状
 62
     3
 10
232.8547362159202123
 20
296.803564280485773
 30
0.0
 40
2.0
 50
274.9999999999997726
 51
309.5225749037210221
  0
LINE
  5
E6A8
  8
01_表面形状
 62
     3
 10
235.0233961037239112
 20
308.7608164712625012
 30
0.0
 11
234.3012969449023899
 21
308.7608164712625012
 31
0.0
  0
LINE
  5
E6A9
  8
01_表面形状
 62
     3
 10
214.5233961037243091
 20
310.134213643667124
 30
0.0
 11
214.5233961037243091
 21
301.2608164712625012
 31
0.0
  0
ARC
  5
E6AA
  8
01_表面形状
 62
     3
 10
215.5233961037243091
 20
303.2608164712625012
 30
0.0
 40
1.0
 50
180.0
 51
270.0
  0
ARC
  5
E6AB
  8
01_表面形状
 62
     3
 10
243.6252938902931078
 20
303.2608164712622738
 30
0.0
 40
1.0
 50
270.0
 51
26.3370891474464486
  0
LINE
  5
E6AC
  8
01_表面形状
 62
     3
 10
214.5233961037243091
 20
306.4998335747155238
 30
0.0
 11
219.9519972507573868
 21
306.4998335747155238
 31
0.0
  0
LINE
  5
E6AD
  8
01_表面形状
 62
     3
 10
222.9084117547932919
 20
306.4998335747155238
 30
0.0
 11
227.122697990577791
 21
306.4998335747155238
 31
0.0
  0
LINE
  5
E6AE
  8
01_表面形状
 62
     3
 10
219.9519972507573868
 20
306.4998335747155238
 30
0.0
 11
220.7490633664612005
 21
302.867998835336607
 31
0.0
  0
LINE
  5
E6AF
  8
01_表面形状
 62
     3
 10
223.7525237504642064
 20
302.6536341071882816
 30
0.0
 11
222.9084117547932919
 21
306.4998335747155238
 31
0.0
  0
ARC
  5
E6B0
  8
01_表面形状
 62
     3
 10
223.0289388704076998
 20
302.0356321442724834
 30
0.0
 40
13.2098621590734204
 50
352.2786553507175995
 51
24.8642807746743308
  0
ARC
  5
E6B1
  8
01_表面形状
 62
     3
 10
230.0467793289051031
 20
307.2462073657080737
 30
0.0
 40
4.0267719190559381
 50
94.4543620547051574
 51
157.9055313729099908
  0
ARC
  5
E6B2
  8
01_表面形状
 62
     3
 10
229.7284787601398079
 20
305.6602766217890235
 30
0.0
 40
5.6005426106920382
 50
47.6183752814997518
 51
89.9431051465825675
  0
ARC
  5
E6B3
  8
01_表面形状
 62
     3
 10
224.169576278149691
 20
301.7880844987034266
 30
0.0
 40
12.2992176511456801
 50
28.146610669113759
 51
40.6315432723940404
  0
ARC
  5
E6B4
  8
01_表面形状
 62
     3
 10
225.4961904521823897
 20
302.7650275251015728
 30
0.0
 40
5.6954546186226196
 50
6.0611096420825623
 51
38.9821844522107881
  0
ARC
  5
E6B5
  8
01_表面形状
 62
     3
 10
230.1653967440985014
 20
303.2608164712627854
 30
0.0
 40
1.0
 50
270.0
 51
6.0611096420825623
  0
ARC
  5
E6B6
  8
01_表面形状
 62
     3
 10
228.4144093827046049
 20
304.4199849161681755
 30
0.0
 40
2.448323663858905
 50
51.9478222068904287
 51
121.8427735411668067
  0
ARC
  5
E6B7
  8
01_表面形状
 62
     3
 10
239.3824216970066914
 20
301.1604399218392132
 30
0.0
 40
5.7342946779983652
 50
26.3370891474493796
 51
111.3878041658021942
  0
LINE
  5
E6B8
  8
01_表面形状
 62
     3
 10
235.4770665324805918
 20
306.4998335747155238
 30
0.0
 11
237.2912471768514138
 21
306.4998335747154101
 31
0.0
  0
LINE
  5
E6B9
  8
01_表面形状
 62
     3
 10
237.3924071096577109
 20
302.994907768110977
 30
0.0
 11
235.5353605899477998
 21
306.4998335747155238
 31
0.0
  0
LINE
  5
E6BA
  8
01_表面形状
 62
     3
 10
238.8650555085565088
 20
302.5267251744135137
 30
0.0
 11
236.7599475735160865
 21
306.4998335747155238
 31
0.0
  0
LINE
  5
E6BB
  8
01_表面形状
 62
     3
 10
312.590690777734892
 20
290.2608164712609096
 30
0.0
 11
331.5906907777350057
 21
290.2608164712609096
 31
0.0
  0
LINE
  5
E6BC
  8
01_表面形状
 62
     3
 10
306.7983732643133976
 20
308.7608164712609096
 30
0.0
 11
318.5906907777344941
 21
308.7608164712606253
 31
0.0
  0
LINE
  5
E6BD
  8
01_表面形状
 62
     3
 10
312.090690777734892
 20
295.2608164712609096
 30
0.0
 11
312.090690777734892
 21
290.7608164712609096
 31
0.0
  0
ARC
  5
E6BE
  8
01_表面形状
 62
     3
 10
312.590690777734892
 20
290.7608164712609096
 30
0.0
 40
0.5
 50
180.0
 51
270.0
  0
LINE
  5
E6BF
  8
01_表面形状
 62
     3
 10
322.0906907777350057
 20
295.2608164712609096
 30
0.0
 11
284.590690777734892
 21
295.2608164712609096
 31
0.0
  0
ARC
  5
E6C0
  8
01_表面形状
 62
     3
 10
284.590690777734892
 20
296.2608164712609096
 30
0.0
 40
1.0
 50
180.0
 51
270.0
  0
LINE
  5
E6C1
  8
01_表面形状
 62
     3
 10
317.5906907777344941
 20
300.2608164712609096
 30
0.0
 11
284.012313281842296
 21
300.2608164712606253
 31
0.0
  0
ARC
  5
E6C2
  8
01_表面形状
 62
     3
 10
317.5906907777344941
 20
301.2608164712609096
 30
0.0
 40
1.0
 50
270.0
 51
0.0
  0
LINE
  5
E6C3
  8
01_表面形状
 62
     3
 10
317.5906907777344941
 20
302.2608164712609096
 30
0.0
 11
312.8534003580517719
 21
302.2608164712609096
 31
0.0
  0
ARC
  5
E6C4
  8
01_表面形状
 62
     3
 10
312.8534003580517719
 20
302.7608164712609096
 30
0.0
 40
0.5
 50
167.6217400196557037
 51
270.0
  0
LINE
  5
E6C5
  8
01_表面形状
 62
     3
 10
308.8731862879404844
 20
302.2608164712609096
 30
0.0
 11
302.9486901373604724
 21
302.2608164712609096
 31
0.0
  0
ARC
  5
E6C6
  8
01_表面形状
 62
     3
 10
308.8731862879404844
 20
302.7608164712609096
 30
0.0
 40
0.5
 50
270.0
 51
347.621740019640697
  0
LINE
  5
E6C7
  8
01_表面形状
 62
     3
 10
296.8772053143027279
 20
302.2608164712609096
 30
0.0
 11
296.1634956437879964
 21
302.2608164712606253
 31
0.0
  0
ARC
  5
E6C8
  8
01_表面形状
 62
     3
 10
296.1634956437879964
 20
302.7608164712606253
 30
0.0
 40
0.5
 50
152.0836107091857059
 51
270.0000000000130171
  0
LINE
  5
E6C9
  8
01_表面形状
 62
     3
 10
293.8072155009152198
 20
302.2608164712606253
 30
0.0
 11
289.4887929911657238
 21
302.2608164712609096
 31
0.0
  0
ARC
  5
E6CA
  8
01_表面形状
 62
     3
 10
293.8072155009152198
 20
302.7608164712606253
 30
0.0
 40
0.5
 50
270.0
 51
332.0836107091885765
  0
ARC
  5
E6CB
  8
01_表面形状
 62
     3
 10
292.728788130352882
 20
304.2608164712610801
 30
0.0
 40
7.0
 50
40.005200884851277
 51
127.3670826313672961
  0
ARC
  5
E6CC
  8
01_表面形状
 62
     3
 10
301.777253622498506
 20
297.7004641813903163
 30
0.0
 40
17.9942097644439905
 50
137.6424242000674099
 51
167.9101064442861002
  0
LINE
  5
E6CD
  8
01_表面形状
 62
     3
 10
283.590690777734892
 20
297.2608164712609096
 30
0.0
 11
284.1821518980391943
 21
301.4692810186425049
 31
0.0
  0
LINE
  5
E6CE
  8
01_表面形状
 62
     3
 10
283.590690777734892
 20
297.2608164712609096
 30
0.0
 11
283.590690777734892
 21
296.2608164712609096
 31
0.0
  0
LINE
  5
E6CF
  8
01_表面形状
 62
     3
 10
312.090690777734892
 20
293.7608164712607959
 30
0.0
 11
300.0850391800432817
 21
294.8111748843007831
 31
0.0
  0
ARC
  5
E6D0
  8
01_表面形状
 62
     3
 10
300.2593506655385909
 20
296.8035642804841245
 30
0.0
 40
2.0
 50
230.4774250962790063
 51
265.0000000000002274
  0
LINE
  5
E6D1
  8
01_表面形状
 62
     3
 10
298.090690777734892
 20
308.7608164712609096
 30
0.0
 11
298.8127899365564986
 21
308.7608164712609096
 31
0.0
  0
LINE
  5
E6D2
  8
01_表面形状
 62
     3
 10
318.5906907777344941
 20
310.1342136436654187
 30
0.0
 11
318.5906907777344941
 21
301.2608164712609096
 31
0.0
  0
ARC
  5
E6D3
  8
01_表面形状
 62
     3
 10
317.5906907777344941
 20
303.2608164712609096
 30
0.0
 40
1.0
 50
270.0
 51
0.0
  0
ARC
  5
E6D4
  8
01_表面形状
 62
     3
 10
289.4887929911657238
 20
303.2608164712606253
 30
0.0
 40
1.0
 50
153.6629108525557115
 51
270.0
  0
ARC
  5
E6D5
  8
01_表面形状
 62
     3
 10
322.0906907777344941
 20
305.2608164712609096
 30
0.0
 40
6.0
 50
54.3146652873372489
 51
125.6853347126626943
  0
LINE
  5
E6D6
  8
01_表面形状
 62
     3
 10
318.5906907777344941
 20
306.4998335747138754
 30
0.0
 11
313.1620896307014164
 21
306.4998335747138754
 31
0.0
  0
LINE
  5
E6D7
  8
01_表面形状
 62
     3
 10
310.2056751266655965
 20
306.4998335747138754
 30
0.0
 11
305.9913888908810122
 21
306.4998335747138754
 31
0.0
  0
LINE
  5
E6D8
  8
01_表面形状
 62
     3
 10
313.1620896307014164
 20
306.4998335747138754
 30
0.0
 11
312.3650235149976879
 21
302.8679988353349017
 31
0.0
  0
LINE
  5
E6D9
  8
01_表面形状
 62
     3
 10
309.3615631309946252
 20
302.65363410718669
 30
0.0
 11
310.2056751266655965
 21
306.4998335747138754
 31
0.0
  0
ARC
  5
E6DA
  8
01_表面形状
 62
     3
 10
310.0851480110512171
 20
302.0356321442707781
 30
0.0
 40
13.2098621590734204
 50
155.1357192253256017
 51
187.7213446492824005
  0
ARC
  5
E6DB
  8
01_表面形状
 62
     3
 10
303.0673075525539275
 20
307.2462073657064252
 30
0.0
 40
4.0267719190559381
 50
22.0944686270900092
 51
85.5456379452948568
  0
ARC
  5
E6DC
  8
01_表面形状
 62
     3
 10
303.3856081213190805
 20
305.660276621787375
 30
0.0
 40
5.6005426106920382
 50
90.0568948534174183
 51
132.3816247185002055
  0
ARC
  5
E6DD
  8
01_表面形状
 62
     3
 10
308.9445106033091974
 20
301.7880844987017213
 30
0.0
 40
12.2992176511456801
 50
139.3684567276060022
 51
151.8533893308861877
  0
ARC
  5
E6DE
  8
01_表面形状
 62
     3
 10
307.6178964292762998
 20
302.7650275250999243
 30
0.0
 40
5.6954546186226196
 50
141.0178155477879045
 51
173.9388903579173871
  0
ARC
  5
E6DF
  8
01_表面形状
 62
     3
 10
302.9486901373604724
 20
303.2608164712610801
 30
0.0
 40
1.0
 50
173.9388903579173871
 51
270.0
  0
ARC
  5
E6E0
  8
01_表面形状
 62
     3
 10
304.6996774987543972
 20
304.419984916166527
 30
0.0
 40
2.448323663858905
 50
58.157226458833172
 51
128.0521777931095926
  0
ARC
  5
E6E1
  8
01_表面形状
 62
     3
 10
293.7316651844521971
 20
301.1604399218375079
 30
0.0
 40
5.7342946779983652
 50
68.6121958341977205
 51
153.6629108525505956
  0
LINE
  5
E6E2
  8
01_表面形状
 62
     3
 10
297.637020348978524
 20
306.4998335747138754
 30
0.0
 11
295.8228397046074178
 21
306.4998335747137048
 31
0.0
  0
LINE
  5
E6E3
  8
01_表面形状
 62
     3
 10
295.7216797718011776
 20
302.9949077681092717
 30
0.0
 11
297.5787262915110887
 21
306.4998335747138754
 31
0.0
  0
LINE
  5
E6E4
  8
01_表面形状
 62
     3
 10
294.2490313729023796
 20
302.5267251744120927
 30
0.0
 11
296.3541393079427735
 21
306.4998335747138754
 31
0.0
  0
LINE
  5
E6E5
  8
01_表面形状
 62
     3
 10
337.3830082911565
 20
308.7608164712609096
 30
0.0
 11
325.5906907777354036
 21
308.7608164712606253
 31
0.0
  0
LINE
  5
E6E6
  8
01_表面形状
 62
     3
 10
332.0906907777350057
 20
295.2608164712609096
 30
0.0
 11
332.0906907777350057
 21
290.7608164712609096
 31
0.0
  0
ARC
  5
E6E7
  8
01_表面形状
 62
     3
 10
331.5906907777350057
 20
290.7608164712609096
 30
0.0
 40
0.5
 50
270.0
 51
0.0
  0
LINE
  5
E6E8
  8
01_表面形状
 62
     3
 10
322.0906907777350057
 20
295.2608164712609096
 30
0.0
 11
359.5906907777350057
 21
295.2608164712609096
 31
0.0
  0
ARC
  5
E6E9
  8
01_表面形状
 62
     3
 10
359.5906907777350057
 20
296.2608164712609096
 30
0.0
 40
1.0
 50
270.0
 51
0.0
  0
LINE
  5
E6EA
  8
01_表面形状
 62
     3
 10
326.5906907777354036
 20
300.2608164712609096
 30
0.0
 11
360.1690682736277722
 21
300.2608164712606253
 31
0.0
  0
ARC
  5
E6EB
  8
01_表面形状
 62
     3
 10
326.5906907777354036
 20
301.2608164712609096
 30
0.0
 40
1.0
 50
180.0
 51
270.0
  0
LINE
  5
E6EC
  8
01_表面形状
 62
     3
 10
326.5906907777354036
 20
302.2608164712609096
 30
0.0
 11
331.3279811974181257
 21
302.2608164712609096
 31
0.0
  0
ARC
  5
E6ED
  8
01_表面形状
 62
     3
 10
331.3279811974181257
 20
302.7608164712609096
 30
0.0
 40
0.5
 50
270.0
 51
12.3782599803442803
  0
LINE
  5
E6EE
  8
01_表面形状
 62
     3
 10
335.3081952675294133
 20
302.2608164712609096
 30
0.0
 11
341.2326914181097095
 21
302.2608164712609096
 31
0.0
  0
ARC
  5
E6EF
  8
01_表面形状
 62
     3
 10
335.3081952675294133
 20
302.7608164712609096
 30
0.0
 40
0.5
 50
192.378259980359303
 51
270.0
  0
LINE
  5
E6F0
  8
01_表面形状
 62
     3
 10
347.3041762411672835
 20
302.2608164712609096
 30
0.0
 11
348.0178859116819012
 21
302.2608164712606253
 31
0.0
  0
ARC
  5
E6F1
  8
01_表面形状
 62
     3
 10
348.0178859116819012
 20
302.7608164712606253
 30
0.0
 40
0.5
 50
269.9999999999869829
 51
27.9163892908143012
  0
LINE
  5
E6F2
  8
01_表面形状
 62
     3
 10
350.3741660545550189
 20
302.2608164712606253
 30
0.0
 11
354.6925885643042875
 21
302.2608164712609096
 31
0.0
  0
ARC
  5
E6F3
  8
01_表面形状
 62
     3
 10
350.3741660545550189
 20
302.7608164712606253
 30
0.0
 40
0.5
 50
207.9163892908113098
 51
270.0
  0
ARC
  5
E6F4
  8
01_表面形状
 62
     3
 10
351.4525934251170156
 20
304.2608164712610801
 30
0.0
 40
7.0
 50
52.6329173686327323
 51
139.9947991151487088
  0
ARC
  5
E6F5
  8
01_表面形状
 62
     3
 10
342.4041279329713916
 20
297.7004641813903163
 30
0.0
 40
17.9942097644439905
 50
12.0898935557122993
 51
42.3575757999326115
  0
LINE
  5
E6F6
  8
01_表面形状
 62
     3
 10
360.590690777734892
 20
297.2608164712609096
 30
0.0
 11
359.999229657430817
 21
301.4692810186425049
 31
0.0
  0
LINE
  5
E6F7
  8
01_表面形状
 62
     3
 10
360.590690777734892
 20
297.2608164712609096
 30
0.0
 11
360.590690777734892
 21
296.2608164712609096
 31
0.0
  0
LINE
  5
E6F8
  8
01_表面形状
 62
     3
 10
332.0906907777350057
 20
293.7608164712607959
 30
0.0
 11
344.0963423754266159
 21
294.8111748843007831
 31
0.0
  0
ARC
  5
E6F9
  8
01_表面形状
 62
     3
 10
343.9220308899313068
 20
296.8035642804841245
 30
0.0
 40
2.0
 50
274.9999999999997726
 51
309.5225749037210221
  0
LINE
  5
E6FA
  8
01_表面形状
 62
     3
 10
346.0906907777350057
 20
308.7608164712609096
 30
0.0
 11
345.3685916189133991
 21
308.7608164712609096
 31
0.0
  0
LINE
  5
E6FB
  8
01_表面形状
 62
     3
 10
325.5906907777354036
 20
310.1342136436654187
 30
0.0
 11
325.5906907777354036
 21
301.2608164712609096
 31
0.0
  0
ARC
  5
E6FC
  8
01_表面形状
 62
     3
 10
326.5906907777354036
 20
303.2608164712609096
 30
0.0
 40
1.0
 50
180.0
 51
270.0
  0
ARC
  5
E6FD
  8
01_表面形状
 62
     3
 10
354.6925885643042875
 20
303.2608164712606253
 30
0.0
 40
1.0
 50
270.0
 51
26.3370891474464486
  0
LINE
  5
E6FE
  8
01_表面形状
 62
     3
 10
325.5906907777354036
 20
306.4998335747138754
 30
0.0
 11
331.0192919247684813
 21
306.4998335747138754
 31
0.0
  0
LINE
  5
E6FF
  8
01_表面形状
 62
     3
 10
333.9757064288043011
 20
306.4998335747138754
 30
0.0
 11
338.1899926645888854
 21
306.4998335747138754
 31
0.0
  0
LINE
  5
E700
  8
01_表面形状
 62
     3
 10
331.0192919247684813
 20
306.4998335747138754
 30
0.0
 11
331.8163580404722097
 21
302.8679988353349017
 31
0.0
  0
LINE
  5
E701
  8
01_表面形状
 62
     3
 10
334.8198184244752724
 20
302.65363410718669
 30
0.0
 11
333.9757064288043011
 21
306.4998335747138754
 31
0.0
  0
ARC
  5
E702
  8
01_表面形状
 62
     3
 10
334.096233544418908
 20
302.0356321442707781
 30
0.0
 40
13.2098621590734204
 50
352.2786553507175995
 51
24.8642807746743308
  0
ARC
  5
E703
  8
01_表面形状
 62
     3
 10
341.114074002916027
 20
307.2462073657064252
 30
0.0
 40
4.0267719190559381
 50
94.4543620547051574
 51
157.9055313729099908
  0
ARC
  5
E704
  8
01_表面形状
 62
     3
 10
340.7957734341509877
 20
305.660276621787375
 30
0.0
 40
5.6005426106920382
 50
47.6183752814997518
 51
89.9431051465825675
  0
ARC
  5
E705
  8
01_表面形状
 62
     3
 10
335.2368709521609276
 20
301.7880844987017213
 30
0.0
 40
12.2992176511456801
 50
28.146610669113759
 51
40.6315432723940404
  0
ARC
  5
E706
  8
01_表面形状
 62
     3
 10
336.5634851261935978
 20
302.7650275250999243
 30
0.0
 40
5.6954546186226196
 50
6.0611096420825623
 51
38.9821844522107881
  0
ARC
  5
E707
  8
01_表面形状
 62
     3
 10
341.2326914181097095
 20
303.2608164712610801
 30
0.0
 40
1.0
 50
270.0
 51
6.0611096420825623
  0
ARC
  5
E708
  8
01_表面形状
 62
     3
 10
339.4817040567156141
 20
304.419984916166527
 30
0.0
 40
2.448323663858905
 50
51.9478222068904287
 51
121.8427735411668067
  0
ARC
  5
E709
  8
01_表面形状
 62
     3
 10
350.4497163710178143
 20
301.1604399218375079
 30
0.0
 40
5.7342946779983652
 50
26.3370891474493796
 51
111.3878041658021942
  0
LINE
  5
E70A
  8
01_表面形状
 62
     3
 10
346.5443612064917147
 20
306.4998335747138754
 30
0.0
 11
348.3585418508624798
 21
306.4998335747137048
 31
0.0
  0
LINE
  5
E70B
  8
01_表面形状
 62
     3
 10
348.4597017836687201
 20
302.9949077681092717
 30
0.0
 11
346.602655263958809
 21
306.4998335747138754
 31
0.0
  0
LINE
  5
E70C
  8
01_表面形状
 62
     3
 10
349.9323501825675748
 20
302.5267251744120927
 30
0.0
 11
347.8272422475271242
 21
306.4998335747138754
 31
0.0
  0
CIRCLE
  5
E736
  8
01_表面形状
 62
     3
 10
211.0233961037232859
 20
383.0990173589931942
 30
0.0
 40
12.3526144000000002
  0
ARC
  5
E737
  8
01_表面形状
 62
     3
 10
211.0233961037232859
 20
383.0990173589931942
 30
0.0
 40
7.0
 50
188.2132715900472988
 51
231.7867384035135103
  0
ARC
  5
E738
  8
01_表面形状
 62
     3
 10
211.0233961037232859
 20
383.0990173589931942
 30
0.0
 40
7.0
 50
248.2132107017345959
 51
291.7867892982653188
  0
ARC
  5
E739
  8
01_表面形状
 62
     3
 10
211.0233961037232859
 20
383.0990173589931942
 30
0.0
 40
7.0
 50
308.2132615964864044
 51
351.7867284099526159
  0
ARC
  5
E73A
  8
01_表面形状
 62
     3
 10
211.0233961037232859
 20
383.0990173589931942
 30
0.0
 40
7.0
 50
8.2131550478122666
 51
51.7868549457517418
  0
ARC
  5
E73B
  8
01_表面形状
 62
     3
 10
211.0233961037232859
 20
383.0990173589931942
 30
0.0
 40
7.0
 50
68.2132107017346812
 51
111.7867892982653046
  0
ARC
  5
E73C
  8
01_表面形状
 62
     3
 10
211.0233961037232859
 20
383.0990173589931942
 30
0.0
 40
7.0
 50
128.2131450542482014
 51
171.7868449521876926
  0
POLYLINE
  5
E73D
  8
01_表面形状
 62
     3
 66
     1
 10
0.0
 20
0.0
 30
0.0
 70
     1
  0
VERTEX
  5
E905
  8
01_表面形状
 62
     3
 10
201.3440488199798892
 20
380.085537279006985
 30
0.0
  0
VERTEX
  5
E906
  8
01_表面形状
 62
     3
 10
201.0132797937382918
 20
379.8613379746818168
 30
0.0
  0
VERTEX
  5
E907
  8
01_表面形状
 62
     3
 10
200.8963393460632858
 20
379.7790419926229788
 30
0.0
  0
VERTEX
  5
E908
  8
01_表面形状
 62
     3
 10
200.7466972728518044
 20
379.6487523000847091
 30
0.0
  0
VERTEX
  5
E909
  8
01_表面形状
 62
     3
 10
200.6753434322552039
 20
379.5276717786672975
 30
0.0
  0
VERTEX
  5
E90A
  8
01_表面形状
 62
     3
 10
200.5911067291881125
 20
379.4206647862312138
 30
0.0
  0
VERTEX
  5
E90B
  8
01_表面形状
 62
     3
 10
200.5259968818402001
 20
379.2981592312272028
 30
0.0
  0
VERTEX
  5
E90C
  8
01_表面形状
 62
     3
 10
200.4606144205714031
 20
379.153497106845407
 30
0.0
  0
VERTEX
  5
E90D
  8
01_表面形状
 62
     3
 10
200.4358265626194111
 20
378.9416023322856972
 30
0.0
  0
VERTEX
  5
E90E
  8
01_表面形状
 62
     3
 10
200.436703612245708
 20
378.8300988700170251
 30
0.0
  0
VERTEX
  5
E90F
  8
01_表面形状
 62
     3
 10
200.4324807801488078
 20
378.7114581868580103
 30
0.0
  0
VERTEX
  5
E910
  8
01_表面形状
 62
     3
 10
200.4676480925056126
 20
378.5588042036819161
 30
0.0
  0
VERTEX
  5
E911
  8
01_表面形状
 62
     3
 10
200.5285589570983973
 20
378.3940918444390036
 30
0.0
  0
VERTEX
  5
E912
  8
01_表面形状
 62
     3
 10
200.5825337638642907
 20
378.2644531326005222
 30
0.0
  0
VERTEX
  5
E913
  8
01_表面形状
 62
     3
 10
200.6600675410687984
 20
378.1358368026070025
 30
0.0
  0
VERTEX
  5
E914
  8
01_表面形状
 62
     3
 10
200.7557761621972929
 20
377.9923578060946738
 30
0.0
  0
VERTEX
  5
E915
  8
01_表面形状
 62
     3
 10
200.8627794226082983
 20
377.8606279903477798
 30
0.0
  0
VERTEX
  5
E916
  8
01_表面形状
 62
     3
 10
201.0241056341349122
 20
377.7414685386049769
 30
0.0
  0
VERTEX
  5
E917
  8
01_表面形状
 62
     3
 10
201.2008795834769046
 20
377.6307792436170985
 30
0.0
  0
VERTEX
  5
E918
  8
01_表面形状
 62
     3
 10
201.342750096521911
 20
377.6014540872799898
 30
0.0
  0
VERTEX
  5
E919
  8
01_表面形状
 62
     3
 10
201.4651788733960132
 20
377.5616292758057284
 30
0.0
  0
VERTEX
  5
E91A
  8
01_表面形状
 62
     3
 10
201.6302886801896932
 20
377.5457641823135759
 30
0.0
  0
VERTEX
  5
E91B
  8
01_表面形状
 62
     3
 10
201.789050276184895
 20
377.5623087988814746
 30
0.0
  0
VERTEX
  5
E91C
  8
01_表面形状
 62
     3
 10
201.9445148428816026
 20
377.5926532801777853
 30
0.0
  0
VERTEX
  5
E91D
  8
01_表面形状
 62
     3
 10
202.0963279693471861
 20
377.6445249147416234
 30
0.0
  0
VERTEX
  5
E91E
  8
01_表面形状
 62
     3
 10
202.2141430233789094
 20
377.704554683104277
 30
0.0
  0
VERTEX
  5
E91F
  8
01_表面形状
 62
     3
 10
202.3283927949580061
 20
377.7849571216020763
 30
0.0
  0
VERTEX
  5
E920
  8
01_表面形状
 62
     3
 10
202.4205708474023027
 20
377.8429996589196094
 30
0.0
  0
VERTEX
  5
E921
  8
01_表面形状
 62
     3
 10
202.5454434460125981
 20
377.9444907211387203
 30
0.0
  0
VERTEX
  5
E922
  8
01_表面形状
 62
     3
 10
202.6143702433348892
 20
378.0198928355980001
 30
0.0
  0
VERTEX
  5
E923
  8
01_表面形状
 62
     3
 10
202.709635034587393
 20
378.1394786981148854
 30
0.0
  0
VERTEX
  5
E924
  8
01_表面形状
 62
     3
 10
202.7719384252262955
 20
378.3042976521036849
 30
0.0
  0
VERTEX
  5
E925
  8
01_表面形状
 62
     3
 10
202.8254784181563082
 20
378.4692671128403276
 30
0.0
  0
VERTEX
  5
E926
  8
01_表面形状
 62
     3
 10
202.8185608068964996
 20
378.68771475305482
 30
0.0
  0
VERTEX
  5
E927
  8
01_表面形状
 62
     3
 10
202.7217767697246984
 20
379.6374091016398893
 30
0.0
  0
VERTEX
  5
E928
  8
01_表面形状
 62
     3
 10
202.725471608234102
 20
379.7026837655881195
 30
0.0
  0
VERTEX
  5
E929
  8
01_表面形状
 62
     3
 10
202.7535505813216901
 20
379.7599709915533026
 30
0.0
  0
VERTEX
  5
E92A
  8
01_表面形状
 62
     3
 10
202.7919477678690896
 20
379.8038544677746131
 30
0.0
  0
VERTEX
  5
E92B
  8
01_表面形状
 62
     3
 10
202.8099318140432104
 20
379.8205990195539812
 30
0.0
  0
VERTEX
  5
E92C
  8
01_表面形状
 62
     3
 10
202.8572338395055965
 20
379.8447006053397104
 30
0.0
  0
VERTEX
  5
E92D
  8
01_表面形状
 62
     3
 10
202.91822568836389
 20
379.8648101053564119
 30
0.0
  0
VERTEX
  5
E92E
  8
01_表面形状
 62
     3
 10
202.9545789698780993
 20
379.8634957556487279
 30
0.0
  0
VERTEX
  5
E92F
  8
01_表面形状
 62
     3
 10
203.046696221074086
 20
379.844454427142125
 30
0.0
  0
VERTEX
  5
E930
  8
01_表面形状
 62
     3
 10
203.0836629508590931
 20
379.835096915501083
 30
0.0
  0
VERTEX
  5
E931
  8
01_表面形状
 62
     3
 10
203.1361665626697004
 20
379.787863296216301
 30
0.0
  0
VERTEX
  5
E932
  8
01_表面形状
 62
     3
 10
203.2099695658490077
 20
379.7181729067232823
 30
0.0
  0
VERTEX
  5
E933
  8
01_表面形状
 62
     3
 10
203.2704176546475878
 20
379.6135189752699262
 30
0.0
  0
VERTEX
  5
E934
  8
01_表面形状
 62
     3
 10
203.3024151745339907
 20
379.5199306815856062
 30
0.0
  0
VERTEX
  5
E935
  8
01_表面形状
 62
     3
 10
203.3234421781025958
 20
379.4356816907878169
 30
0.0
  0
VERTEX
  5
E936
  8
01_表面形状
 62
     3
 10
203.3239941991415094
 20
379.3654567554257824
 30
0.0
  0
VERTEX
  5
E937
  8
01_表面形状
 62
     3
 10
203.2990859986057899
 20
379.3086921088927284
 30
0.0
  0
VERTEX
  5
E938
  8
01_表面形状
 62
     3
 10
203.2449412928064874
 20
379.2304470389186122
 30
0.0
  0
VERTEX
  5
E939
  8
01_表面形状
 62
     3
 10
203.1501884929325001
 20
379.1342065473771186
 30
0.0
  0
VERTEX
  5
E93A
  8
01_表面形状
 62
     3
 10
202.9040294167006948
 20
378.9609739035490179
 30
0.0
  0
VERTEX
  5
E93B
  8
01_表面形状
 62
     3
 10
203.248913519443704
 20
378.2841007403238791
 30
0.0
  0
VERTEX
  5
E93C
  8
01_表面形状
 62
     3
 10
203.5594608054599064
 20
378.4736743538433075
 30
0.0
  0
VERTEX
  5
E93D
  8
01_表面形状
 62
     3
 10
203.6787483658081044
 20
378.5559637319901185
 30
0.0
  0
VERTEX
  5
E93E
  8
01_表面形状
 62
     3
 10
203.816917488741808
 20
378.6512797755007114
 30
0.0
  0
VERTEX
  5
E93F
  8
01_表面形状
 62
     3
 10
203.9178964544690018
 20
378.7700696655870729
 30
0.0
  0
VERTEX
  5
E940
  8
01_表面形状
 62
     3
 10
203.9914323248765129
 20
378.8697414807862742
 30
0.0
  0
VERTEX
  5
E941
  8
01_表面形状
 62
     3
 10
204.0455401953759917
 20
378.9661915355392807
 30
0.0
  0
VERTEX
  5
E942
  8
01_表面形状
 62
     3
 10
204.1308245808052106
 20
379.1109108354426098
 30
0.0
  0
VERTEX
  5
E943
  8
01_表面形状
 62
     3
 10
204.1461916011944879
 20
379.3023148807200755
 30
0.0
  0
VERTEX
  5
E944
  8
01_表面形状
 62
     3
 10
204.1545687002866032
 20
379.4237346902928039
 30
0.0
  0
VERTEX
  5
E945
  8
01_表面形状
 62
     3
 10
204.1481475247846049
 20
379.5441858422674954
 30
0.0
  0
VERTEX
  5
E946
  8
01_表面形状
 62
     3
 10
204.1214762588213034
 20
379.6723589305169071
 30
0.0
  0
VERTEX
  5
E947
  8
01_表面形状
 62
     3
 10
204.0567093520577089
 20
379.8882123402937054
 30
0.0
  0
VERTEX
  5
E948
  8
01_表面形状
 62
     3
 10
204.0027481713657096
 20
380.0201792156582883
 30
0.0
  0
VERTEX
  5
E949
  8
01_表面形状
 62
     3
 10
203.8971121063007956
 20
380.1807754049430059
 30
0.0
  0
VERTEX
  5
E94A
  8
01_表面形状
 62
     3
 10
203.813005219008204
 20
380.297647769268508
 30
0.0
  0
VERTEX
  5
E94B
  8
01_表面形状
 62
     3
 10
203.711004886975303
 20
380.3981521296241795
 30
0.0
  0
VERTEX
  5
E94C
  8
01_表面形状
 62
     3
 10
203.5311799609644083
 20
380.5500096654063213
 30
0.0
  0
VERTEX
  5
E94D
  8
01_表面形状
 62
     3
 10
203.3487495306897017
 20
380.6191094514675228
 30
0.0
  0
VERTEX
  5
E94E
  8
01_表面形状
 62
     3
 10
203.1768863367894085
 20
380.6490693926946278
 30
0.0
  0
VERTEX
  5
E94F
  8
01_表面形状
 62
     3
 10
203.03456309668411
 20
380.6531112945605742
 30
0.0
  0
VERTEX
  5
E950
  8
01_表面形状
 62
     3
 10
202.8913568815877966
 20
380.6421760142425228
 30
0.0
  0
VERTEX
  5
E951
  8
01_表面形状
 62
     3
 10
202.7370196365376955
 20
380.612051570163203
 30
0.0
  0
VERTEX
  5
E952
  8
01_表面形状
 62
     3
 10
202.6093483903505046
 20
380.573777275283021
 30
0.0
  0
VERTEX
  5
E953
  8
01_表面形状
 62
     3
 10
202.4131836989531052
 20
380.4738263727238063
 30
0.0
  0
VERTEX
  5
E954
  8
01_表面形状
 62
     3
 10
202.3016103625705
 20
380.3934987100034846
 30
0.0
  0
VERTEX
  5
E955
  8
01_表面形状
 62
     3
 10
202.1935483321462925
 20
380.315700318718882
 30
0.0
  0
VERTEX
  5
E956
  8
01_表面形状
 62
     3
 10
202.0932947291614994
 20
380.2245882993606756
 30
0.0
  0
VERTEX
  5
E957
  8
01_表面形状
 62
     3
 10
201.9878626838062132
 20
380.0906565846914873
 30
0.0
  0
VERTEX
  5
E958
  8
01_表面形状
 62
     3
 10
201.8858172219420908
 20
379.8941606694972961
 30
0.0
  0
VERTEX
  5
E959
  8
01_表面形状
 62
     3
 10
201.8686782905573978
 20
379.7146474658326838
 30
0.0
  0
VERTEX
  5
E95A
  8
01_表面形状
 62
     3
 10
201.8795128981184064
 20
379.5521823420463079
 30
0.0
  0
VERTEX
  5
E95B
  8
01_表面形状
 62
     3
 10
201.9863873515797934
 20
378.6170739633525955
 30
0.0
  0
VERTEX
  5
E95C
  8
01_表面形状
 62
     3
 10
201.9789068248446995
 20
378.578068575876614
 30
0.0
  0
VERTEX
  5
E95D
  8
01_表面形状
 62
     3
 10
201.9395982162793928
 20
378.5007680509332886
 30
0.0
  0
VERTEX
  5
E95E
  8
01_表面形状
 62
     3
 10
201.9099872904556037
 20
378.4505211923420802
 30
0.0
  0
VERTEX
  5
E95F
  8
01_表面形状
 62
     3
 10
201.8577339881786088
 20
378.4181648201191024
 30
0.0
  0
VERTEX
  5
E960
  8
01_表面形状
 62
     3
 10
201.7662623677470037
 20
378.3550630737382221
 30
0.0
  0
VERTEX
  5
E961
  8
01_表面形状
 62
     3
 10
201.7201739464040884
 20
378.3405038295096006
 30
0.0
  0
VERTEX
  5
E962
  8
01_表面形状
 62
     3
 10
201.6374094442880107
 20
378.3376594723571884
 30
0.0
  0
VERTEX
  5
E963
  8
01_表面形状
 62
     3
 10
201.5880086059551957
 20
378.3537291689585231
 30
0.0
  0
VERTEX
  5
E964
  8
01_表面形状
 62
     3
 10
201.5274675806400921
 20
378.3734226790601269
 30
0.0
  0
VERTEX
  5
E965
  8
01_表面形状
 62
     3
 10
201.432409372403896
 20
378.4329450134856074
 30
0.0
  0
VERTEX
  5
E966
  8
01_表面形状
 62
     3
 10
201.3861150607428954
 20
378.4761591487555847
 30
0.0
  0
VERTEX
  5
E967
  8
01_表面形状
 62
     3
 10
201.364624685000706
 20
378.506708952472593
 30
0.0
  0
VERTEX
  5
E968
  8
01_表面形状
 62
     3
 10
201.3269826179804909
 20
378.5653274082902158
 30
0.0
  0
VERTEX
  5
E969
  8
01_表面形状
 62
     3
 10
201.2765245357103936
 20
378.6817834959235256
 30
0.0
  0
VERTEX
  5
E96A
  8
01_表面形状
 62
     3
 10
201.2389922694017912
 20
378.7735721865705045
 30
0.0
  0
VERTEX
  5
E96B
  8
01_表面形状
 62
     3
 10
201.2234530432249073
 20
378.8227244299794165
 30
0.0
  0
VERTEX
  5
E96C
  8
01_表面形状
 62
     3
 10
201.228590230908992
 20
378.8570181140156024
 30
0.0
  0
VERTEX
  5
E96D
  8
01_表面形状
 62
     3
 10
201.2354866233347934
 20
378.9360308195711013
 30
0.0
  0
VERTEX
  5
E96E
  8
01_表面形状
 62
     3
 10
201.2506496801402989
 20
379.0057490599616017
 30
0.0
  0
VERTEX
  5
E96F
  8
01_表面形状
 62
     3
 10
201.3438595917517944
 20
379.1372082325872839
 30
0.0
  0
VERTEX
  5
E970
  8
01_表面形状
 62
     3
 10
201.3840670670807071
 20
379.183160656349628
 30
0.0
  0
VERTEX
  5
E971
  8
01_表面形状
 62
     3
 10
201.4656693764137003
 20
379.2405876828262876
 30
0.0
  0
VERTEX
  5
E972
  8
01_表面形状
 62
     3
 10
201.6970123968523865
 20
379.392807254976276
 30
0.0
  0
SEQEND
  5
E973
  8
01_表面形状
 62
     3
  0
POLYLINE
  5
E73E
  8
01_表面形状
 62
     3
 66
     1
 10
0.0
 20
0.0
 30
0.0
 70
     1
  0
VERTEX
  5
E974
  8
01_表面形状
 62
     3
 10
218.0270863425512005
 20
378.8468189780703028
 30
0.0
  0
VERTEX
  5
E975
  8
01_表面形状
 62
     3
 10
217.9844436876718987
 20
379.0182582261007838
 30
0.0
  0
VERTEX
  5
E976
  8
01_表面形状
 62
     3
 10
217.9785915754268046
 20
379.1679019468057845
 30
0.0
  0
VERTEX
  5
E977
  8
01_表面形状
 62
     3
 10
217.9734752847220136
 20
379.2987173260322038
 30
0.0
  0
VERTEX
  5
E978
  8
01_表面形状
 62
     3
 10
217.9726385651611054
 20
379.4671658137161216
 30
0.0
  0
VERTEX
  5
E979
  8
01_表面形状
 62
     3
 10
218.0158152542697962
 20
379.6281496270436264
 30
0.0
  0
VERTEX
  5
E97A
  8
01_表面形状
 62
     3
 10
218.0616505373101859
 20
379.7371390110661196
 30
0.0
  0
VERTEX
  5
E97B
  8
01_表面形状
 62
     3
 10
218.1143636689926097
 20
379.8559966192572119
 30
0.0
  0
VERTEX
  5
E97C
  8
01_表面形状
 62
     3
 10
218.1715819632740079
 20
379.9869375436397831
 30
0.0
  0
VERTEX
  5
E97D
  8
01_表面形状
 62
     3
 10
218.2610006134731009
 20
380.1094507921882837
 30
0.0
  0
VERTEX
  5
E97E
  8
01_表面形状
 62
     3
 10
218.3503034407364112
 20
380.2364193393792107
 30
0.0
  0
VERTEX
  5
E97F
  8
01_表面形状
 62
     3
 10
218.4663002555894025
 20
380.3742351938381034
 30
0.0
  0
VERTEX
  5
E980
  8
01_表面形状
 62
     3
 10
218.6148465557214138
 20
380.4584369956447745
 30
0.0
  0
VERTEX
  5
E981
  8
01_表面形状
 62
     3
 10
218.7224490213573063
 20
380.5049095534303092
 30
0.0
  0
VERTEX
  5
E982
  8
01_表面形状
 62
     3
 10
218.8369340248571859
 20
380.5698040918064748
 30
0.0
  0
VERTEX
  5
E983
  8
01_表面形状
 62
     3
 10
218.9818982146693997
 20
380.6141773893893969
 30
0.0
  0
VERTEX
  5
E984
  8
01_表面形状
 62
     3
 10
219.1359022056448964
 20
380.644974373208413
 30
0.0
  0
VERTEX
  5
E985
  8
01_表面形状
 62
     3
 10
219.2629769770265966
 20
380.6515903938661154
 30
0.0
  0
VERTEX
  5
E986
  8
01_表面形状
 62
     3
 10
219.3967053312113933
 20
380.6530536299069922
 30
0.0
  0
VERTEX
  5
E987
  8
01_表面形状
 62
     3
 10
219.5426311358417024
 20
380.6352671388459044
 30
0.0
  0
VERTEX
  5
E988
  8
01_表面形状
 62
     3
 10
219.6788266908147023
 20
380.6123447829381803
 30
0.0
  0
VERTEX
  5
E989
  8
01_表面形状
 62
     3
 10
219.7939665506227982
 20
380.6052191931286188
 30
0.0
  0
VERTEX
  5
E98A
  8
01_表面形状
 62
     3
 10
219.8924907343703126
 20
380.5841965875222854
 30
0.0
  0
VERTEX
  5
E98B
  8
01_表面形状
 62
     3
 10
220.0524341003471989
 20
380.5218838283585114
 30
0.0
  0
VERTEX
  5
E98C
  8
01_表面形状
 62
     3
 10
220.1862686565835077
 20
380.4735306543863089
 30
0.0
  0
VERTEX
  5
E98D
  8
01_表面形状
 62
     3
 10
220.2858486419044937
 20
380.4205830369862724
 30
0.0
  0
VERTEX
  5
E98E
  8
01_表面形状
 62
     3
 10
220.4252434084746142
 20
380.3788077665906826
 30
0.0
  0
VERTEX
  5
E98F
  8
01_表面形状
 62
     3
 10
220.617792266255492
 20
380.2637327985376032
 30
0.0
  0
VERTEX
  5
E990
  8
01_表面形状
 62
     3
 10
220.7445546945178876
 20
380.1646430744859231
 30
0.0
  0
VERTEX
  5
E991
  8
01_表面形状
 62
     3
 10
220.8352148847577041
 20
380.1071049902648156
 30
0.0
  0
VERTEX
  5
E992
  8
01_表面形状
 62
     3
 10
220.9603588995285861
 20
380.029462434857578
 30
0.0
  0
VERTEX
  5
E993
  8
01_表面形状
 62
     3
 10
221.0725680234899926
 20
379.9434584687314782
 30
0.0
  0
VERTEX
  5
E994
  8
01_表面形状
 62
     3
 10
221.1980253470360935
 20
379.806768214101794
 30
0.0
  0
VERTEX
  5
E995
  8
01_表面形状
 62
     3
 10
221.3628889118564871
 20
379.6248786763335943
 30
0.0
  0
VERTEX
  5
E996
  8
01_表面形状
 62
     3
 10
221.468714287298809
 20
379.5029229119072056
 30
0.0
  0
VERTEX
  5
E997
  8
01_表面形状
 62
     3
 10
221.5674065139272955
 20
379.2871206965190254
 30
0.0
  0
VERTEX
  5
E998
  8
01_表面形状
 62
     3
 10
221.6264996373724045
 20
379.1199727080050934
 30
0.0
  0
VERTEX
  5
E999
  8
01_表面形状
 62
     3
 10
221.6470649279141867
 20
379.0016040916298152
 30
0.0
  0
VERTEX
  5
E99A
  8
01_表面形状
 62
     3
 10
221.673181278899591
 20
378.8705530366918879
 30
0.0
  0
VERTEX
  5
E99B
  8
01_表面形状
 62
     3
 10
221.6957174915393125
 20
378.7103825711261038
 30
0.0
  0
VERTEX
  5
E99C
  8
01_表面形状
 62
     3
 10
221.6732338862420022
 20
378.5509945232686846
 30
0.0
  0
VERTEX
  5
E99D
  8
01_表面形状
 62
     3
 10
221.6246333958474111
 20
378.4165567146104081
 30
0.0
  0
VERTEX
  5
E99E
  8
01_表面形状
 62
     3
 10
221.5936566842406137
 20
378.3010603840265276
 30
0.0
  0
VERTEX
  5
E99F
  8
01_表面形状
 62
     3
 10
221.5470885278124911
 20
378.162237200132779
 30
0.0
  0
VERTEX
  5
E9A0
  8
01_表面形状
 62
     3
 10
221.4698250016541863
 20
378.0441250080737063
 30
0.0
  0
VERTEX
  5
E9A1
  8
01_表面形状
 62
     3
 10
221.4116592423478949
 20
377.9730674114209137
 30
0.0
  0
VERTEX
  5
E9A2
  8
01_表面形状
 62
     3
 10
221.3429114425528041
 20
377.8647202343964864
 30
0.0
  0
VERTEX
  5
E9A3
  8
01_表面形状
 62
     3
 10
221.2887617477053084
 20
377.8085192154680954
 30
0.0
  0
VERTEX
  5
E9A4
  8
01_表面形状
 62
     3
 10
221.2009254092205879
 20
377.6972909900356967
 30
0.0
  0
VERTEX
  5
E9A5
  8
01_表面形状
 62
     3
 10
221.0447405338076976
 20
377.6211449802416951
 30
0.0
  0
VERTEX
  5
E9A6
  8
01_表面形状
 62
     3
 10
220.9269166059841041
 20
377.5624503203353015
 30
0.0
  0
VERTEX
  5
E9A7
  8
01_表面形状
 62
     3
 10
220.8142207372989958
 20
377.4699011680236822
 30
0.0
  0
VERTEX
  5
E9A8
  8
01_表面形状
 62
     3
 10
220.5714355383346117
 20
377.4141462235533027
 30
0.0
  0
VERTEX
  5
E9A9
  8
01_表面形状
 62
     3
 10
220.3960869681600059
 20
377.3995669163339244
 30
0.0
  0
VERTEX
  5
E9AA
  8
01_表面形状
 62
     3
 10
220.2471205800916039
 20
377.3979380422720169
 30
0.0
  0
VERTEX
  5
E9AB
  8
01_表面形状
 62
     3
 10
220.0970007894781872
 20
377.4327580043415082
 30
0.0
  0
VERTEX
  5
E9AC
  8
01_表面形状
 62
     3
 10
219.9412840327752008
 20
377.4480432861648751
 30
0.0
  0
VERTEX
  5
E9AD
  8
01_表面形状
 62
     3
 10
219.7951351342343003
 20
377.4658580116159214
 30
0.0
  0
VERTEX
  5
E9AE
  8
01_表面形状
 62
     3
 10
219.6434088071418955
 20
377.5090705972830278
 30
0.0
  0
VERTEX
  5
E9AF
  8
01_表面形状
 62
     3
 10
219.499957506680488
 20
377.5637634635832001
 30
0.0
  0
VERTEX
  5
E9B0
  8
01_表面形状
 62
     3
 10
219.3206099313104005
 20
377.6255927018131047
 30
0.0
  0
VERTEX
  5
E9B1
  8
01_表面形状
 62
     3
 10
219.1861998784893046
 20
377.6970597946080943
 30
0.0
  0
VERTEX
  5
E9B2
  8
01_表面形状
 62
     3
 10
219.0565661111047007
 20
377.7767455680522062
 30
0.0
  0
VERTEX
  5
E9B3
  8
01_表面形状
 62
     3
 10
218.8996534989753115
 20
377.8705228775413048
 30
0.0
  0
VERTEX
  5
E9B4
  8
01_表面形状
 62
     3
 10
218.7603144005126978
 20
377.9554710937571826
 30
0.0
  0
VERTEX
  5
E9B5
  8
01_表面形状
 62
     3
 10
218.6077260781829921
 20
378.061185309688824
 30
0.0
  0
VERTEX
  5
E9B6
  8
01_表面形状
 62
     3
 10
218.5061007625577076
 20
378.168075721634807
 30
0.0
  0
VERTEX
  5
E9B7
  8
01_表面形状
 62
     3
 10
218.4175873427473107
 20
378.2782140664488111
 30
0.0
  0
VERTEX
  5
E9B8
  8
01_表面形状
 62
     3
 10
218.3102304814273964
 20
378.3951777604655717
 30
0.0
  0
VERTEX
  5
E9B9
  8
01_表面形状
 62
     3
 10
218.2201662808068932
 20
378.495187963830972
 30
0.0
  0
VERTEX
  5
E9BA
  8
01_表面形状
 62
     3
 10
218.1450772710574029
 20
378.6346884767522738
 30
0.0
  0
VERTEX
  5
E9BB
  8
01_表面形状
 62
     3
 10
218.0840607458482907
 20
378.7480467422498123
 30
0.0
  0
SEQEND
  5
E9BC
  8
01_表面形状
 62
     3
  0
POLYLINE
  5
E73F
  8
01_表面形状
 62
     3
 66
     1
 10
0.0
 20
0.0
 30
0.0
 70
     1
  0
VERTEX
  5
E9BD
  8
01_表面形状
 62
     3
 10
203.2261962209404089
 20
377.07523586215558
 30
0.0
  0
VERTEX
  5
E9BE
  8
01_表面形状
 62
     3
 10
204.1572057954305137
 20
373.9244133702642898
 30
0.0
  0
VERTEX
  5
E9BF
  8
01_表面形状
 62
     3
 10
204.8578183001498019
 20
374.6617103035353011
 30
0.0
 42
0.3262597201020667
  0
VERTEX
  5
E9C0
  8
01_表面形状
 62
     3
 10
217.183465379377111
 20
374.6576876936416056
 30
0.0
  0
VERTEX
  5
E9C1
  8
01_表面形状
 62
     3
 10
217.8591281286203127
 20
373.9313737974295009
 30
0.0
  0
VERTEX
  5
E9C2
  8
01_表面形状
 62
     3
 10
218.8235019345599994
 20
377.0721450984983107
 30
0.0
  0
VERTEX
  5
E9C3
  8
01_表面形状
 62
     3
 10
215.621327297387495
 20
376.3369316626519776
 30
0.0
  0
VERTEX
  5
E9C4
  8
01_表面形状
 62
     3
 10
216.2908165417676969
 20
375.6172540689075845
 30
0.0
 42
-0.3164916484887445
  0
VERTEX
  5
E9C5
  8
01_表面形状
 62
     3
 10
205.761875191459211
 20
375.6131040753779757
 30
0.0
  0
VERTEX
  5
E9C6
  8
01_表面形状
 62
     3
 10
206.4203933289786903
 20
376.3061025588847883
 30
0.0
  0
SEQEND
  5
E9C7
  8
01_表面形状
 62
     3
  0
POLYLINE
  5
E740
  8
01_表面形状
 62
     3
 66
     1
 10
0.0
 20
0.0
 30
0.0
 70
     1
  0
VERTEX
  5
E9C8
  8
01_表面形状
 62
     3
 10
219.0611069020353057
 20
378.9687883463744242
 30
0.0
  0
VERTEX
  5
E9C9
  8
01_表面形状
 62
     3
 10
219.0276838086728901
 20
379.0434847450080724
 30
0.0
  0
VERTEX
  5
E9CA
  8
01_表面形状
 62
     3
 10
219.0033758397264876
 20
379.0998702742452906
 30
0.0
  0
VERTEX
  5
E9CB
  8
01_表面形状
 62
     3
 10
218.9959184417587039
 20
379.1607407634185734
 30
0.0
  0
VERTEX
  5
E9CC
  8
01_表面形状
 62
     3
 10
218.9853265144573982
 20
379.2409850652829846
 30
0.0
  0
VERTEX
  5
E9CD
  8
01_表面形状
 62
     3
 10
218.9977095063244974
 20
379.2844177092425184
 30
0.0
  0
VERTEX
  5
E9CE
  8
01_表面形状
 62
     3
 10
219.0385732043625069
 20
379.394237084403585
 30
0.0
  0
VERTEX
  5
E9CF
  8
01_表面形状
 62
     3
 10
219.0598274060264998
 20
379.4550665221735244
 30
0.0
  0
VERTEX
  5
E9D0
  8
01_表面形状
 62
     3
 10
219.0873038474724126
 20
379.4909316146179776
 30
0.0
  0
VERTEX
  5
E9D1
  8
01_表面形状
 62
     3
 10
219.1645945242258904
 20
379.5813610402710765
 30
0.0
  0
VERTEX
  5
E9D2
  8
01_表面形状
 62
     3
 10
219.1875953741025
 20
379.6002500127185044
 30
0.0
  0
VERTEX
  5
E9D3
  8
01_表面形状
 62
     3
 10
219.2601351263475067
 20
379.6262881107821272
 30
0.0
  0
VERTEX
  5
E9D4
  8
01_表面形状
 62
     3
 10
219.3683473935788868
 20
379.6695319191397857
 30
0.0
  0
VERTEX
  5
E9D5
  8
01_表面形状
 62
     3
 10
219.4576094456224098
 20
379.6855539934060175
 30
0.0
  0
VERTEX
  5
E9D6
  8
01_表面形状
 62
     3
 10
219.5557433144265076
 20
379.6854056546646916
 30
0.0
  0
VERTEX
  5
E9D7
  8
01_表面形状
 62
     3
 10
219.7126128770100024
 20
379.6481218173051957
 30
0.0
  0
VERTEX
  5
E9D8
  8
01_表面形状
 62
     3
 10
219.8211532113141118
 20
379.6211507892613213
 30
0.0
  0
VERTEX
  5
E9D9
  8
01_表面形状
 62
     3
 10
219.9639743156533029
 20
379.5604479335876817
 30
0.0
  0
VERTEX
  5
E9DA
  8
01_表面形状
 62
     3
 10
220.2476780909969136
 20
379.409599960439607
 30
0.0
  0
VERTEX
  5
E9DB
  8
01_表面形状
 62
     3
 10
220.3481688884606058
 20
379.3425440819423216
 30
0.0
  0
VERTEX
  5
E9DC
  8
01_表面形状
 62
     3
 10
220.4615221575159012
 20
379.2265489909401026
 30
0.0
  0
VERTEX
  5
E9DD
  8
01_表面形状
 62
     3
 10
220.5424951803269948
 20
379.1445372335560933
 30
0.0
  0
VERTEX
  5
E9DE
  8
01_表面形状
 62
     3
 10
220.5915809975728052
 20
379.075516570972411
 30
0.0
  0
VERTEX
  5
E9DF
  8
01_表面形状
 62
     3
 10
220.6297010642846885
 20
379.0016191234984717
 30
0.0
  0
VERTEX
  5
E9E0
  8
01_表面形状
 62
     3
 10
220.6550297959003899
 20
378.9186716017781009
 30
0.0
  0
VERTEX
  5
E9E1
  8
01_表面形状
 62
     3
 10
220.6806244015550931
 20
378.8483256647900816
 30
0.0
  0
VERTEX
  5
E9E2
  8
01_表面形状
 62
     3
 10
220.6832065910321035
 20
378.7981624887733005
 30
0.0
  0
VERTEX
  5
E9E3
  8
01_表面形状
 62
     3
 10
220.6856967325981032
 20
378.734493547329123
 30
0.0
  0
VERTEX
  5
E9E4
  8
01_表面形状
 62
     3
 10
220.6788344113163021
 20
378.7116161835725734
 30
0.0
  0
VERTEX
  5
E9E5
  8
01_表面形状
 62
     3
 10
220.6621340904920885
 20
378.6678362254373269
 30
0.0
  0
VERTEX
  5
E9E6
  8
01_表面形状
 62
     3
 10
220.6183221047297138
 20
378.571370137835288
 30
0.0
  0
VERTEX
  5
E9E7
  8
01_表面形状
 62
     3
 10
220.5746600585812018
 20
378.4997395077664919
 30
0.0
  0
VERTEX
  5
E9E8
  8
01_表面形状
 62
     3
 10
220.5541276713275067
 20
378.4802029947417736
 30
0.0
  0
VERTEX
  5
E9E9
  8
01_表面形状
 62
     3
 10
220.5100259264224007
 20
378.4439849523507746
 30
0.0
  0
VERTEX
  5
E9EA
  8
01_表面形状
 62
     3
 10
220.4601060403734039
 20
378.4216088415362833
 30
0.0
  0
VERTEX
  5
E9EB
  8
01_表面形状
 62
     3
 10
220.3905786202273873
 20
378.3904443124399108
 30
0.0
  0
VERTEX
  5
E9EC
  8
01_表面形状
 62
     3
 10
220.331238525096893
 20
378.3722802057893091
 30
0.0
  0
VERTEX
  5
E9ED
  8
01_表面形状
 62
     3
 10
220.2041133231772108
 20
378.3754305204333832
 30
0.0
  0
VERTEX
  5
E9EE
  8
01_表面形状
 62
     3
 10
220.1219211065707952
 20
378.3625767083141227
 30
0.0
  0
VERTEX
  5
E9EF
  8
01_表面形状
 62
     3
 10
220.0401359038455098
 20
378.3646033651514244
 30
0.0
  0
VERTEX
  5
E9F0
  8
01_表面形状
 62
     3
 10
219.9150919913302005
 20
378.3856485279895878
 30
0.0
  0
VERTEX
  5
E9F1
  8
01_表面形状
 62
     3
 10
219.8561275939894131
 20
378.4109612577818211
 30
0.0
  0
VERTEX
  5
E9F2
  8
01_表面形状
 62
     3
 10
219.7572828034381018
 20
378.4533932215733216
 30
0.0
  0
VERTEX
  5
E9F3
  8
01_表面形状
 62
     3
 10
219.6510397039724864
 20
378.4929057735876086
 30
0.0
  0
VERTEX
  5
E9F4
  8
01_表面形状
 62
     3
 10
219.5731664536183132
 20
378.5343117152751233
 30
0.0
  0
VERTEX
  5
E9F5
  8
01_表面形状
 62
     3
 10
219.4791827487555906
 20
378.5842837375728891
 30
0.0
  0
VERTEX
  5
E9F6
  8
01_表面形状
 62
     3
 10
219.3827322322032956
 20
378.6441241109955058
 30
0.0
  0
VERTEX
  5
E9F7
  8
01_表面形状
 62
     3
 10
219.3206822540005874
 20
378.6835045365415908
 30
0.0
  0
VERTEX
  5
E9F8
  8
01_表面形状
 62
     3
 10
219.2551649470316875
 20
378.7492829085911126
 30
0.0
  0
VERTEX
  5
E9F9
  8
01_表面形状
 62
     3
 10
219.1632660336173899
 20
378.8266764439031249
 30
0.0
  0
VERTEX
  5
E9FA
  8
01_表面形状
 62
     3
 10
219.131369639886401
 20
378.8582508334637851
 30
0.0
  0
VERTEX
  5
E9FB
  8
01_表面形状
 62
     3
 10
219.0773646745190035
 20
378.9385846240472233
 30
0.0
  0
SEQEND
  5
E9FC
  8
01_表面形状
 62
     3
  0
CIRCLE
  5
E741
  8
01_表面形状
 62
     3
 10
211.0233961037232859
 20
383.0990173589931942
 30
0.0
 40
3.149999999999999
  0
CIRCLE
  5
E742
  8
01_表面形状
 62
     3
 10
211.0233961037232859
 20
383.0990173589931942
 30
0.0
 40
4.0
  0
LINE
  5
E743
  8
01_表面形状
 62
     3
 10
207.2706041037232865
 20
376.5990393589930818
 30
0.0
 11
203.5178341037232883
 21
383.0990263589931146
 31
0.0
  0
LINE
  5
E744
  8
01_表面形状
 62
     3
 10
218.5289341037232873
 20
383.0990393589930818
 30
0.0
 11
214.7761641037234028
 21
389.5990263589932283
 31
0.0
  0
LINE
  5
E745
  8
01_表面形状
 62
     3
 10
203.517858103723313
 20
383.0990393589930818
 30
0.0
 11
207.2706281037233111
 21
389.5990263589932283
 31
0.0
  0
LINE
  5
E746
  8
01_表面形状
 62
     3
 10
214.7761881037233138
 20
376.5990393589930818
 30
0.0
 11
218.5289581037233972
 21
383.0990263589931146
 31
0.0
  0
LINE
  5
E747
  8
01_表面形状
 62
     3
 10
207.2706191037233054
 20
389.5990173589931942
 30
0.0
 11
214.7761731037234085
 21
389.5990173589931942
 31
0.0
  0
LINE
  5
E748
  8
01_表面形状
 62
     3
 10
207.2706191037233054
 20
376.5990173589930805
 30
0.0
 11
214.7761731037234085
 21
376.5990173589930805
 31
0.0
  0
LINE
  5
E75B
  8
01_表面形状
 62
     3
 10
202.282280021855712
 20
391.2887408420489805
 30
0.0
 11
205.2125078077091871
 21
393.7474938964239186
 31
0.0
  0
LINE
  5
E75C
  8
01_表面形状
 62
     3
 10
203.0739377137518034
 20
390.3452799436270197
 30
0.0
 11
203.5554548927024996
 21
390.7493208308899852
 31
0.0
  0
LINE
  5
E75D
  8
01_表面形状
 62
     3
 10
205.2629946161401904
 20
392.1821167830472064
 30
0.0
 11
206.0041654996051932
 21
392.8040329980021284
 31
0.0
  0
LINE
  5
E75E
  8
01_表面形状
 62
     3
 10
205.1007187942161067
 20
391.4501378531552973
 30
0.0
 11
206.3179017468229972
 21
388.8398805877636732
 31
0.0
  0
ARC
  5
E75F
  8
01_表面形状
 62
     3
 10
202.6781088678037008
 20
390.8170103928379717
 30
0.0
 40
0.6158003669999998
 50
130.0000000000005969
 51
310.0
  0
ARC
  5
E760
  8
01_表面形状
 62
     3
 10
205.6083366536572044
 20
393.2757634472130803
 30
0.0
 40
0.6158003669999998
 50
310.0
 51
130.0000000000005969
  0
ARC
  5
E761
  8
01_表面形状
 62
     3
 10
205.7597970789506974
 20
388.5796321070830004
 30
0.0
 40
0.6158003669999998
 50
204.2944179854843867
 51
24.9999999999986606
  0
ARC
  5
E762
  8
01_表面形状
 62
     3
 10
205.6588234620882929
 20
391.7103863338361975
 30
0.0
 40
0.6158003669999998
 50
130.0000000000005969
 51
204.9999999999986073
  0
LINE
  5
E763
  8
01_表面形状
 62
     3
 10
204.1278150009949002
 20
390.6224316497721816
 30
0.0
 11
205.2049395381332886
 21
388.3125306256280282
 31
0.0
  0
ARC
  5
E764
  8
01_表面形状
 62
     3
 10
203.7929522002712872
 20
390.4662825613634141
 30
0.0
 40
0.3694802202
 50
24.9999999999986606
 51
130.0000000000005969
  0
LINE
  5
E765
  8
01_表面形状
 62
     3
 10
210.2820394114914961
 20
395.153716907962405
 30
0.0
 11
211.7530714035542871
 21
395.2308104279205736
 31
0.0
  0
LINE
  5
E766
  8
01_表面形状
 62
     3
 10
209.4463335625137859
 20
390.1767557549302978
 30
0.0
 11
210.9173655545764916
 21
390.2538492748885801
 31
0.0
  0
LINE
  5
E767
  8
01_表面形状
 62
     3
 10
210.21104017515691
 20
390.8334777884709865
 30
0.0
 11
210.3428618390533131
 21
390.8403862691374115
 31
0.0
  0
ARC
  5
E768
  8
01_表面形状
 62
     3
 10
210.2655134365051879
 20
392.3162817107349269
 30
0.0
 40
1.4779208807999979
 50
272.9999999999990905
 51
348.0000000000034106
  0
ARC
  5
E769
  8
01_表面形状
 62
     3
 10
211.8304198061024124
 20
393.7549149863232856
 30
0.0
 40
1.4779208807999979
 50
348.0000000000034106
 51
92.9999999999990763
  0
ARC
  5
E76A
  8
01_表面形状
 62
     3
 10
210.3980620153135987
 20
392.9398737455665014
 30
0.0
 40
2.2168813211999989
 50
92.9999999999990763
 51
168.0000000000034106
  0
LINE
  5
E76B
  8
01_表面形状
 62
     3
 10
210.856543127014902
 20
394.5671799137135736
 30
0.0
 11
210.9883647909109072
 21
394.5740883943798281
 31
0.0
  0
ARC
  5
E76C
  8
01_表面形状
 62
     3
 10
210.9338915295629135
 20
393.0912844721162855
 30
0.0
 40
1.4779208807999979
 50
92.9999999999990763
 51
167.9999999999836007
  0
LINE
  5
E76D
  8
01_表面形状
 62
     3
 10
208.2296248698704915
 20
393.4007892893994267
 30
0.0
 11
207.9233603963369035
 21
391.9599282257497066
 31
0.0
  0
ARC
  5
E76E
  8
01_表面形状
 62
     3
 10
209.368985159965689
 20
391.6526511965275859
 30
0.0
 40
1.4779208807999979
 50
168.0000000000034106
 51
272.9999999999990905
  0
LINE
  5
E76F
  8
01_表面形状
 62
     3
 10
209.4882667659342985
 20
393.3985615013385768
 30
0.0
 11
209.1957247310390073
 21
392.0222594356843047
 31
0.0
  0
ARC
  5
E770
  8
01_表面形状
 62
     3
 10
210.1594745734581977
 20
391.8174080828695196
 30
0.0
 40
0.9852805871999999
 50
167.9999999999836007
 51
272.9999999999990905
  0
LINE
  5
E771
  8
01_表面形状
 62
     3
 10
213.2760445697313116
 20
393.4476379571012785
 30
0.0
 11
212.9697800961976952
 21
392.0067768934515016
 31
0.0
  0
ARC
  5
E772
  8
01_表面形状
 62
     3
 10
210.8013429507543037
 20
392.4676924372844837
 30
0.0
 40
2.2168813211999989
 50
272.9999999999990905
 51
348.0000000000034106
  0
LINE
  5
E773
  8
01_表面形状
 62
     3
 10
212.0036802350288951
 20
393.3853067471669078
 30
0.0
 11
211.7111382001338882
 21
392.0090046815126925
 31
0.0
  0
ARC
  5
E774
  8
01_表面形状
 62
     3
 10
211.0399303926095911
 20
393.5901580999815224
 30
0.0
 40
0.9852805871999999
 50
348.0000000000034106
 51
92.9999999999990763
  0
LINE
  5
E775
  8
01_表面形状
 62
     3
 10
215.7164207596159997
 20
392.6182355620866247
 30
0.0
 11
213.5894203216442975
 21
391.1288938216430893
 31
0.0
  0
ARC
  5
E776
  8
01_表面形状
 62
     3
 10
213.9426289016516023
 20
390.6244596921411016
 30
0.0
 40
0.6158003669998711
 50
124.9999999999886029
 51
304.9999999999886882
  0
LINE
  5
E777
  8
01_表面形状
 62
     3
 10
214.2958374816589924
 20
390.1200255626392277
 30
0.0
 11
214.4310001992940897
 21
390.2146675164120211
 31
0.0
  0
LINE
  5
E778
  8
01_表面形状
 62
     3
 10
214.4310001992940897
 20
390.2146675164120211
 30
0.0
 11
216.4011262382946086
 21
388.5615354837133282
 31
0.0
  0
ARC
  5
E779
  8
01_表面形状
 62
     3
 10
216.8728566875057027
 20
388.1657066377651972
 30
0.0
 40
0.6158003670000376
 50
140.0000000000044906
 51
320.0000000000044906
  0
LINE
  5
E77A
  8
01_表面形状
 62
     3
 10
217.3445871367167967
 20
387.7698777918172937
 30
0.0
 11
218.6904052129401919
 21
389.3737613191348146
 31
0.0
  0
ARC
  5
E77B
  8
01_表面形状
 62
     3
 10
216.9921755957809069
 20
390.798745164547995
 30
0.0
 40
2.216881321200006
 50
319.9999999999881766
 51
50.0709175439673189
  0
ARC
  5
E77C
  8
01_表面形状
 62
     3
 10
216.9879716476432066
 20
390.8022726958795943
 30
0.0
 40
2.216881321199923
 50
49.9290824560372286
 51
125.3312556800375006
  0
POLYLINE
  5
E77D
  8
01_表面形状
 62
     3
 66
     1
 10
0.0
 20
0.0
 30
0.0
  0
VERTEX
  5
E9FD
  8
01_表面形状
 62
     3
 10
216.4723823575477866
 20
391.6440586919882207
 30
0.0
  0
VERTEX
  5
E9FE
  8
01_表面形状
 62
     3
 10
215.6106201946473959
 20
391.0406463293815023
 30
0.0
 42
0.4931454260313034
  0
VERTEX
  5
E9FF
  8
01_表面形状
 62
     3
 10
215.5679999287067972
 20
390.0644817506682784
 30
0.0
  0
VERTEX
  5
EA00
  8
01_表面形状
 62
     3
 10
216.3252246350319865
 20
389.4290947788722974
 30
0.0
 42
0.4142135623731421
  0
VERTEX
  5
EA01
  8
01_表面形状
 62
     3
 10
217.1927839301910126
 20
389.5049963821351753
 30
0.0
  0
VERTEX
  5
EA02
  8
01_表面形状
 62
     3
 10
217.7469443145184016
 20
390.1654190110306786
 30
0.0
 42
0.4150294844298412
  0
VERTEX
  5
EA03
  8
01_表面形状
 62
     3
 10
217.6233973192468056
 20
391.5552747220255014
 30
0.0
 42
0.3426517265994233
  0
VERTEX
  5
EA04
  8
01_表面形状
 62
     3
 10
216.4158599174421909
 20
391.6044360231883275
 30
0.0
  0
SEQEND
  5
EA05
  8
01_表面形状
 62
     3
  0
LINE
  5
E77F
  8
01_表面形状
 62
     3
 10
185.388433244164105
 20
403.478784146484486
 30
0.0
 11
185.388433244164105
 21
395.4491941668213144
 31
0.0
  0
LINE
  5
E780
  8
01_表面形状
 62
     3
 10
185.5233961037233996
 20
370.8047439980114177
 30
0.0
 11
185.5233961037233996
 21
362.7352500457461133
 31
0.0
  0
LINE
  5
E787
  8
01_表面形状
 62
     3
 10
174.5233961037232007
 20
377.8075147368638795
 30
0.0
 11
174.5233961037232007
 21
356.3990173589933192
 31
0.0
  0
ARC
  5
E788
  8
01_表面形状
 62
     3
 10
211.0233961037233996
 20
268.4990173589931146
 30
0.0
 40
140.0
 50
82.1437913891891611
 51
85.0672590413921199
  0
ARC
  5
E789
  8
01_表面形状
 62
     3
 10
211.0233961037233996
 20
268.4990173589931146
 30
0.0
 40
140.0
 50
94.9327409586081643
 51
97.8562086108111089
  0
LINE
  5
E78A
  8
01_表面形状
 62
     3
 10
236.523396103723087
 20
391.8762891961404193
 30
0.0
 11
236.5233961037232007
 21
390.310119909921525
 31
0.0
  0
LINE
  5
E78B
  8
01_表面形状
 62
     3
 10
236.5233961037232859
 20
375.887914808064977
 30
0.0
 11
236.5233961037232859
 21
374.3217455218464806
 31
0.0
  0
LINE
  5
E78C
  8
01_表面形状
 62
     3
 10
236.6583589632824101
 20
403.478784146484486
 30
0.0
 11
236.6583589632824953
 21
395.4491941668213144
 31
0.0
  0
LINE
  5
E78D
  8
01_表面形状
 62
     3
 10
236.5233961037232007
 20
370.8047439980114177
 30
0.0
 11
236.5233961037232007
 21
362.7352500457461133
 31
0.0
  0
LINE
  5
E78E
  8
01_表面形状
 62
     3
 10
247.5233961037233996
 20
377.8075147368639932
 30
0.0
 11
247.5233961037232859
 21
356.3990173589933192
 31
0.0
  0
VIEWPORT
  5
542
 67
     1
  8
0
 10
185.6233038915470104
 20
148.4223392912986128
 30
0.0
 40
450.4060917083240838
 41
309.2814998667927853
 68
     1
 69
     1
1001
ACAD
1000
MVIEW
1002
{
1070
    16
1010
0.0
1020
0.0
1030
0.0
1010
0.0
1020
0.0
1030
1.0
1040
0.0
1040
309.2814998667927853
1040
185.6233038915470104
1040
148.4223392912986128
1040
50.0
1040
0.0
1040
0.0
1070
     0
1070
  1000
1070
     1
1070
     1
1070
     0
1070
     0
1070
     0
1070
     0
1040
0.0
1040
0.0
1040
0.0
1040
10.0
1040
10.0
1040
10.0
1040
10.0
1070
     0
1002
{
1002
}
1002
}
  0
ENDSEC
  0
EOF
