  0
SECTION
  2
HEADER
  9
$ACADVER
  1
AC1015
  9
$ACADMAINTVER
 70
    20
  9
$DWGCODEPAGE
  3
ANSI_932
  9
$INSBASE
 10
0.0
 20
0.0
 30
0.0
  9
$EXTMIN
 10
137.5548681488665
 20
125.4704643333542
 30
-0.0015258207003583
  9
$EXTMAX
 10
348.5701931735462
 20
428.1072071911719
 30
0.0000000349246037
  9
$LIMMIN
 10
0.0
 20
0.0
  9
$LIMMAX
 10
297.0
 20
210.0
  9
$ORTHOMODE
 70
     0
  9
$REGENMODE
 70
     1
  9
$FILLMODE
 70
     1
  9
$QTEXTMODE
 70
     0
  9
$MIRRTEXT
 70
     0
  9
$LTSCALE
 40
0.4
  9
$ATTMODE
 70
     1
  9
$TEXTSIZE
 40
5.0
  9
$TRACEWID
 40
1.0
  9
$TEXTSTYLE
  7
Standard
  9
$CLAYER
  8
Defpoints
  9
$CELTYPE
  6
ByLayer
  9
$CECOLOR
 62
   256
  9
$CELTSCALE
 40
1.0
  9
$DISPSILH
 70
     0
  9
$DIMSCALE
 40
1.0
  9
$DIMASZ
 40
2.5
  9
$DIMEXO
 40
1.0
  9
$DIMDLI
 40
10.0
  9
$DIMRND
 40
0.0
  9
$DIMDLE
 40
0.0
  9
$DIMEXE
 40
1.0
  9
$DIMTP
 40
0.1
  9
$DIMTM
 40
0.1
  9
$DIMTXT
 40
2.5
  9
$DIMCEN
 40
0.0
  9
$DIMTSZ
 40
0.0
  9
$DIMTOL
 70
     0
  9
$DIMLIM
 70
     0
  9
$DIMTIH
 70
     0
  9
$DIMTOH
 70
     0
  9
$DIMSE1
 70
     0
  9
$DIMSE2
 70
     0
  9
$DIMTAD
 70
     3
  9
$DIMZIN
 70
     8
  9
$DIMBLK
  1

  9
$DIMASO
 70
     1
  9
$DIMSHO
 70
     1
  9
$DIMPOST
  1

  9
$DIMAPOST
  1

  9
$DIMALT
 70
     0
  9
$DIMALTD
 70
     2
  9
$DIMALTF
 40
25.4
  9
$DIMLFAC
 40
1.0
  9
$DIMTOFL
 70
     1
  9
$DIMTVP
 40
0.0
  9
$DIMTIX
 70
     0
  9
$DIMSOXD
 70
     0
  9
$DIMSAH
 70
     0
  9
$DIMBLK1
  1

  9
$DIMBLK2
  1

  9
$DIMSTYLE
  2
部品図用_1：1
  9
$DIMCLRD
 70
   256
  9
$DIMCLRE
 70
   256
  9
$DIMCLRT
 70
   256
  9
$DIMTFAC
 40
0.7
  9
$DIMGAP
 40
1.0
  9
$DIMJUST
 70
     0
  9
$DIMSD1
 70
     0
  9
$DIMSD2
 70
     0
  9
$DIMTOLJ
 70
     0
  9
$DIMTZIN
 70
     0
  9
$DIMALTZ
 70
     0
  9
$DIMALTTZ
 70
     0
  9
$DIMUPT
 70
     0
  9
$DIMDEC
 70
     2
  9
$DIMTDEC
 70
     2
  9
$DIMALTU
 70
     2
  9
$DIMALTTD
 70
     2
  9
$DIMTXSTY
  7
Standard
  9
$DIMAUNIT
 70
     0
  9
$DIMADEC
 70
     2
  9
$DIMALTRND
 40
0.0
  9
$DIMAZIN
 70
     2
  9
$DIMDSEP
 70
    46
  9
$DIMATFIT
 70
     3
  9
$DIMFRAC
 70
     0
  9
$DIMLDRBLK
  1

  9
$DIMLUNIT
 70
     2
  9
$DIMLWD
 70
    -1
  9
$DIMLWE
 70
    -1
  9
$DIMTMOVE
 70
     0
  9
$LUNITS
 70
     2
  9
$LUPREC
 70
     2
  9
$SKETCHINC
 40
1.0
  9
$FILLETRAD
 40
2.0
  9
$AUNITS
 70
     1
  9
$AUPREC
 70
     3
  9
$MENU
  1
.
  9
$ELEVATION
 40
0.0
  9
$PELEVATION
 40
0.0
  9
$THICKNESS
 40
0.0
  9
$LIMCHECK
 70
     0
  9
$CHAMFERA
 40
0.0
  9
$CHAMFERB
 40
0.0
  9
$CHAMFERC
 40
0.0
  9
$CHAMFERD
 40
0.0
  9
$SKPOLY
 70
     0
  9
$TDCREATE
 40
2457035.733900463
  9
$TDUCREATE
 40
2457035.358906840
  9
$TDUPDATE
 40
2459413.473935185
  9
$TDUUPDATE
 40
2459413.098935185
  9
$TDINDWG
 40
2.9400882176
  9
$TDUSRTIMER
 40
2.9400882176
  9
$USRTIMER
 70
     1
  9
$ANGBASE
 50
0.0
  9
$ANGDIR
 70
     0
  9
$PDMODE
 70
     3
  9
$PDSIZE
 40
0.0
  9
$PLINEWID
 40
0.0
  9
$SPLFRAME
 70
     0
  9
$SPLINETYPE
 70
     6
  9
$SPLINESEGS
 70
     8
  9
$HANDSEED
  5
EAFF
  9
$SURFTAB1
 70
     6
  9
$SURFTAB2
 70
     6
  9
$SURFTYPE
 70
     6
  9
$SURFU
 70
     6
  9
$SURFV
 70
     6
  9
$UCSBASE
  2

  9
$UCSNAME
  2

  9
$UCSORG
 10
0.0
 20
0.0
 30
0.0
  9
$UCSXDIR
 10
1.0
 20
0.0
 30
0.0
  9
$UCSYDIR
 10
0.0
 20
1.0
 30
0.0
  9
$UCSORTHOREF
  2

  9
$UCSORTHOVIEW
 70
     0
  9
$UCSORGTOP
 10
0.0
 20
0.0
 30
0.0
  9
$UCSORGBOTTOM
 10
0.0
 20
0.0
 30
0.0
  9
$UCSORGLEFT
 10
0.0
 20
0.0
 30
0.0
  9
$UCSORGRIGHT
 10
0.0
 20
0.0
 30
0.0
  9
$UCSORGFRONT
 10
0.0
 20
0.0
 30
0.0
  9
$UCSORGBACK
 10
0.0
 20
0.0
 30
0.0
  9
$PUCSBASE
  2

  9
$PUCSNAME
  2

  9
$PUCSORG
 10
0.0
 20
0.0
 30
0.0
  9
$PUCSXDIR
 10
1.0
 20
0.0
 30
0.0
  9
$PUCSYDIR
 10
0.0
 20
1.0
 30
0.0
  9
$PUCSORTHOREF
  2

  9
$PUCSORTHOVIEW
 70
     0
  9
$PUCSORGTOP
 10
0.0
 20
0.0
 30
0.0
  9
$PUCSORGBOTTOM
 10
0.0
 20
0.0
 30
0.0
  9
$PUCSORGLEFT
 10
0.0
 20
0.0
 30
0.0
  9
$PUCSORGRIGHT
 10
0.0
 20
0.0
 30
0.0
  9
$PUCSORGFRONT
 10
0.0
 20
0.0
 30
0.0
  9
$PUCSORGBACK
 10
0.0
 20
0.0
 30
0.0
  9
$USERI1
 70
     0
  9
$USERI2
 70
     0
  9
$USERI3
 70
     0
  9
$USERI4
 70
     0
  9
$USERI5
 70
     0
  9
$USERR1
 40
0.0
  9
$USERR2
 40
0.0
  9
$USERR3
 40
0.0
  9
$USERR4
 40
0.0
  9
$USERR5
 40
0.0
  9
$WORLDVIEW
 70
     1
  9
$SHADEDGE
 70
     3
  9
$SHADEDIF
 70
    70
  9
$TILEMODE
 70
     1
  9
$MAXACTVP
 70
    64
  9
$PINSBASE
 10
0.0
 20
0.0
 30
0.0
  9
$PLIMCHECK
 70
     0
  9
$PEXTMIN
 10
1.000000000000000E+20
 20
1.000000000000000E+20
 30
1.000000000000000E+20
  9
$PEXTMAX
 10
-1.000000000000000E+20
 20
-1.000000000000000E+20
 30
-1.000000000000000E+20
  9
$PLIMMIN
 10
-5.873748779296875
 20
-5.873749732971191
  9
$PLIMMAX
 10
291.1369018554688
 20
204.0995779037475
  9
$UNITMODE
 70
     0
  9
$VISRETAIN
 70
     1
  9
$PLINEGEN
 70
     0
  9
$PSLTSCALE
 70
     1
  9
$TREEDEPTH
 70
  3020
  9
$CMLSTYLE
  2
Standard
  9
$CMLJUST
 70
     0
  9
$CMLSCALE
 40
20.0
  9
$PROXYGRAPHICS
 70
     1
  9
$MEASUREMENT
 70
     1
  9
$CELWEIGHT
370
    -1
  9
$ENDCAPS
280
     0
  9
$JOINSTYLE
280
     0
  9
$LWDISPLAY
290
     0
  9
$INSUNITS
 70
     4
  9
$HYPERLINKBASE
  1

  9
$STYLESHEET
  1
MONOCHROME.CTB
  9
$XEDIT
290
     1
  9
$CEPSNTYPE
380
     0
  9
$PSTYLEMODE
290
     1
  9
$FINGERPRINTGUID
  2
{3BD3B1FF-6C72-4E1D-A855-263834877C29}
  9
$VERSIONGUID
  2
{532023E3-B815-424D-9054-E72DA4ED0021}
  9
$EXTNAMES
290
     1
  9
$PSVPSCALE
 40
0.0
  9
$OLESTARTUP
290
     0
  0
ENDSEC
  0
SECTION
  2
CLASSES
  0
CLASS
  1
ACDBDICTIONARYWDFLT
  2
AcDbDictionaryWithDefault
  3
ObjectDBX Classes
 90
        0
280
     0
281
     0
  0
CLASS
  1
MATERIAL
  2
AcDbMaterial
  3
ObjectDBX Classes
 90
     1153
280
     0
281
     0
  0
CLASS
  1
VISUALSTYLE
  2
AcDbVisualStyle
  3
ObjectDBX Classes
 90
     4095
280
     0
281
     0
  0
CLASS
  1
TABLESTYLE
  2
AcDbTableStyle
  3
ObjectDBX Classes
 90
     4095
280
     0
281
     0
  0
CLASS
  1
DICTIONARYVAR
  2
AcDbDictionaryVar
  3
ObjectDBX Classes
 90
        0
280
     0
281
     0
  0
CLASS
  1
SORTENTSTABLE
  2
AcDbSortentsTable
  3
ObjectDBX Classes
 90
        0
280
     0
281
     0
  0
CLASS
  1
DIMASSOC
  2
AcDbDimAssoc
  3
"AcDbDimAssoc|Product Desc:     AcDim ARX App For Dimension|Company:          Autodesk, Inc.|WEB Address:      www.autodesk.com"
 90
    32768
280
     0
281
     0
  0
CLASS
  1
SCALE
  2
AcDbScale
  3
ObjectDBX Classes
 90
     1153
280
     0
281
     0
  0
CLASS
  1
MLEADERSTYLE
  2
AcDbMLeaderStyle
  3
ACDB_MLEADERSTYLE_CLASS
 90
     4095
280
     0
281
     0
  0
CLASS
  1
CELLSTYLEMAP
  2
AcDbCellStyleMap
  3
ObjectDBX Classes
 90
     1152
280
     0
281
     0
  0
CLASS
  1
MULTILEADER
  2
AcDbMLeader
  3
ACDB_MLEADER_CLASS
 90
    33793
280
     0
281
     1
  0
CLASS
  1
ACAD_EVALUATION_GRAPH
  2
AcDbEvalGraph
  3
ObjectDBX Classes
 90
    33921
280
     0
281
     0
  0
CLASS
  1
ACAECUSTOBJ
  2
AcAeEditorObj
  3
AcAeEditorObj
 90
    33792
280
     0
281
     0
  0
CLASS
  1
PLOTSETTINGS
  2
AcDbPlotSettings
  3
ObjectDBX Classes
 90
        0
280
     0
281
     0
  0
CLASS
  1
ACDBSECTIONVIEWSTYLE
  2
AcDbSectionViewStyle
  3
ObjectDBX Classes
 90
     1025
280
     0
281
     0
  0
CLASS
  1
ACDBDETAILVIEWSTYLE
  2
AcDbDetailViewStyle
  3
ObjectDBX Classes
 90
     1025
280
     0
281
     0
  0
CLASS
  1
ACDBPLACEHOLDER
  2
AcDbPlaceHolder
  3
ObjectDBX Classes
 90
        0
280
     0
281
     0
  0
CLASS
  1
LAYOUT
  2
AcDbLayout
  3
ObjectDBX Classes
 90
        0
280
     0
281
     0
  0
ENDSEC
  0
SECTION
  2
TABLES
  0
TABLE
  2
VPORT
  5
8
102
{ACAD_XDICTIONARY
360
366A
102
}
330
0
100
AcDbSymbolTable
 70
     1
  0
VPORT
  5
28
330
8
100
AcDbSymbolTableRecord
100
AcDbViewportTableRecord
  2
*Active
 70
     0
 10
0.0
 20
0.0
 11
1.0
 21
1.0
 12
243.0625306612064
 22
276.7888357622631
 13
0.0
 23
0.0
 14
10.0
 24
10.0
 15
10.0
 25
10.0
 16
0.0
 26
0.0
 36
1.0
 17
0.0
 27
0.0
 37
0.0
 40
304.6724160160542
 41
1.622895622895622
 42
50.0
 43
0.0
 44
0.0
 50
0.0
 51
0.0
 71
     0
 72
  1000
 73
     1
 74
     3
 75
     0
 76
     0
 77
     0
 78
     0
281
     0
 65
     1
110
0.0
120
0.0
130
0.0
111
1.0
121
0.0
131
0.0
112
0.0
122
1.0
132
0.0
 79
     0
146
0.0
1001
ACAD_NAV_VCDISPLAY
1070
     3
  0
ENDTAB
  0
TABLE
  2
LTYPE
  5
5
330
0
100
AcDbSymbolTable
 70
     3
  0
LTYPE
  5
29
330
5
100
AcDbSymbolTableRecord
100
AcDbLinetypeTableRecord
  2
ByBlock
 70
     0
  3

 72
    65
 73
     0
 40
0.0
  0
LTYPE
  5
2A
330
5
100
AcDbSymbolTableRecord
100
AcDbLinetypeTableRecord
  2
ByLayer
 70
     0
  3

 72
    65
 73
     0
 40
0.0
  0
LTYPE
  5
2B
330
5
100
AcDbSymbolTableRecord
100
AcDbLinetypeTableRecord
  2
Continuous
 70
     0
  3
Solid line
 72
    65
 73
     0
 40
0.0
  0
LTYPE
  5
EA9A
330
5
100
AcDbSymbolTableRecord
100
AcDbLinetypeTableRecord
  2
CENTER
 70
     0
  3
Center ____ _ ____ _ ____ _ ____ _ ____ _ ____
 72
    65
 73
     4
 40
50.8
 49
31.75
 74
     0
 49
-6.349999999999999
 74
     0
 49
6.349999999999999
 74
     0
 49
-6.349999999999999
 74
     0
  0
ENDTAB
  0
TABLE
  2
LAYER
  5
2
102
{ACAD_XDICTIONARY
360
81
102
}
330
0
100
AcDbSymbolTable
 70
     5
  0
LAYER
  5
25
102
{ACAD_XDICTIONARY
360
3620
102
}
330
2
100
AcDbSymbolTableRecord
100
AcDbLayerTableRecord
  2
0
 70
     0
 62
     7
  6
Continuous
370
    30
390
F
  0
LAYER
  5
1EA
102
{ACAD_XDICTIONARY
360
93D8
102
}
330
2
100
AcDbSymbolTableRecord
100
AcDbLayerTableRecord
  2
Defpoints
 70
     0
 62
     7
  6
CENTER
290
     0
370
    13
390
F
  0
ENDTAB
  0
TABLE
  2
STYLE
  5
3
330
0
100
AcDbSymbolTable
 70
     3
  0
STYLE
  5
26
330
3
100
AcDbSymbolTableRecord
100
AcDbTextStyleTableRecord
  2
Standard
 70
     0
 40
0.0
 41
1.0
 50
0.0
 71
     0
 42
5.0
  3
isocp.shx
  4
extfont2.shx
  0
STYLE
  5
DBFD
330
3
100
AcDbSymbolTableRecord
100
AcDbTextStyleTableRecord
  2
MX_NOTE_STANDARD
 70
     0
 40
0.0
 41
1.0
 50
0.0
 71
     0
 42
3.299999999999998
  3
txt.shx
  4
extfont.shx
  0
STYLE
  5
EA99
330
3
100
AcDbSymbolTableRecord
100
AcDbTextStyleTableRecord
  2

 70
     1
 40
0.0
 41
1.0
 50
0.0
 71
     0
 42
5.0
  3
ltypeshp.shx
  4

  0
ENDTAB
  0
TABLE
  2
VIEW
  5
6
330
0
100
AcDbSymbolTable
 70
     3
  0
ENDTAB
  0
TABLE
  2
UCS
  5
7
330
0
100
AcDbSymbolTable
 70
     0
  0
ENDTAB
  0
TABLE
  2
APPID
  5
9
330
0
100
AcDbSymbolTable
 70
    38
  0
APPID
  5
27
330
9
100
AcDbSymbolTableRecord
100
AcDbRegAppTableRecord
  2
ACAD
 70
     0
  0
APPID
  5
76
330
9
100
AcDbSymbolTableRecord
100
AcDbRegAppTableRecord
  2
AcAecLayerStandard
 70
     0
  0
APPID
  5
117
330
9
100
AcDbSymbolTableRecord
100
AcDbRegAppTableRecord
  2
ACAD_PSEXT
 70
     0
  0
APPID
  5
2A4
330
9
100
AcDbSymbolTableRecord
100
AcDbRegAppTableRecord
  2
ACAD_EXEMPT_FROM_CAD_STANDARDS
 70
     0
  0
APPID
  5
185C
330
9
100
AcDbSymbolTableRecord
100
AcDbRegAppTableRecord
  2
GENIUS_GENODEF_13
 70
     0
  0
APPID
  5
185D
330
9
100
AcDbSymbolTableRecord
100
AcDbRegAppTableRecord
  2
GENIUS_GENOBJ-N-CEN_13
 70
     0
  0
APPID
  5
185E
330
9
100
AcDbSymbolTableRecord
100
AcDbRegAppTableRecord
  2
GENIUS_GENCEN_19
 70
     0
  0
APPID
  5
185F
330
9
100
AcDbSymbolTableRecord
100
AcDbRegAppTableRecord
  2
GENIUS_GENTRA_14
 70
     0
  0
APPID
  5
1860
330
9
100
AcDbSymbolTableRecord
100
AcDbRegAppTableRecord
  2
GENIUS_GENOREF_13
 70
     0
  0
APPID
  5
1861
330
9
100
AcDbSymbolTableRecord
100
AcDbRegAppTableRecord
  2
GENIUS_GENSCREG_15
 70
     0
  0
APPID
  5
1862
330
9
100
AcDbSymbolTableRecord
100
AcDbRegAppTableRecord
  2
GENIUS_GENOBJ-N-SDF_13
 70
     0
  0
APPID
  5
1863
330
9
100
AcDbSymbolTableRecord
100
AcDbRegAppTableRecord
  2
GENIUS_GENOBJ-N-LIB_13
 70
     0
  0
APPID
  5
1864
330
9
100
AcDbSymbolTableRecord
100
AcDbRegAppTableRecord
  2
GENIUS_GENOBJ-N-RSBK_13
 70
     0
  0
APPID
  5
1865
330
9
100
AcDbSymbolTableRecord
100
AcDbRegAppTableRecord
  2
GENIUS_GENSCALE_13
 70
     0
  0
APPID
  5
1866
330
9
100
AcDbSymbolTableRecord
100
AcDbRegAppTableRecord
  2
GENIUS_AMGTXT_16
 70
     0
  0
APPID
  5
1867
330
9
100
AcDbSymbolTableRecord
100
AcDbRegAppTableRecord
  2
GENIUS_GENFIL_13
 70
     0
  0
APPID
  5
1868
330
9
100
AcDbSymbolTableRecord
100
AcDbRegAppTableRecord
  2
GENIUS_GENOBJ-N-CHA_13
 70
     0
  0
APPID
  5
1869
330
9
100
AcDbSymbolTableRecord
100
AcDbRegAppTableRecord
  2
GENIUS_GENOBJ-N-FIL_13
 70
     0
  0
APPID
  5
186A
330
9
100
AcDbSymbolTableRecord
100
AcDbRegAppTableRecord
  2
GENIUS_GENDTOL_13
 70
     0
  0
APPID
  5
186B
330
9
100
AcDbSymbolTableRecord
100
AcDbRegAppTableRecord
  2
ACAD_DIMASSOC_DIMLFAC
 70
     0
  0
APPID
  5
186C
330
9
100
AcDbSymbolTableRecord
100
AcDbRegAppTableRecord
  2
ACAD_DIMASSOC_CALC_DIMLFAC
 70
     0
  0
APPID
  5
186D
330
9
100
AcDbSymbolTableRecord
100
AcDbRegAppTableRecord
  2
ACAD_DIMASSOC_OVERRIDDEN_DIMLFAC
 70
     0
  0
APPID
  5
186E
330
9
100
AcDbSymbolTableRecord
100
AcDbRegAppTableRecord
  2
GENIUS_GENOBJ-N-ZOO_13
 70
     0
  0
APPID
  5
186F
330
9
100
AcDbSymbolTableRecord
100
AcDbRegAppTableRecord
  2
GENIUS_GENZOO_16
 70
     0
  0
APPID
  5
1870
330
9
100
AcDbSymbolTableRecord
100
AcDbRegAppTableRecord
  2
ACAD_DSTYLE_DIMJAG
 70
     0
  0
APPID
  5
1871
330
9
100
AcDbSymbolTableRecord
100
AcDbRegAppTableRecord
  2
ACAD_DSTYLE_DIMTALN
 70
     0
  0
APPID
  5
1872
330
9
100
AcDbSymbolTableRecord
100
AcDbRegAppTableRecord
  2
ACAD_DSTYLE_DIMBREAK
 70
     0
  0
APPID
  5
3696
330
9
100
AcDbSymbolTableRecord
100
AcDbRegAppTableRecord
  2
ACAD_DSTYLE_DIMARC_LENGTH_SYMBOL
 70
     0
  0
APPID
  5
3697
330
9
100
AcDbSymbolTableRecord
100
AcDbRegAppTableRecord
  2
ACAD_DSTYLE_DIMJOGGED_JOGANGLE_SYMBOL
 70
     0
  0
APPID
  5
3698
330
9
100
AcDbSymbolTableRecord
100
AcDbRegAppTableRecord
  2
ACAD_DSTYLE_DIM_LINETYPE
 70
     0
  0
APPID
  5
3699
330
9
100
AcDbSymbolTableRecord
100
AcDbRegAppTableRecord
  2
ACAD_DSTYLE_DIM_EXT1_LINETYPE
 70
     0
  0
APPID
  5
369A
330
9
100
AcDbSymbolTableRecord
100
AcDbRegAppTableRecord
  2
ACAD_DSTYLE_DIM_EXT2_LINETYPE
 70
     0
  0
APPID
  5
369D
330
9
100
AcDbSymbolTableRecord
100
AcDbRegAppTableRecord
  2
AcDbAttr
 70
     0
  0
APPID
  5
36A6
330
9
100
AcDbSymbolTableRecord
100
AcDbRegAppTableRecord
  2
ACAD_MLEADERVER
 70
     0
  0
APPID
  5
3D75
330
9
100
AcDbSymbolTableRecord
100
AcDbRegAppTableRecord
  2
ACAD_DSTYLE_DIMRADIAL_EXTENSION
 70
     0
  0
APPID
  5
75B4
330
9
100
AcDbSymbolTableRecord
100
AcDbRegAppTableRecord
  2
AcadAnnoPO
 70
     0
  0
APPID
  5
7838
330
9
100
AcDbSymbolTableRecord
100
AcDbRegAppTableRecord
  2
ACAUTHENVIRON
 70
     0
  0
APPID
  5
DBA2
330
9
100
AcDbSymbolTableRecord
100
AcDbRegAppTableRecord
  2
ACAD_NAV_VCDISPLAY
 70
     0
  0
ENDTAB
  0
TABLE
  2
DIMSTYLE
  5
A
330
0
100
AcDbSymbolTable
 70
     2
100
AcDbDimStyleTable
 71
     1
340
185B
  0
DIMSTYLE
105
185B
330
A
100
AcDbSymbolTableRecord
100
AcDbDimStyleTableRecord
  2
部品図用_1：1
 70
     0
 41
2.5
 42
1.0
 43
10.0
 44
1.0
 47
0.1
 48
0.1
 73
     0
 74
     0
 77
     3
 78
     8
 79
     2
140
2.5
141
0.0
146
0.7
147
1.0
172
     1
176
   256
177
   256
178
   256
179
     2
271
     2
272
     2
283
     0
340
26
371
    -1
372
    -1
1001
ACAD_DSTYLE_DIMBREAK
1070
   391
1040
3.5
1001
ACAD_DSTYLE_DIMJAG
1070
   388
1040
1.5
1001
ACAD_DSTYLE_DIMTALN
1070
   392
1070
     0
1001
ACAD_DSTYLE_DIMARC_LENGTH_SYMBOL
1070
   379
1070
     1
1001
ACAD_DSTYLE_DIM_LINETYPE
1070
   380
1005
2A
1001
ACAD_DSTYLE_DIM_EXT1_LINETYPE
1070
   381
1005
2A
1001
ACAD_DSTYLE_DIM_EXT2_LINETYPE
1070
   382
1005
2A
  0
DIMSTYLE
105
94C8
330
A
100
AcDbSymbolTableRecord
100
AcDbDimStyleTableRecord
  2
STANDARD
 70
     0
 73
     0
 74
     0
 77
     1
172
     1
271
     0
272
     0
289
     0
340
26
341
93E9
342
93E9
  0
ENDTAB
  0
TABLE
  2
BLOCK_RECORD
  5
1
330
0
100
AcDbSymbolTable
 70
     2
  0
BLOCK_RECORD
  5
37
102
{ACAD_XDICTIONARY
360
48
102
}
330
1
100
AcDbSymbolTableRecord
100
AcDbBlockTableRecord
  2
*Model_Space
340
3A
  0
BLOCK_RECORD
  5
33
102
{ACAD_XDICTIONARY
360
B96
102
}
330
1
100
AcDbSymbolTableRecord
100
AcDbBlockTableRecord
  2
*Paper_Space
340
36
  0
BLOCK_RECORD
  5
93E9
330
1
100
AcDbSymbolTableRecord
100
AcDbBlockTableRecord
  2
_Open30
340
0
  0
ENDTAB
  0
ENDSEC
  0
SECTION
  2
BLOCKS
  0
BLOCK
  5
38
330
37
100
AcDbEntity
  8
0
100
AcDbBlockBegin
  2
*Model_Space
 70
     2
 10
0.0
 20
0.0
 30
0.0
  3
*Model_Space
  1

  0
ENDBLK
  5
39
330
37
100
AcDbEntity
  8
0
100
AcDbBlockEnd
  0
BLOCK
  5
34
330
33
100
AcDbEntity
 67
     1
  8
0
100
AcDbBlockBegin
  2
*Paper_Space
 70
     0
 10
0.0
 20
0.0
 30
0.0
  3
*Paper_Space
  1

  0
ENDBLK
  5
35
330
33
100
AcDbEntity
 67
     1
  8
0
100
AcDbBlockEnd
  0
BLOCK
  5
93EA
330
93E9
100
AcDbEntity
  8
0
100
AcDbBlockBegin
  2
_Open30
 70
     0
 10
0.0
 20
0.0
 30
0.0
  3
_Open30
  1

  0
LINE
  5
93EB
330
93E9
100
AcDbEntity
  8
0
  6
ByBlock
 62
     0
370
    -2
100
AcDbLine
 10
-1.0
 20
0.26794919
 30
0.0
 11
0.0
 21
0.0
 31
0.0
  0
LINE
  5
93EC
330
93E9
100
AcDbEntity
  8
0
  6
ByBlock
 62
     0
370
    -2
100
AcDbLine
 10
0.0
 20
0.0
 30
0.0
 11
-1.0
 21
-0.26794919
 31
0.0
  0
LINE
  5
93ED
330
93E9
100
AcDbEntity
  8
0
  6
ByBlock
 62
     0
370
    -2
100
AcDbLine
 10
0.0
 20
0.0
 30
0.0
 11
-1.0
 21
0.0
 31
0.0
  0
ENDBLK
  5
93EE
330
93E9
100
AcDbEntity
  8
0
100
AcDbBlockEnd
  0
ENDSEC
  0
SECTION
  2
ENTITIES
  0
LINE
  5
DDCB
330
37
100
AcDbEntity
  8
Defpoints
 62
   110
100
AcDbLine
 10
147.9999434777545
 20
198.9146070198204
 30
0.0
 11
218.4999434777545
 21
198.9146070198204
 31
0.0
  0
LINE
  5
DDCC
330
37
100
AcDbEntity
  8
Defpoints
 62
   110
100
AcDbLine
 10
281.5595551685241
 20
198.9146070198204
 30
0.0
 11
338.5595551685241
 21
198.9146070198204
 31
0.0
  0
LINE
  5
DDCD
330
37
100
AcDbEntity
  8
0
 62
     3
100
AcDbLine
 10
178.2530657747662
 20
282.9146070198204
 30
0.0
 11
178.2418763692985
 21
291.9146070198205
 31
0.0
  0
LINE
  5
DDCE
330
37
100
AcDbEntity
  8
0
 62
     3
100
AcDbLine
 10
187.9530732714737
 20
282.9146070198204
 30
0.0
 11
187.9418838660062
 21
291.9146070198205
 31
0.0
  0
LINE
  5
DDCF
330
37
100
AcDbEntity
  8
0
 62
     3
100
AcDbLine
 10
287.0706371570037
 20
236.4143370181429
 30
0.0
 11
287.3684271266832
 21
206.8484002697298
 31
0.0
  0
LINE
  5
DDD3
330
37
100
AcDbEntity
  8
0
 62
     3
100
AcDbLine
 10
202.5657715088984
 20
172.937194212803
 30
0.0
 11
212.0657715088984
 21
172.937194212803
 31
0.0
  0
LINE
  5
DDD4
330
37
100
AcDbEntity
  8
0
 62
     3
100
AcDbLine
 10
212.0657715088985
 20
224.8920198268379
 30
0.0
 11
201.0734038565042
 21
224.8920198268379
 31
0.0
  0
CIRCLE
  5
DDE8
330
37
100
AcDbEntity
  8
0
 62
     3
100
AcDbCircle
 10
310.0595551685241
 20
198.9146070198204
 30
0.0
 40
19.5
  0
CIRCLE
  5
DDE9
330
37
100
AcDbEntity
  8
0
 62
     3
100
AcDbCircle
 10
310.0595551685241
 20
198.9146070198204
 30
0.0
 40
21.0
  0
LINE
  5
DDEA
330
37
100
AcDbEntity
  8
0
 62
     3
100
AcDbLine
 10
173.5595551685241
 20
291.9146070198205
 30
0.0
 11
192.559555168524
 21
291.9146070198205
 31
0.0
  0
LINE
  5
DDEB
330
37
100
AcDbEntity
  8
0
 62
     3
100
AcDbLine
 10
173.5595551685241
 20
282.9146070198204
 30
0.0
 11
192.5595551685241
 21
282.9146070198204
 31
0.0
  0
LINE
  5
DDEC
330
37
100
AcDbEntity
  8
0
 62
     3
100
AcDbLine
 10
167.7672376551028
 20
310.4146070198205
 30
0.0
 11
179.5595551685238
 21
310.4146070198201
 31
0.0
  0
LINE
  5
DDED
330
37
100
AcDbEntity
  8
0
 62
     3
100
AcDbLine
 10
173.059555168524
 20
296.9146070198204
 30
0.0
 11
173.059555168524
 21
292.4146070198204
 31
0.0
  0
ARC
  5
DDEE
330
37
100
AcDbEntity
  8
0
 62
     3
100
AcDbCircle
 10
173.5595551685241
 20
292.4146070198204
 30
0.0
 40
0.5
100
AcDbArc
 50
180.0
 51
270.0
  0
LINE
  5
DDEF
330
37
100
AcDbEntity
  8
0
 62
     3
100
AcDbLine
 10
183.0595551685241
 20
296.9146070198204
 30
0.0
 11
145.5595551685241
 21
296.9146070198204
 31
0.0
  0
ARC
  5
DDF0
330
37
100
AcDbEntity
  8
0
 62
     3
100
AcDbCircle
 10
145.5595551685241
 20
297.9146070198204
 30
0.0
 40
1.0
100
AcDbArc
 50
180.0
 51
270.0
  0
LINE
  5
DDF1
330
37
100
AcDbEntity
  8
0
 62
     3
100
AcDbLine
 10
178.5595551685238
 20
301.9146070198204
 30
0.0
 11
144.9811776726313
 21
301.9146070198202
 31
0.0
  0
ARC
  5
DDF2
330
37
100
AcDbEntity
  8
0
 62
     3
100
AcDbCircle
 10
178.5595551685238
 20
302.9146070198204
 30
0.0
 40
1.0
100
AcDbArc
 50
270.0
 51
0.0
  0
LINE
  5
DDF3
330
37
100
AcDbEntity
  8
0
 62
     3
100
AcDbLine
 10
178.5595551685238
 20
303.9146070198204
 30
0.0
 11
173.8222647488409
 21
303.9146070198204
 31
0.0
  0
ARC
  5
DDF4
330
37
100
AcDbEntity
  8
0
 62
     3
100
AcDbCircle
 10
173.8222647488409
 20
304.4146070198205
 30
0.0
 40
0.5
100
AcDbArc
 50
167.6217400196545
 51
270.0
  0
LINE
  5
DDF5
330
37
100
AcDbEntity
  8
0
 62
     3
100
AcDbLine
 10
169.8420506787295
 20
303.9146070198204
 30
0.0
 11
163.9175545281497
 21
303.9146070198204
 31
0.0
  0
ARC
  5
DDF6
330
37
100
AcDbEntity
  8
0
 62
     3
100
AcDbCircle
 10
169.8420506787295
 20
304.4146070198205
 30
0.0
 40
0.5
100
AcDbArc
 50
270.0
 51
347.621740019641
  0
LINE
  5
DDF7
330
37
100
AcDbEntity
  8
0
 62
     3
100
AcDbLine
 10
157.8460697050917
 20
303.9146070198204
 30
0.0
 11
157.1323600345773
 21
303.9146070198202
 31
0.0
  0
ARC
  5
DDF8
330
37
100
AcDbEntity
  8
0
 62
     3
100
AcDbCircle
 10
157.1323600345773
 20
304.4146070198201
 30
0.0
 40
0.5
100
AcDbArc
 50
152.0836107091842
 51
270.000000000013
  0
LINE
  5
DDF9
330
37
100
AcDbEntity
  8
0
 62
     3
100
AcDbLine
 10
154.7760798917044
 20
303.9146070198202
 30
0.0
 11
150.457657381955
 21
303.9146070198204
 31
0.0
  0
ARC
  5
DDFA
330
37
100
AcDbEntity
  8
0
 62
     3
100
AcDbCircle
 10
154.7760798917044
 20
304.4146070198201
 30
0.0
 40
0.5
100
AcDbArc
 50
270.0
 51
332.0836107091915
  0
ARC
  5
DDFB
330
37
100
AcDbEntity
  8
0
 62
     3
100
AcDbCircle
 10
153.697652521142
 20
305.9146070198206
 30
0.0
 40
7.0
100
AcDbArc
 50
40.0052008848542
 51
127.3670826313671
  0
ARC
  5
DDFC
330
37
100
AcDbEntity
  8
0
 62
     3
100
AcDbCircle
 10
162.7461180132876
 20
299.35425472995
 30
0.0
 40
17.99420976444399
100
AcDbArc
 50
137.6424242000718
 51
167.9101064442861
  0
LINE
  5
DDFD
330
37
100
AcDbEntity
  8
0
 62
     3
100
AcDbLine
 10
144.5595551685241
 20
298.9146070198204
 30
0.0
 11
145.1510162888286
 21
303.1230715672021
 31
0.0
  0
LINE
  5
DDFE
330
37
100
AcDbEntity
  8
0
 62
     3
100
AcDbLine
 10
144.5595551685241
 20
298.9146070198204
 30
0.0
 11
144.5595551685241
 21
297.9146070198204
 31
0.0
  0
LINE
  5
DDFF
330
37
100
AcDbEntity
  8
0
 62
     3
100
AcDbLine
 10
173.059555168524
 20
295.4146070198204
 30
0.0
 11
161.0539035708326
 21
296.4649654328604
 31
0.0
  0
ARC
  5
DE00
330
37
100
AcDbEntity
  8
0
 62
     3
100
AcDbCircle
 10
161.2282150563279
 20
298.4573548290438
 30
0.0
 40
2.0
100
AcDbArc
 50
230.4774250962771
 51
265.0000000000002
  0
LINE
  5
DE01
330
37
100
AcDbEntity
  8
0
 62
     3
100
AcDbLine
 10
159.0595551685241
 20
310.4146070198205
 30
0.0
 11
159.7816543273458
 21
310.4146070198205
 31
0.0
  0
LINE
  5
DE02
330
37
100
AcDbEntity
  8
0
 62
     3
100
AcDbLine
 10
179.5595551685238
 20
311.788004192225
 30
0.0
 11
179.5595551685238
 21
302.9146070198204
 31
0.0
  0
ARC
  5
DE03
330
37
100
AcDbEntity
  8
0
 62
     3
100
AcDbCircle
 10
178.5595551685238
 20
304.9146070198204
 30
0.0
 40
1.0
100
AcDbArc
 50
270.0
 51
0.0
  0
ARC
  5
DE04
330
37
100
AcDbEntity
  8
0
 62
     3
100
AcDbCircle
 10
150.457657381955
 20
304.9146070198201
 30
0.0
 40
1.0
100
AcDbArc
 50
153.6629108525571
 51
270.0
  0
ARC
  5
DE05
330
37
100
AcDbEntity
  8
0
 62
     3
100
AcDbCircle
 10
183.0595551685238
 20
306.9146070198204
 30
0.0
 40
6.0
100
AcDbArc
 50
54.31466528733544
 51
125.6853347126645
  0
LINE
  5
DE06
330
37
100
AcDbEntity
  8
0
 62
     3
100
AcDbLine
 10
179.5595551685238
 20
308.1536241232735
 30
0.0
 11
174.1309540214906
 21
308.1536241232735
 31
0.0
  0
LINE
  5
DE07
330
37
100
AcDbEntity
  8
0
 62
     3
100
AcDbLine
 10
171.1745395174547
 20
308.1536241232735
 30
0.0
 11
166.9602532816701
 21
308.1536241232735
 31
0.0
  0
LINE
  5
DE08
330
37
100
AcDbEntity
  8
0
 62
     3
100
AcDbLine
 10
174.1309540214906
 20
308.1536241232735
 30
0.0
 11
173.3338879057868
 21
304.5217893838946
 31
0.0
  0
LINE
  5
DE09
330
37
100
AcDbEntity
  8
0
 62
     3
100
AcDbLine
 10
170.3304275217837
 20
304.3074246557463
 30
0.0
 11
171.1745395174547
 21
308.1536241232735
 31
0.0
  0
ARC
  5
DE0A
330
37
100
AcDbEntity
  8
0
 62
     3
100
AcDbCircle
 10
171.0540124018404
 20
303.6894226928304
 30
0.0
 40
13.20986215907342
100
AcDbArc
 50
155.1357192253249
 51
187.7213446492806
  0
ARC
  5
DE0B
330
37
100
AcDbEntity
  8
0
 62
     3
100
AcDbCircle
 10
164.036171943343
 20
308.899997914266
 30
0.0
 40
4.026771919055938
100
AcDbArc
 50
22.09446862708849
 51
85.54563794529483
  0
ARC
  5
DE0C
330
37
100
AcDbEntity
  8
0
 62
     3
100
AcDbCircle
 10
164.3544725121083
 20
307.3140671703468
 30
0.0
 40
5.600542610692038
100
AcDbArc
 50
90.05689485341742
 51
132.381624718502
  0
ARC
  5
DE0D
330
37
100
AcDbEntity
  8
0
 62
     3
100
AcDbCircle
 10
169.9133749940985
 20
303.4418750472613
 30
0.0
 40
12.29921765114568
100
AcDbArc
 50
139.3684567276088
 51
151.8533893308856
  0
ARC
  5
DE0E
330
37
100
AcDbEntity
  8
0
 62
     3
100
AcDbCircle
 10
168.5867608200654
 20
304.4188180736595
 30
0.0
 40
5.69545461862262
100
AcDbArc
 50
141.017815547784
 51
173.938890357919
  0
ARC
  5
DE0F
330
37
100
AcDbEntity
  8
0
 62
     3
100
AcDbCircle
 10
163.9175545281497
 20
304.9146070198207
 30
0.0
 40
1.0
100
AcDbArc
 50
173.938890357919
 51
270.0
  0
ARC
  5
DE10
330
37
100
AcDbEntity
  8
0
 62
     3
100
AcDbCircle
 10
165.6685418895435
 20
306.0737754647262
 30
0.0
 40
2.448323663858905
100
AcDbArc
 50
58.15722645883129
 51
128.0521777931137
  0
ARC
  5
DE11
330
37
100
AcDbEntity
  8
0
 62
     3
100
AcDbCircle
 10
154.7005295752416
 20
302.8142304703971
 30
0.0
 40
5.734294677998365
100
AcDbArc
 50
68.61219583419776
 51
153.6629108525462
  0
LINE
  5
DE12
330
37
100
AcDbEntity
  8
0
 62
     3
100
AcDbLine
 10
158.6058847397677
 20
308.1536241232735
 30
0.0
 11
156.7917040953965
 21
308.1536241232733
 31
0.0
  0
LINE
  5
DE13
330
37
100
AcDbEntity
  8
0
 62
     3
100
AcDbLine
 10
156.6905441625903
 20
304.6486983166689
 30
0.0
 11
158.5475906823004
 21
308.1536241232735
 31
0.0
  0
LINE
  5
DE14
330
37
100
AcDbEntity
  8
0
 62
     3
100
AcDbLine
 10
155.2178957636914
 20
304.1805157229716
 30
0.0
 11
157.3230036987319
 21
308.1536241232735
 31
0.0
  0
LINE
  5
DE15
330
37
100
AcDbEntity
  8
0
 62
     3
100
AcDbLine
 10
198.3518726819453
 20
310.4146070198205
 30
0.0
 11
186.5595551685243
 21
310.4146070198201
 31
0.0
  0
LINE
  5
DE16
330
37
100
AcDbEntity
  8
0
 62
     3
100
AcDbLine
 10
193.059555168524
 20
296.9146070198204
 30
0.0
 11
193.059555168524
 21
292.4146070198204
 31
0.0
  0
ARC
  5
DE17
330
37
100
AcDbEntity
  8
0
 62
     3
100
AcDbCircle
 10
192.559555168524
 20
292.4146070198204
 30
0.0
 40
0.5
100
AcDbArc
 50
270.0
 51
0.0
  0
LINE
  5
DE18
330
37
100
AcDbEntity
  8
0
 62
     3
100
AcDbLine
 10
183.0595551685241
 20
296.9146070198204
 30
0.0
 11
220.5595551685241
 21
296.9146070198204
 31
0.0
  0
ARC
  5
DE19
330
37
100
AcDbEntity
  8
0
 62
     3
100
AcDbCircle
 10
220.5595551685241
 20
297.9146070198204
 30
0.0
 40
1.0
100
AcDbArc
 50
270.0
 51
0.0
  0
LINE
  5
DE1A
330
37
100
AcDbEntity
  8
0
 62
     3
100
AcDbLine
 10
187.5595551685243
 20
301.9146070198204
 30
0.0
 11
221.1379326644168
 21
301.9146070198202
 31
0.0
  0
ARC
  5
DE1B
330
37
100
AcDbEntity
  8
0
 62
     3
100
AcDbCircle
 10
187.5595551685243
 20
302.9146070198204
 30
0.0
 40
1.0
100
AcDbArc
 50
180.0
 51
270.0
  0
LINE
  5
DE1C
330
37
100
AcDbEntity
  8
0
 62
     3
100
AcDbLine
 10
187.5595551685243
 20
303.9146070198204
 30
0.0
 11
192.2968455882071
 21
303.9146070198204
 31
0.0
  0
ARC
  5
DE1D
330
37
100
AcDbEntity
  8
0
 62
     3
100
AcDbCircle
 10
192.2968455882071
 20
304.4146070198205
 30
0.0
 40
0.5
100
AcDbArc
 50
270.0
 51
12.37825998034473
  0
LINE
  5
DE1E
330
37
100
AcDbEntity
  8
0
 62
     3
100
AcDbLine
 10
196.2770596583185
 20
303.9146070198204
 30
0.0
 11
202.2015558088984
 21
303.9146070198204
 31
0.0
  0
ARC
  5
DE1F
330
37
100
AcDbEntity
  8
0
 62
     3
100
AcDbCircle
 10
196.2770596583185
 20
304.4146070198205
 30
0.0
 40
0.5
100
AcDbArc
 50
192.3782599803589
 51
270.0
  0
LINE
  5
DE20
330
37
100
AcDbEntity
  8
0
 62
     3
100
AcDbLine
 10
208.2730406319564
 20
303.9146070198204
 30
0.0
 11
208.9867503024708
 21
303.9146070198202
 31
0.0
  0
ARC
  5
DE21
330
37
100
AcDbEntity
  8
0
 62
     3
100
AcDbCircle
 10
208.9867503024708
 20
304.4146070198201
 30
0.0
 40
0.5
100
AcDbArc
 50
269.999999999987
 51
27.91638929081502
  0
LINE
  5
DE22
330
37
100
AcDbEntity
  8
0
 62
     3
100
AcDbLine
 10
211.3430304453437
 20
303.9146070198202
 30
0.0
 11
215.6614529550931
 21
303.9146070198204
 31
0.0
  0
ARC
  5
DE23
330
37
100
AcDbEntity
  8
0
 62
     3
100
AcDbCircle
 10
211.3430304453437
 20
304.4146070198201
 30
0.0
 40
0.5
100
AcDbArc
 50
207.9163892908092
 51
270.0
  0
ARC
  5
DE24
330
37
100
AcDbEntity
  8
0
 62
     3
100
AcDbCircle
 10
212.4214578159061
 20
305.9146070198206
 30
0.0
 40
7.0
100
AcDbArc
 50
52.63291736863282
 51
139.9947991151464
  0
ARC
  5
DE25
330
37
100
AcDbEntity
  8
0
 62
     3
100
AcDbCircle
 10
203.3729923237605
 20
299.35425472995
 30
0.0
 40
17.99420976444399
100
AcDbArc
 50
12.08989355571309
 51
42.35757579992982
  0
LINE
  5
DE26
330
37
100
AcDbEntity
  8
0
 62
     3
100
AcDbLine
 10
221.5595551685241
 20
298.9146070198204
 30
0.0
 11
220.9680940482195
 21
303.1230715672021
 31
0.0
  0
LINE
  5
DE27
330
37
100
AcDbEntity
  8
0
 62
     3
100
AcDbLine
 10
221.5595551685241
 20
298.9146070198204
 30
0.0
 11
221.5595551685241
 21
297.9146070198204
 31
0.0
  0
LINE
  5
DE28
330
37
100
AcDbEntity
  8
0
 62
     3
100
AcDbLine
 10
193.059555168524
 20
295.4146070198204
 30
0.0
 11
205.0652067662155
 21
296.4649654328604
 31
0.0
  0
ARC
  5
DE29
330
37
100
AcDbEntity
  8
0
 62
     3
100
AcDbCircle
 10
204.8908952807202
 20
298.4573548290438
 30
0.0
 40
2.0
100
AcDbArc
 50
274.9999999999998
 51
309.5225749037211
  0
LINE
  5
DE2A
330
37
100
AcDbEntity
  8
0
 62
     3
100
AcDbLine
 10
207.0595551685241
 20
310.4146070198205
 30
0.0
 11
206.3374560097023
 21
310.4146070198205
 31
0.0
  0
LINE
  5
DE2B
330
37
100
AcDbEntity
  8
0
 62
     3
100
AcDbLine
 10
186.5595551685243
 20
311.788004192225
 30
0.0
 11
186.5595551685243
 21
302.9146070198204
 31
0.0
  0
ARC
  5
DE2C
330
37
100
AcDbEntity
  8
0
 62
     3
100
AcDbCircle
 10
187.5595551685243
 20
304.9146070198204
 30
0.0
 40
1.0
100
AcDbArc
 50
180.0
 51
270.0
  0
ARC
  5
DE2D
330
37
100
AcDbEntity
  8
0
 62
     3
100
AcDbCircle
 10
215.6614529550931
 20
304.9146070198201
 30
0.0
 40
1.0
100
AcDbArc
 50
270.0
 51
26.33708914744284
  0
LINE
  5
DE2E
330
37
100
AcDbEntity
  8
0
 62
     3
100
AcDbLine
 10
186.5595551685243
 20
308.1536241232735
 30
0.0
 11
191.9881563155574
 21
308.1536241232735
 31
0.0
  0
LINE
  5
DE2F
330
37
100
AcDbEntity
  8
0
 62
     3
100
AcDbLine
 10
194.9445708195934
 20
308.1536241232735
 30
0.0
 11
199.158857055378
 21
308.1536241232735
 31
0.0
  0
LINE
  5
DE30
330
37
100
AcDbEntity
  8
0
 62
     3
100
AcDbLine
 10
191.9881563155574
 20
308.1536241232735
 30
0.0
 11
192.7852224312613
 21
304.5217893838946
 31
0.0
  0
LINE
  5
DE31
330
37
100
AcDbEntity
  8
0
 62
     3
100
AcDbLine
 10
195.7886828152644
 20
304.3074246557463
 30
0.0
 11
194.9445708195934
 21
308.1536241232735
 31
0.0
  0
ARC
  5
DE32
330
37
100
AcDbEntity
  8
0
 62
     3
100
AcDbCircle
 10
195.0650979352076
 20
303.6894226928304
 30
0.0
 40
13.20986215907342
100
AcDbArc
 50
352.2786553507194
 51
24.86428077467503
  0
ARC
  5
DE33
330
37
100
AcDbEntity
  8
0
 62
     3
100
AcDbCircle
 10
202.0829383937051
 20
308.899997914266
 30
0.0
 40
4.026771919055938
100
AcDbArc
 50
94.45436205470519
 51
157.9055313729115
  0
ARC
  5
DE34
330
37
100
AcDbEntity
  8
0
 62
     3
100
AcDbCircle
 10
201.7646378249398
 20
307.3140671703468
 30
0.0
 40
5.600542610692038
100
AcDbArc
 50
47.61837528149973
 51
89.94310514658257
  0
ARC
  5
DE35
330
37
100
AcDbEntity
  8
0
 62
     3
100
AcDbCircle
 10
196.2057353429496
 20
303.4418750472613
 30
0.0
 40
12.29921765114568
100
AcDbArc
 50
28.14661066911441
 51
40.63154327239345
  0
ARC
  5
DE36
330
37
100
AcDbEntity
  8
0
 62
     3
100
AcDbCircle
 10
197.5323495169826
 20
304.4188180736595
 30
0.0
 40
5.69545461862262
100
AcDbArc
 50
6.061109642080947
 51
38.98218445221307
  0
ARC
  5
DE37
330
37
100
AcDbEntity
  8
0
 62
     3
100
AcDbCircle
 10
202.2015558088984
 20
304.9146070198207
 30
0.0
 40
1.0
100
AcDbArc
 50
270.0
 51
6.061109642080947
  0
ARC
  5
DE38
330
37
100
AcDbEntity
  8
0
 62
     3
100
AcDbCircle
 10
200.4505684475047
 20
306.0737754647262
 30
0.0
 40
2.448323663858905
100
AcDbArc
 50
51.94782220688443
 51
121.8427735411669
  0
ARC
  5
DE39
330
37
100
AcDbEntity
  8
0
 62
     3
100
AcDbCircle
 10
211.4185807618065
 20
302.8142304703971
 30
0.0
 40
5.734294677998365
100
AcDbArc
 50
26.33708914745158
 51
111.3878041658022
  0
LINE
  5
DE3A
330
37
100
AcDbEntity
  8
0
 62
     3
100
AcDbLine
 10
207.5132255972804
 20
308.1536241232735
 30
0.0
 11
209.3274062416516
 21
308.1536241232733
 31
0.0
  0
LINE
  5
DE3B
330
37
100
AcDbEntity
  8
0
 62
     3
100
AcDbLine
 10
209.4285661744578
 20
304.6486983166689
 30
0.0
 11
207.5715196547477
 21
308.1536241232735
 31
0.0
  0
LINE
  5
DE3C
330
37
100
AcDbEntity
  8
0
 62
     3
100
AcDbLine
 10
210.9012145733567
 20
304.1805157229716
 30
0.0
 11
208.7961066383162
 21
308.1536241232735
 31
0.0
  0
LINE
  5
DE3D
330
37
100
AcDbEntity
  8
0
 62
     3
100
AcDbLine
 10
158.0657715088984
 20
249.9146070198205
 30
0.0
 11
208.0657715088984
 21
249.9146070198204
 31
0.0
  0
LINE
  5
DE3E
330
37
100
AcDbEntity
  8
0
 62
     3
100
AcDbLine
 10
158.0657715088984
 20
253.4146070198205
 30
0.0
 11
208.0657715088984
 21
253.4146070198204
 31
0.0
  0
LINE
  5
DE3F
330
37
100
AcDbEntity
  8
0
 62
     3
100
AcDbLine
 10
165.7452634332096
 20
261.4146070198204
 30
0.0
 11
200.3862795845872
 21
261.4146070198206
 31
0.0
  0
LINE
  5
DE40
330
37
100
AcDbEntity
  8
0
 62
     3
100
AcDbLine
 10
158.0657715088984
 20
249.9146070198205
 30
0.0
 11
158.0657715088984
 21
253.4146070198205
 31
0.0
  0
LINE
  5
DE41
330
37
100
AcDbEntity
  8
0
 62
     3
100
AcDbLine
 10
208.0657715088984
 20
249.9146070198205
 30
0.0
 11
208.0657715088984
 21
253.4146070198205
 31
0.0
  0
LINE
  5
DE42
330
37
100
AcDbEntity
  8
0
 62
     3
100
AcDbLine
 10
165.7452634332096
 20
261.4146070198204
 30
0.0
 11
165.7452634332096
 21
253.4146070198204
 31
0.0
  0
LINE
  5
DE43
330
37
100
AcDbEntity
  8
0
 62
     3
100
AcDbLine
 10
200.3862795845872
 20
261.4146070198204
 30
0.0
 11
200.3862795845872
 21
253.4146070198204
 31
0.0
  0
LINE
  5
DE44
330
37
100
AcDbEntity
  8
0
 62
     3
100
AcDbLine
 10
295.0595551685237
 20
261.4146070198206
 30
0.0
 11
325.0595551685244
 21
261.4146070198206
 31
0.0
  0
ARC
  5
DE45
330
37
100
AcDbEntity
  8
0
 62
     3
100
AcDbCircle
 10
272.5595551685241
 20
297.9146070198204
 30
0.0
 40
1.0
100
AcDbArc
 50
180.0
 51
270.0
  0
LINE
  5
DE46
330
37
100
AcDbEntity
  8
0
 62
     3
100
AcDbLine
 10
271.5595551685241
 20
298.9146070198204
 30
0.0
 11
272.1510162888286
 21
303.1230715672021
 31
0.0
  0
LINE
  5
DE47
330
37
100
AcDbEntity
  8
0
 62
     3
100
AcDbLine
 10
271.5595551685241
 20
298.9146070198204
 30
0.0
 11
271.5595551685241
 21
297.9146070198204
 31
0.0
  0
LINE
  5
DE48
330
37
100
AcDbEntity
  8
0
 62
     3
100
AcDbLine
 10
187.809555168524
 20
402.9828654661927
 30
0.0
 11
187.809555168524
 21
395.9969740126388
 31
0.0
  0
LINE
  5
DE49
330
37
100
AcDbEntity
  8
0
 62
     3
100
AcDbLine
 10
178.309555168524
 20
402.9828654661927
 30
0.0
 11
178.3095551685241
 21
395.9969740126388
 31
0.0
  0
LINE
  5
DE4A
330
37
100
AcDbEntity
  8
0
 62
     3
100
AcDbLine
 10
209.3274062416514
 20
381.0941417980051
 30
0.0
 11
215.0501410786272
 21
381.0941417980051
 31
0.0
  0
LINE
  5
DE4B
330
37
100
AcDbEntity
  8
0
 62
     3
100
AcDbLine
 10
209.3274062416514
 20
388.0941417980051
 30
0.0
 11
215.0501410786266
 21
388.0941417980051
 31
0.0
  0
LINE
  5
DE4C
330
37
100
AcDbEntity
  8
0
 62
     3
100
AcDbLine
 10
208.7961066383158
 20
393.5227429450382
 30
0.0
 11
211.0421033849874
 21
394.4530652585553
 31
0.0
  0
LINE
  5
DE4D
330
37
100
AcDbEntity
  8
0
 62
     3
100
AcDbLine
 10
207.5715196547474
 20
396.4791574490742
 30
0.0
 11
209.8175164014191
 21
397.4094797625916
 31
0.0
  0
ARC
  5
DE4E
330
37
100
AcDbEntity
  8
0
 62
     3
100
AcDbCircle
 10
213.559555168524
 20
384.5941417980051
 30
0.0
 40
8.0
100
AcDbArc
 50
309.668442086201
 51
50.33155791379898
  0
ARC
  5
DE4F
330
37
100
AcDbEntity
  8
0
 62
     3
100
AcDbCircle
 10
229.5181537547477
 20
403.8379234212664
 30
0.0
 40
17.0
100
AcDbArc
 50
174.668442086199
 51
230.331557913799
  0
ARC
  5
DE50
330
37
100
AcDbEntity
  8
0
 62
     3
100
AcDbCircle
 10
229.5181537547477
 20
403.8379234212664
 30
0.0
 40
20.0
100
AcDbArc
 50
179.0732569680247
 51
195.8741904351705
  0
ARC
  5
DE51
330
37
100
AcDbEntity
  8
0
 62
     3
100
AcDbCircle
 10
209.5113696555271
 20
398.1485833886009
 30
0.0
 40
0.8
100
AcDbArc
 50
292.5000000000058
 51
15.87419043518704
  0
ARC
  5
DE52
330
37
100
AcDbEntity
  8
0
 62
     3
100
AcDbCircle
 10
229.5181537547477
 20
403.8379234212664
 30
0.0
 40
20.0
100
AcDbArc
 50
209.1258095648148
 51
225.9267430319794
  0
ARC
  5
DE53
330
37
100
AcDbEntity
  8
0
 62
     3
100
AcDbCircle
 10
211.3482501308793
 20
393.7139616325465
 30
0.0
 40
0.8
100
AcDbArc
 50
29.12580956481482
 51
112.5000000000057
  0
ARC
  5
DE54
330
37
100
AcDbEntity
  8
0
 62
     3
100
AcDbCircle
 10
215.0501410786266
 20
388.8941417980051
 30
0.0
 40
0.8
100
AcDbArc
 50
270.0
 51
45.92674303197937
  0
ARC
  5
DE55
330
37
100
AcDbEntity
  8
0
 62
     3
100
AcDbCircle
 10
204.6263119947137
 20
406.1608986241948
 30
0.0
 40
8.0
100
AcDbArc
 50
354.668442086199
 51
95.33155791380103
  0
ARC
  5
DE56
330
37
100
AcDbEntity
  8
0
 62
     3
100
AcDbCircle
 10
202.3033367917854
 20
431.0527403842292
 30
0.0
 40
17.0
100
AcDbArc
 50
219.6684420862074
 51
275.331557913801
  0
ARC
  5
DE57
330
37
100
AcDbEntity
  8
0
 62
     3
100
AcDbCircle
 10
183.059555168524
 20
415.0941417980051
 30
0.0
 40
8.0
100
AcDbArc
 50
39.66844208620738
 51
140.3315579137926
  0
ARC
  5
DE58
330
37
100
AcDbEntity
  8
0
 62
     3
100
AcDbCircle
 10
163.8157735452625
 20
431.0527403842288
 30
0.0
 40
17.0
100
AcDbArc
 50
264.668442086199
 51
320.3315579137926
  0
ARC
  5
DE59
330
37
100
AcDbEntity
  8
0
 62
     3
100
AcDbCircle
 10
161.4927983423343
 20
406.1608986241948
 30
0.0
 40
8.0
100
AcDbArc
 50
84.66844208619894
 51
185.331557913788
  0
ARC
  5
DE5A
330
37
100
AcDbEntity
  8
0
 62
     3
100
AcDbCircle
 10
136.6009565823
 20
403.8379234212666
 30
0.0
 40
17.0
100
AcDbArc
 50
309.6684420861923
 51
5.331557913788014
  0
ARC
  5
DE5B
330
37
100
AcDbEntity
  8
0
 62
     3
100
AcDbCircle
 10
152.559555168524
 20
384.5941417980048
 30
0.0
 40
8.0
100
AcDbArc
 50
129.6684420861923
 51
230.3315579138077
  0
ARC
  5
DE5C
330
37
100
AcDbEntity
  8
0
 62
     3
100
AcDbCircle
 10
136.6009565823
 20
365.3503601747435
 30
0.0
 40
17.0
100
AcDbArc
 50
354.668442086212
 51
50.33155791380764
  0
ARC
  5
DE5D
330
37
100
AcDbEntity
  8
0
 62
     3
100
AcDbCircle
 10
161.4927983423343
 20
363.0273849718154
 30
0.0
 40
8.0
100
AcDbArc
 50
174.668442086199
 51
275.331557913788
  0
ARC
  5
DE5E
330
37
100
AcDbEntity
  8
0
 62
     3
100
AcDbCircle
 10
163.8157735452621
 20
338.135543211781
 30
0.0
 40
17.0
100
AcDbArc
 50
39.66844208619696
 51
95.33155791378794
  0
ARC
  5
DE5F
330
37
100
AcDbEntity
  8
0
 62
     3
100
AcDbCircle
 10
183.0595551685236
 20
354.0941417980051
 30
0.0
 40
8.0
100
AcDbArc
 50
219.668442086197
 51
320.3315579138025
  0
ARC
  5
DE60
330
37
100
AcDbEntity
  8
0
 62
     3
100
AcDbCircle
 10
202.303336791785
 20
338.1355432117814
 30
0.0
 40
17.0
100
AcDbArc
 50
84.66844208621207
 51
140.331557913803
  0
ARC
  5
DE61
330
37
100
AcDbEntity
  8
0
 62
     3
100
AcDbCircle
 10
204.6263119947137
 20
363.0273849718152
 30
0.0
 40
8.0
100
AcDbArc
 50
264.668442086199
 51
5.331557913800986
  0
ARC
  5
DE62
330
37
100
AcDbEntity
  8
0
 62
     3
100
AcDbCircle
 10
229.5181537547477
 20
365.3503601747433
 30
0.0
 40
17.0
100
AcDbArc
 50
129.668442086201
 51
185.331557913801
  0
ARC
  5
DE63
330
37
100
AcDbEntity
  8
0
 62
     3
100
AcDbCircle
 10
215.0501410786272
 20
380.2941417980052
 30
0.0
 40
0.8
100
AcDbArc
 50
314.0732569680206
 51
90.0
  0
LINE
  5
DE64
330
37
100
AcDbEntity
  8
0
 62
     3
100
AcDbLine
 10
204.1086045236835
 20
400.6934436848592
 30
0.0
 11
208.1551891338416
 21
404.7400282950168
 31
0.0
  0
LINE
  5
DE65
330
37
100
AcDbEntity
  8
0
 62
     3
100
AcDbLine
 10
199.1588570553777
 20
405.6431911531649
 30
0.0
 11
203.2054416655354
 21
409.6897757633223
 31
0.0
  0
ARC
  5
DE66
330
37
100
AcDbEntity
  8
0
 62
     3
100
AcDbCircle
 10
208.7208745587908
 20
404.1743428700677
 30
0.0
 40
0.8
100
AcDbArc
 50
359.0732569680249
 51
135.0000000000098
  0
LINE
  5
DE67
330
37
100
AcDbEntity
  8
0
 62
     3
100
AcDbLine
 10
186.559555168524
 20
410.8619928711324
 30
0.0
 11
186.559555168524
 21
416.5847277081082
 31
0.0
  0
LINE
  5
DE68
330
37
100
AcDbEntity
  8
0
 62
     3
100
AcDbLine
 10
179.559555168524
 20
410.8619928711324
 30
0.0
 11
179.559555168524
 21
416.5847277081078
 31
0.0
  0
ARC
  5
DE69
330
37
100
AcDbEntity
  8
0
 62
     3
100
AcDbCircle
 10
187.3595551685238
 20
416.5847277081082
 30
0.0
 40
0.8
100
AcDbArc
 50
44.07325696803847
 51
180.0
  0
LINE
  5
DE6A
330
37
100
AcDbEntity
  8
0
 62
     3
100
AcDbLine
 10
166.9602532816703
 20
405.6431911531646
 30
0.0
 11
162.9136686715122
 21
409.6897757633231
 31
0.0
  0
LINE
  5
DE6B
330
37
100
AcDbEntity
  8
0
 62
     3
100
AcDbLine
 10
162.0105058133644
 20
400.6934436848588
 30
0.0
 11
157.9639212032065
 21
404.7400282950168
 31
0.0
  0
ARC
  5
DE6C
330
37
100
AcDbEntity
  8
0
 62
     3
100
AcDbCircle
 10
163.4793540964613
 20
410.2554611882721
 30
0.0
 40
0.8
100
AcDbArc
 50
89.07325696802478
 51
225.0000000000087
  0
LINE
  5
DE6D
330
37
100
AcDbEntity
  8
0
 62
     3
100
AcDbLine
 10
156.7917040953966
 20
388.0941417980048
 30
0.0
 11
151.0689692584208
 21
388.0941417980048
 31
0.0
  0
LINE
  5
DE6E
330
37
100
AcDbEntity
  8
0
 62
     3
100
AcDbLine
 10
156.7917040953967
 20
381.094141798005
 30
0.0
 11
151.0689692584213
 21
381.0941417980048
 31
0.0
  0
ARC
  5
DE6F
330
37
100
AcDbEntity
  8
0
 62
     3
100
AcDbCircle
 10
151.0689692584208
 20
388.8941417980049
 30
0.0
 40
0.8
100
AcDbArc
 50
134.0732569680384
 51
270.0
  0
LINE
  5
DE70
330
37
100
AcDbEntity
  8
0
 62
     3
100
AcDbLine
 10
162.0105058133643
 20
368.4948399111512
 30
0.0
 11
157.963921203206
 21
364.4482553009932
 31
0.0
  0
LINE
  5
DE71
330
37
100
AcDbEntity
  8
0
 62
     3
100
AcDbLine
 10
166.9602532816702
 20
363.5450924428456
 30
0.0
 11
162.9136686715122
 21
359.4985078326875
 31
0.0
  0
ARC
  5
DE72
330
37
100
AcDbEntity
  8
0
 62
     3
100
AcDbCircle
 10
157.3982357782568
 20
365.0139407259425
 30
0.0
 40
0.8
100
AcDbArc
 50
179.0732569680247
 51
315.0000000000098
  0
LINE
  5
DE73
330
37
100
AcDbEntity
  8
0
 62
     3
100
AcDbLine
 10
179.5595551685236
 20
358.3262907248778
 30
0.0
 11
179.5595551685236
 21
352.603555887902
 31
0.0
  0
LINE
  5
DE74
330
37
100
AcDbEntity
  8
0
 62
     3
100
AcDbLine
 10
186.5595551685236
 20
358.3262907248777
 30
0.0
 11
186.5595551685236
 21
352.6035558879024
 31
0.0
  0
ARC
  5
DE75
330
37
100
AcDbEntity
  8
0
 62
     3
100
AcDbCircle
 10
178.7595551685238
 20
352.603555887902
 30
0.0
 40
0.8
100
AcDbArc
 50
224.0732569680385
 51
0.0
  0
LINE
  5
DE76
330
37
100
AcDbEntity
  8
0
 62
     3
100
AcDbLine
 10
199.1588570553775
 20
363.5450924428456
 30
0.0
 11
203.2054416655359
 21
359.4985078326871
 31
0.0
  0
LINE
  5
DE77
330
37
100
AcDbEntity
  8
0
 62
     3
100
AcDbLine
 10
204.1086045236836
 20
368.4948399111513
 30
0.0
 11
208.1551891338416
 21
364.4482553009934
 31
0.0
  0
ARC
  5
DE78
330
37
100
AcDbEntity
  8
0
 62
     3
100
AcDbCircle
 10
202.6397562405867
 20
358.9328224077379
 30
0.0
 40
0.8
100
AcDbArc
 50
269.0732569680248
 51
45.00000000000865
  0
ARC
  5
DE79
330
37
100
AcDbEntity
  8
0
 62
     3
100
AcDbCircle
 10
183.059555168524
 20
384.5941417980051
 30
0.0
 40
26.5
100
AcDbArc
 50
7.589542391854021
 51
17.45649763105268
  0
ARC
  5
DE7A
330
37
100
AcDbEntity
  8
0
 62
     3
100
AcDbCircle
 10
183.059555168524
 20
384.5941417980051
 30
0.0
 40
26.5
100
AcDbArc
 50
27.54350236893693
 51
37.41045760813247
  0
ARC
  5
DE7B
330
37
100
AcDbEntity
  8
0
 62
     3
100
AcDbCircle
 10
209.1022533842077
 20
392.783639319029
 30
0.0
 40
0.8
100
AcDbArc
 50
112.5000000000057
 51
197.4564976310503
  0
ARC
  5
DE7C
330
37
100
AcDbEntity
  8
0
 62
     3
100
AcDbCircle
 10
207.2653729088555
 20
397.2182610750832
 30
0.0
 40
0.8
100
AcDbArc
 50
207.5435023689369
 51
292.4999999999918
  0
LINE
  5
DE7D
330
37
100
AcDbEntity
  8
0
 62
     3
100
AcDbLine
 10
194.9445708195929
 20
409.1061062842284
 30
0.0
 11
195.8748931331104
 21
411.3521030309001
 31
0.0
  0
LINE
  5
DE7E
330
37
100
AcDbEntity
  8
0
 62
     3
100
AcDbLine
 10
191.9881563155571
 20
410.3306932677967
 30
0.0
 11
192.9184786290742
 21
412.5766900144687
 31
0.0
  0
ARC
  5
DE7F
330
37
100
AcDbEntity
  8
0
 62
     3
100
AcDbCircle
 10
202.3033367917854
 20
431.0527403842292
 30
0.0
 40
20.0
100
AcDbArc
 50
224.0732569680195
 51
240.8741904351689
  0
ARC
  5
DE80
330
37
100
AcDbEntity
  8
0
 62
     3
100
AcDbCircle
 10
192.179375003065
 20
412.8828367603608
 30
0.0
 40
0.8
100
AcDbArc
 50
337.5000000000103
 51
60.87419043518377
  0
ARC
  5
DE81
330
37
100
AcDbEntity
  8
0
 62
     3
100
AcDbCircle
 10
202.3033367917854
 20
431.0527403842292
 30
0.0
 40
20.0
100
AcDbArc
 50
254.1258095648279
 51
270.9267430319751
  0
ARC
  5
DE82
330
37
100
AcDbEntity
  8
0
 62
     3
100
AcDbCircle
 10
196.6139967591191
 20
411.045956285008
 30
0.0
 40
0.8
100
AcDbArc
 50
74.12580956481452
 51
157.499999999992
  0
ARC
  5
DE83
330
37
100
AcDbEntity
  8
0
 62
     3
100
AcDbCircle
 10
183.059555168524
 20
384.5941417980051
 30
0.0
 40
26.5
100
AcDbArc
 50
52.58954239186003
 51
62.45649763105542
  0
ARC
  5
DE84
330
37
100
AcDbEntity
  8
0
 62
     3
100
AcDbCircle
 10
183.059555168524
 20
384.5941417980051
 30
0.0
 40
26.5
100
AcDbArc
 50
72.54350236893704
 51
82.41045760813284
  0
ARC
  5
DE85
330
37
100
AcDbEntity
  8
0
 62
     3
100
AcDbCircle
 10
195.6836744456021
 20
408.7999595383364
 30
0.0
 40
0.8
100
AcDbArc
 50
157.5000000000102
 51
242.4564976310408
  0
ARC
  5
DE86
330
37
100
AcDbEntity
  8
0
 62
     3
100
AcDbCircle
 10
191.2490526895479
 20
410.6368400136886
 30
0.0
 40
0.8
100
AcDbArc
 50
252.5435023689507
 51
337.4999999999922
  0
LINE
  5
DE87
330
37
100
AcDbEntity
  8
0
 62
     3
100
AcDbLine
 10
174.1309540214909
 20
410.3306932677967
 30
0.0
 11
173.2006317079739
 21
412.5766900144683
 31
0.0
  0
LINE
  5
DE88
330
37
100
AcDbEntity
  8
0
 62
     3
100
AcDbLine
 10
171.1745395174547
 20
409.1061062842284
 30
0.0
 11
170.2442172039376
 21
411.3521030309003
 31
0.0
  0
ARC
  5
DE89
330
37
100
AcDbEntity
  8
0
 62
     3
100
AcDbCircle
 10
163.8157735452625
 20
431.0527403842288
 30
0.0
 40
20.0
100
AcDbArc
 50
269.0732569680248
 51
285.8741904351721
  0
ARC
  5
DE8A
330
37
100
AcDbEntity
  8
0
 62
     3
100
AcDbCircle
 10
169.5051135779284
 20
411.045956285008
 30
0.0
 40
0.8
100
AcDbArc
 50
22.49999999998898
 51
105.8741904351855
  0
ARC
  5
DE8B
330
37
100
AcDbEntity
  8
0
 62
     3
100
AcDbCircle
 10
163.8157735452625
 20
431.0527403842288
 30
0.0
 40
20.0
100
AcDbArc
 50
299.1258095648163
 51
315.9267430319615
  0
ARC
  5
DE8C
330
37
100
AcDbEntity
  8
0
 62
     3
100
AcDbCircle
 10
173.9397353339826
 20
412.8828367603603
 30
0.0
 40
0.8
100
AcDbArc
 50
119.1258095648162
 51
202.499999999989
  0
ARC
  5
DE8D
330
37
100
AcDbEntity
  8
0
 62
     3
100
AcDbCircle
 10
183.059555168524
 20
384.5941417980051
 30
0.0
 40
26.5
100
AcDbArc
 50
97.58954239185399
 51
107.4564976310493
  0
ARC
  5
DE8E
330
37
100
AcDbEntity
  8
0
 62
     3
100
AcDbCircle
 10
183.059555168524
 20
384.5941417980051
 30
0.0
 40
26.5
100
AcDbArc
 50
117.5435023689518
 51
127.4104576081399
  0
ARC
  5
DE8F
330
37
100
AcDbEntity
  8
0
 62
     3
100
AcDbCircle
 10
174.8700576475001
 20
410.6368400136889
 30
0.0
 40
0.8
100
AcDbArc
 50
202.499999999989
 51
287.4564976310493
  0
ARC
  5
DE90
330
37
100
AcDbEntity
  8
0
 62
     3
100
AcDbCircle
 10
170.4354358914459
 20
408.7999595383364
 30
0.0
 40
0.8
100
AcDbArc
 50
297.5435023689519
 51
22.49999999998898
  0
LINE
  5
DE91
330
37
100
AcDbEntity
  8
0
 62
     3
100
AcDbLine
 10
158.5475906823005
 20
396.4791574490745
 30
0.0
 11
156.301593935629
 21
397.409479762592
 31
0.0
  0
LINE
  5
DE92
330
37
100
AcDbEntity
  8
0
 62
     3
100
AcDbLine
 10
157.3230036987323
 20
393.5227429450384
 30
0.0
 11
155.0770069520607
 21
394.4530652585557
 31
0.0
  0
ARC
  5
DE93
330
37
100
AcDbEntity
  8
0
 62
     3
100
AcDbCircle
 10
136.6009565823
 20
403.8379234212666
 30
0.0
 40
20.0
100
AcDbArc
 50
314.0732569680292
 51
330.8741904351743
  0
ARC
  5
DE94
330
37
100
AcDbEntity
  8
0
 62
     3
100
AcDbCircle
 10
154.7708602061683
 20
393.7139616325465
 30
0.0
 40
0.8
100
AcDbArc
 50
67.50000000000814
 51
150.8741904351742
  0
ARC
  5
DE95
330
37
100
AcDbEntity
  8
0
 62
     3
100
AcDbCircle
 10
136.6009565823
 20
403.8379234212666
 30
0.0
 40
20.0
100
AcDbArc
 50
344.1258095648129
 51
0.9267430319752225
  0
ARC
  5
DE96
330
37
100
AcDbEntity
  8
0
 62
     3
100
AcDbCircle
 10
156.607740681521
 20
398.1485833886009
 30
0.0
 40
0.8
100
AcDbArc
 50
164.1258095648129
 51
247.5000000000081
  0
ARC
  5
DE97
330
37
100
AcDbEntity
  8
0
 62
     3
100
AcDbCircle
 10
183.059555168524
 20
384.5941417980051
 30
0.0
 40
26.5
100
AcDbArc
 50
142.5895423918675
 51
152.456497631063
  0
ARC
  5
DE98
330
37
100
AcDbEntity
  8
0
 62
     3
100
AcDbCircle
 10
183.059555168524
 20
384.5941417980051
 30
0.0
 40
26.5
100
AcDbArc
 50
162.5435023689496
 51
172.4104576081459
  0
ARC
  5
DE99
330
37
100
AcDbEntity
  8
0
 62
     3
100
AcDbCircle
 10
158.8537374281926
 20
397.2182610750837
 30
0.0
 40
0.8
100
AcDbArc
 50
247.5000000000081
 51
332.4564976310638
  0
ARC
  5
DE9A
330
37
100
AcDbEntity
  8
0
 62
     3
100
AcDbCircle
 10
157.0168569528403
 20
392.7836393190295
 30
0.0
 40
0.8
100
AcDbArc
 50
342.5435023689496
 51
67.49999999999423
  0
LINE
  5
DE9B
330
37
100
AcDbEntity
  8
0
 62
     3
100
AcDbLine
 10
157.3230036987318
 20
375.6655406509718
 30
0.0
 11
155.0770069520601
 21
374.7352183374547
 31
0.0
  0
LINE
  5
DE9C
330
37
100
AcDbEntity
  8
0
 62
     3
100
AcDbLine
 10
158.5475906823002
 20
372.7091261469358
 30
0.0
 11
156.3015939356285
 21
371.7788038334185
 31
0.0
  0
ARC
  5
DE9D
330
37
100
AcDbEntity
  8
0
 62
     3
100
AcDbCircle
 10
136.6009565823
 20
365.3503601747435
 30
0.0
 40
20.0
100
AcDbArc
 50
359.0732569680249
 51
15.87419043518704
  0
ARC
  5
DE9E
330
37
100
AcDbEntity
  8
0
 62
     3
100
AcDbCircle
 10
156.6077406815205
 20
371.0397002074093
 30
0.0
 40
0.8
100
AcDbArc
 50
112.4999999999918
 51
195.874190435187
  0
ARC
  5
DE9F
330
37
100
AcDbEntity
  8
0
 62
     3
100
AcDbCircle
 10
136.6009565823
 20
365.3503601747435
 30
0.0
 40
20.0
100
AcDbArc
 50
29.12580956482573
 51
45.9267430319615
  0
ARC
  5
DEA0
330
37
100
AcDbEntity
  8
0
 62
     3
100
AcDbCircle
 10
154.7708602061683
 20
375.4743219634635
 30
0.0
 40
0.8
100
AcDbArc
 50
209.1258095648258
 51
292.4999999999918
  0
ARC
  5
DEA1
330
37
100
AcDbEntity
  8
0
 62
     3
100
AcDbCircle
 10
183.059555168524
 20
384.5941417980048
 30
0.0
 40
26.5
100
AcDbArc
 50
187.5895423918539
 51
197.4564976310503
  0
ARC
  5
DEA2
330
37
100
AcDbEntity
  8
0
 62
     3
100
AcDbCircle
 10
183.059555168524
 20
384.5941417980048
 30
0.0
 40
26.5
100
AcDbArc
 50
207.5435023689369
 51
217.4104576081325
  0
ARC
  5
DEA3
330
37
100
AcDbEntity
  8
0
 62
     3
100
AcDbCircle
 10
157.0168569528399
 20
376.404644276981
 30
0.0
 40
0.8
100
AcDbArc
 50
292.4999999999918
 51
17.45649763105035
  0
ARC
  5
DEA4
330
37
100
AcDbEntity
  8
0
 62
     3
100
AcDbCircle
 10
158.8537374281921
 20
371.9700225209268
 30
0.0
 40
0.8
100
AcDbArc
 50
27.54350236893693
 51
112.4999999999918
  0
LINE
  5
DEA5
330
37
100
AcDbEntity
  8
0
 62
     3
100
AcDbLine
 10
171.1745395174547
 20
360.0821773117817
 30
0.0
 11
170.2442172039371
 21
357.8361805651101
 31
0.0
  0
LINE
  5
DEA6
330
37
100
AcDbEntity
  8
0
 62
     3
100
AcDbLine
 10
174.1309540214905
 20
358.8575903282134
 30
0.0
 11
173.2006317079734
 21
356.6115935815416
 31
0.0
  0
ARC
  5
DEA7
330
37
100
AcDbEntity
  8
0
 62
     3
100
AcDbCircle
 10
163.8157735452621
 20
338.135543211781
 30
0.0
 40
20.0
100
AcDbArc
 50
44.07325696802926
 51
60.87419043516882
  0
ARC
  5
DEA8
330
37
100
AcDbEntity
  8
0
 62
     3
100
AcDbCircle
 10
173.9397353339826
 20
356.3054468356493
 30
0.0
 40
0.8
100
AcDbArc
 50
157.5000000000102
 51
240.8741904351689
  0
ARC
  5
DEA9
330
37
100
AcDbEntity
  8
0
 62
     3
100
AcDbCircle
 10
163.8157735452621
 20
338.135543211781
 30
0.0
 40
20.0
100
AcDbArc
 50
74.12580956481452
 51
90.92674303197521
  0
ARC
  5
DEAA
330
37
100
AcDbEntity
  8
0
 62
     3
100
AcDbCircle
 10
169.5051135779284
 20
358.1423273110021
 30
0.0
 40
0.8
100
AcDbArc
 50
254.1258095648144
 51
337.4999999999957
  0
ARC
  5
DEAB
330
37
100
AcDbEntity
  8
0
 62
     3
100
AcDbCircle
 10
183.059555168524
 20
384.5941417980051
 30
0.0
 40
26.5
100
AcDbArc
 50
232.58954239186
 51
242.4564976310554
  0
ARC
  5
DEAC
330
37
100
AcDbEntity
  8
0
 62
     3
100
AcDbCircle
 10
183.059555168524
 20
384.5941417980051
 30
0.0
 40
26.5
100
AcDbArc
 50
252.5435023689507
 51
262.410457608146
  0
ARC
  5
DEAD
330
37
100
AcDbEntity
  8
0
 62
     3
100
AcDbCircle
 10
170.4354358914455
 20
360.3883240576737
 30
0.0
 40
0.8
100
AcDbArc
 50
337.5000000000103
 51
62.45649763105542
  0
ARC
  5
DEAE
330
37
100
AcDbEntity
  8
0
 62
     3
100
AcDbCircle
 10
174.8700576474997
 20
358.5514435823212
 30
0.0
 40
0.8
100
AcDbArc
 50
72.54350236895067
 51
157.4999999999957
  0
LINE
  5
DEAF
330
37
100
AcDbEntity
  8
0
 62
     3
100
AcDbLine
 10
191.9881563155566
 20
358.8575903282134
 30
0.0
 11
192.9184786290737
 21
356.6115935815418
 31
0.0
  0
LINE
  5
DEB0
330
37
100
AcDbEntity
  8
0
 62
     3
100
AcDbLine
 10
194.9445708195929
 20
360.0821773117817
 30
0.0
 11
195.87489313311
 21
357.8361805651099
 31
0.0
  0
ARC
  5
DEB1
330
37
100
AcDbEntity
  8
0
 62
     3
100
AcDbCircle
 10
202.303336791785
 20
338.1355432117814
 30
0.0
 40
20.0
100
AcDbArc
 50
89.07325696802478
 51
105.8741904351855
  0
ARC
  5
DEB2
330
37
100
AcDbEntity
  8
0
 62
     3
100
AcDbCircle
 10
196.6139967591191
 20
358.1423273110021
 30
0.0
 40
0.8
100
AcDbArc
 50
202.5000000000042
 51
285.8741904351855
  0
ARC
  5
DEB3
330
37
100
AcDbEntity
  8
0
 62
     3
100
AcDbCircle
 10
202.303336791785
 20
338.1355432117814
 30
0.0
 40
20.0
100
AcDbArc
 50
119.1258095648312
 51
135.9267430319707
  0
ARC
  5
DEB4
330
37
100
AcDbEntity
  8
0
 62
     3
100
AcDbCircle
 10
192.179375003065
 20
356.3054468356498
 30
0.0
 40
0.8
100
AcDbArc
 50
299.1258095648312
 51
22.50000000000426
  0
ARC
  5
DEB5
330
37
100
AcDbEntity
  8
0
 62
     3
100
AcDbCircle
 10
183.0595551685236
 20
384.5941417980051
 30
0.0
 40
26.5
100
AcDbArc
 50
277.589542391854
 51
287.4564976310493
  0
ARC
  5
DEB6
330
37
100
AcDbEntity
  8
0
 62
     3
100
AcDbCircle
 10
183.0595551685236
 20
384.5941417980051
 30
0.0
 40
26.5
100
AcDbArc
 50
297.5435023689446
 51
307.41045760814
  0
ARC
  5
DEB7
330
37
100
AcDbEntity
  8
0
 62
     3
100
AcDbCircle
 10
191.2490526895475
 20
358.5514435823212
 30
0.0
 40
0.8
100
AcDbArc
 50
22.50000000000426
 51
107.4564976310493
  0
ARC
  5
DEB8
330
37
100
AcDbEntity
  8
0
 62
     3
100
AcDbCircle
 10
195.6836744456016
 20
360.3883240576737
 30
0.0
 40
0.8
100
AcDbArc
 50
117.5435023689445
 51
202.499999999989
  0
LINE
  5
DEB9
330
37
100
AcDbEntity
  8
0
 62
     3
100
AcDbLine
 10
207.5715196547474
 20
372.7091261469358
 30
0.0
 11
209.8175164014191
 21
371.7788038334183
 31
0.0
  0
LINE
  5
DEBA
330
37
100
AcDbEntity
  8
0
 62
     3
100
AcDbLine
 10
208.7961066383158
 20
375.6655406509716
 30
0.0
 11
211.0421033849874
 21
374.7352183374545
 31
0.0
  0
ARC
  5
DEBB
330
37
100
AcDbEntity
  8
0
 62
     3
100
AcDbCircle
 10
229.5181537547477
 20
365.3503601747433
 30
0.0
 40
20.0
100
AcDbArc
 50
134.0732569680206
 51
150.8741904351742
  0
ARC
  5
DEBC
330
37
100
AcDbEntity
  8
0
 62
     3
100
AcDbCircle
 10
211.3482501308793
 20
375.4743219634637
 30
0.0
 40
0.8
100
AcDbArc
 50
247.5000000000081
 51
330.8741904351852
  0
ARC
  5
DEBD
330
37
100
AcDbEntity
  8
0
 62
     3
100
AcDbCircle
 10
229.5181537547477
 20
365.3503601747433
 30
0.0
 40
20.0
100
AcDbArc
 50
164.1258095648295
 51
180.9267430319751
  0
ARC
  5
DEBE
330
37
100
AcDbEntity
  8
0
 62
     3
100
AcDbCircle
 10
209.5113696555271
 20
371.0397002074095
 30
0.0
 40
0.8
100
AcDbArc
 50
344.1258095648129
 51
67.49999999999423
  0
ARC
  5
DEBF
330
37
100
AcDbEntity
  8
0
 62
     3
100
AcDbCircle
 10
183.059555168524
 20
384.5941417980051
 30
0.0
 40
26.5
100
AcDbArc
 50
322.5895423918676
 51
332.4564976310638
  0
ARC
  5
DEC0
330
37
100
AcDbEntity
  8
0
 62
     3
100
AcDbCircle
 10
183.059555168524
 20
384.5941417980051
 30
0.0
 40
26.5
100
AcDbArc
 50
342.5435023689473
 51
352.410457608146
  0
ARC
  5
DEC1
330
37
100
AcDbEntity
  8
0
 62
     3
100
AcDbCircle
 10
207.2653729088555
 20
371.9700225209264
 30
0.0
 40
0.8
100
AcDbArc
 50
67.50000000000814
 51
152.4564976310361
  0
ARC
  5
DEC2
330
37
100
AcDbEntity
  8
0
 62
     3
100
AcDbCircle
 10
209.1022533842077
 20
376.4046442769808
 30
0.0
 40
0.8
100
AcDbArc
 50
162.5435023689496
 51
247.4999999999943
  0
ARC
  5
DEC3
330
37
100
AcDbEntity
  8
0
 62
     3
100
AcDbCircle
 10
202.6397562405862
 20
410.2554611882718
 30
0.0
 40
0.8
100
AcDbArc
 50
315.0000000000098
 51
90.92674303197521
  0
ARC
  5
DEC4
330
37
100
AcDbEntity
  8
0
 62
     3
100
AcDbCircle
 10
178.7595551685238
 20
416.5847277081078
 30
0.0
 40
0.8
100
AcDbArc
 50
0.0
 51
135.9267430319615
  0
ARC
  5
DEC5
330
37
100
AcDbEntity
  8
0
 62
     3
100
AcDbCircle
 10
157.3982357782573
 20
404.1743428700677
 30
0.0
 40
0.8
100
AcDbArc
 50
45.00000000000865
 51
180.9267430319751
  0
ARC
  5
DEC6
330
37
100
AcDbEntity
  8
0
 62
     3
100
AcDbCircle
 10
151.0689692584213
 20
380.2941417980049
 30
0.0
 40
0.8
100
AcDbArc
 50
90.0
 51
225.9267430319615
  0
ARC
  5
DEC7
330
37
100
AcDbEntity
  8
0
 62
     3
100
AcDbCircle
 10
163.4793540964613
 20
358.9328224077383
 30
0.0
 40
0.8
100
AcDbArc
 50
135.0000000000098
 51
270.9267430319751
  0
ARC
  5
DEC8
330
37
100
AcDbEntity
  8
0
 62
     3
100
AcDbCircle
 10
187.3595551685238
 20
352.6035558879024
 30
0.0
 40
0.8
100
AcDbArc
 50
180.0
 51
315.9267430319615
  0
ARC
  5
DEC9
330
37
100
AcDbEntity
  8
0
 62
     3
100
AcDbCircle
 10
208.7208745587908
 20
365.0139407259427
 30
0.0
 40
0.8
100
AcDbArc
 50
225.0000000000087
 51
0.9267430319752225
  0
ARC
  5
DECA
330
37
100
AcDbEntity
  8
0
 62
     3
100
AcDbCircle
 10
183.059555168524
 20
384.5941417980051
 30
0.0
 40
21.58845726812002
100
AcDbArc
 50
290.1568119530619
 51
339.8431880469398
  0
ARC
  5
DECB
330
37
100
AcDbEntity
  8
0
 62
     3
100
AcDbCircle
 10
189.8095551685234
 20
366.2054181298174
 30
0.0
 40
2.0
100
AcDbArc
 50
180.0
 51
290.1568119530619
  0
ARC
  5
DECC
330
37
100
AcDbEntity
  8
0
 62
     3
100
AcDbCircle
 10
201.4482788367117
 20
377.8441417980052
 30
0.0
 40
2.0
100
AcDbArc
 50
339.8431880469398
 51
90.0
  0
ARC
  5
DECD
330
37
100
AcDbEntity
  8
0
 62
     3
100
AcDbCircle
 10
183.059555168524
 20
384.5941417980051
 30
0.0
 40
21.58845726812002
100
AcDbArc
 50
20.15681195306018
 51
69.84318804693803
  0
ARC
  5
DECE
330
37
100
AcDbEntity
  8
0
 62
     3
100
AcDbCircle
 10
201.4482788367117
 20
391.3441417980051
 30
0.0
 40
2.0
100
AcDbArc
 50
270.0
 51
20.15681195306018
  0
ARC
  5
DECF
330
37
100
AcDbEntity
  8
0
 62
     3
100
AcDbCircle
 10
189.809555168524
 20
402.9828654661927
 30
0.0
 40
2.0
100
AcDbArc
 50
69.84318804693803
 51
180.0
  0
ARC
  5
DED0
330
37
100
AcDbEntity
  8
0
 62
     3
100
AcDbCircle
 10
183.059555168524
 20
384.5941417980051
 30
0.0
 40
21.58845726812002
100
AcDbArc
 50
110.1568119530619
 51
159.8431880469377
  0
ARC
  5
DED1
330
37
100
AcDbEntity
  8
0
 62
     3
100
AcDbCircle
 10
164.6708315003362
 20
391.3441417980051
 30
0.0
 40
2.0
100
AcDbArc
 50
159.8431880469377
 51
270.0
  0
ARC
  5
DED2
330
37
100
AcDbEntity
  8
0
 62
     3
100
AcDbCircle
 10
176.309555168524
 20
402.9828654661927
 30
0.0
 40
2.0
100
AcDbArc
 50
0.0
 51
110.1568119530619
  0
ARC
  5
DED3
330
37
100
AcDbEntity
  8
0
 62
     3
100
AcDbCircle
 10
183.059555168524
 20
384.5941417980051
 30
0.0
 40
21.58845726812002
100
AcDbArc
 50
200.1568119530602
 51
249.843188046938
  0
ARC
  5
DED4
330
37
100
AcDbEntity
  8
0
 62
     3
100
AcDbCircle
 10
164.6708315003362
 20
377.8441417980051
 30
0.0
 40
2.0
100
AcDbArc
 50
90.0
 51
200.1568119530602
  0
ARC
  5
DED5
330
37
100
AcDbEntity
  8
0
 62
     3
100
AcDbCircle
 10
176.3095551685236
 20
366.2054181298175
 30
0.0
 40
2.0
100
AcDbArc
 50
249.843188046938
 51
0.0
  0
LINE
  5
DED6
330
37
100
AcDbEntity
  8
0
 62
     3
100
AcDbLine
 10
164.6708315003362
 20
389.3441417980051
 30
0.0
 11
171.6567229538904
 21
389.3441417980051
 31
0.0
  0
LINE
  5
DED7
330
37
100
AcDbEntity
  8
0
 62
     3
100
AcDbLine
 10
164.6708315003362
 20
379.8441417980051
 30
0.0
 11
171.6567229538904
 21
379.8441417980051
 31
0.0
  0
LINE
  5
DED8
330
37
100
AcDbEntity
  8
0
 62
     3
100
AcDbLine
 10
178.3095551685236
 20
366.2054181298175
 30
0.0
 11
178.3095551685236
 21
373.1913095833716
 31
0.0
  0
LINE
  5
DED9
330
37
100
AcDbEntity
  8
0
 62
     3
100
AcDbLine
 10
187.8095551685236
 20
366.2054181298174
 30
0.0
 11
187.8095551685236
 21
373.1913095833713
 31
0.0
  0
LINE
  5
DEDA
330
37
100
AcDbEntity
  8
0
 62
     3
100
AcDbLine
 10
201.4482788367117
 20
379.8441417980051
 30
0.0
 11
194.4623873831577
 21
379.8441417980051
 31
0.0
  0
LINE
  5
DEDB
330
37
100
AcDbEntity
  8
0
 62
     3
100
AcDbLine
 10
201.4482788367117
 20
389.3441417980053
 30
0.0
 11
194.4623873831577
 21
389.3441417980051
 31
0.0
  0
LINE
  5
DEDC
330
37
100
AcDbEntity
  8
Defpoints
 62
   110
100
AcDbLine
 10
137.5595551685241
 20
384.5941417980051
 30
0.0
 11
228.5595551685241
 21
384.5941417980051
 31
0.0
  0
LINE
  5
DEDD
330
37
100
AcDbEntity
  8
Defpoints
 62
   110
100
AcDbLine
 10
183.0595551685241
 20
428.0941417980051
 30
0.0
 11
183.059555168524
 21
341.0941417980051
 31
0.0
  0
CIRCLE
  5
DEDE
330
37
100
AcDbEntity
  8
0
 62
     3
100
AcDbCircle
 10
183.059555168524
 20
384.5941417980051
 30
0.0
 40
12.3526144
  0
ARC
  5
DEDF
330
37
100
AcDbEntity
  8
0
 62
     3
100
AcDbCircle
 10
183.059555168524
 20
384.5941417980051
 30
0.0
 40
7.0
100
AcDbArc
 50
188.2132715900473
 51
231.7867384035135
  0
ARC
  5
DEE0
330
37
100
AcDbEntity
  8
0
 62
     3
100
AcDbCircle
 10
183.059555168524
 20
384.5941417980051
 30
0.0
 40
7.0
100
AcDbArc
 50
248.2132107017346
 51
291.7867892982654
  0
ARC
  5
DEE1
330
37
100
AcDbEntity
  8
0
 62
     3
100
AcDbCircle
 10
183.059555168524
 20
384.5941417980051
 30
0.0
 40
7.0
100
AcDbArc
 50
308.2132615964865
 51
351.7867284099526
  0
ARC
  5
DEE2
330
37
100
AcDbEntity
  8
0
 62
     3
100
AcDbCircle
 10
183.059555168524
 20
384.5941417980051
 30
0.0
 40
7.0
100
AcDbArc
 50
8.213155047812259
 51
51.78685494575178
  0
ARC
  5
DEE3
330
37
100
AcDbEntity
  8
0
 62
     3
100
AcDbCircle
 10
183.059555168524
 20
384.5941417980051
 30
0.0
 40
7.0
100
AcDbArc
 50
68.21321070173461
 51
111.7867892982654
  0
ARC
  5
DEE4
330
37
100
AcDbEntity
  8
0
 62
     3
100
AcDbCircle
 10
183.059555168524
 20
384.5941417980051
 30
0.0
 40
7.0
100
AcDbArc
 50
128.2131450542482
 51
171.7868449521877
  0
LWPOLYLINE
  5
DEE5
330
37
100
AcDbEntity
  8
0
 62
     3
100
AcDbPolyline
 90
      110
 70
     1
 43
0.0
 10
173.3802078847807
 20
381.580661718019
 10
173.049438858539
 20
381.3564624136938
 10
172.932498410864
 20
381.274166431635
 10
172.7828563376525
 20
381.1438767390967
 10
172.7115024970558
 20
381.0227962176794
 10
172.6272657939888
 20
380.9157892252432
 10
172.5621559466409
 20
380.7932836702391
 10
172.496773485372
 20
380.6486215458574
 10
172.4719856274201
 20
380.4367267712976
 10
172.4728626770464
 20
380.325223309029
 10
172.4686398449495
 20
380.2065826258699
 10
172.5038071573063
 20
380.0539286426939
 10
172.5647180218991
 20
379.8892162834509
 10
172.618692828665
 20
379.7595775716124
 10
172.6962266058695
 20
379.6309612416191
 10
172.791935226998
 20
379.4874822451067
 10
172.898938487409
 20
379.3557524293598
 10
173.0602646989356
 20
379.2365929776169
 10
173.2370386482775
 20
379.125903682629
 10
173.3789091613226
 20
379.096578526292
 10
173.5013379381967
 20
379.0567537148177
 10
173.6664477449904
 20
379.0408886213256
 10
173.8252093409856
 20
379.0574332378934
 10
173.9806739076823
 20
379.0877777191898
 10
174.1324870341479
 20
379.1396493537535
 10
174.2503020881795
 20
379.1996791221162
 10
174.3645518597586
 20
379.280081560614
 10
174.456729912203
 20
379.3381240979315
 10
174.5816025108133
 20
379.4396151601507
 10
174.6505293081356
 20
379.5150172746101
 10
174.7457940993881
 20
379.634603137127
 10
174.808097490027
 20
379.7994220911157
 10
174.861637482957
 20
379.9643915518523
 10
174.8547198716972
 20
380.1828391920667
 10
174.7579358345254
 20
381.132533540652
 10
174.7616306730348
 20
381.1978082046
 10
174.7897096461224
 20
381.2550954305653
 10
174.8281068326698
 20
381.2989789067867
 10
174.8460908788439
 20
381.3157234585659
 10
174.8933929043063
 20
381.3398250443516
 10
174.9543847531646
 20
381.3599345443683
 10
174.9907380346788
 20
381.3586201946607
 10
175.0828552858748
 20
381.3395788661541
 10
175.1198220156596
 20
381.330221354513
 10
175.1723256274703
 20
381.2829877352283
 10
175.2461286306497
 20
381.2132973457352
 10
175.3065767194483
 20
381.1086434142819
 10
175.3385742393347
 20
381.0150551205976
 10
175.3596012429032
 20
380.9308061297999
 10
175.3601532639422
 20
380.8605811944377
 10
175.3352450634065
 20
380.8038165479048
 10
175.2811003576072
 20
380.7255714779305
 10
175.1863475577332
 20
380.6293309863892
 10
174.9401884815014
 20
380.4560983425611
 10
175.2850725842443
 20
379.7792251793359
 10
175.5956198702605
 20
379.9687987928553
 10
175.7149074306088
 20
380.0510881710021
 10
175.8530765535425
 20
380.1464042145127
 10
175.9540555192697
 20
380.2651941045992
 10
176.0275913896772
 20
380.3648659197983
 10
176.0816992601767
 20
380.4613159745514
 10
176.1669836456059
 20
380.6060352744546
 10
176.1823506659952
 20
380.7974393197321
 10
176.1907277650873
 20
380.9188591293048
 10
176.1843065895853
 20
381.0393102812794
 10
176.1576353236221
 20
381.1674833695289
 10
176.0928684168584
 20
381.3833367793056
 10
176.0389072361664
 20
381.5153036546703
 10
175.9332711711015
 20
381.675899843955
 10
175.8491642838089
 20
381.7927722082804
 10
175.747163951776
 20
381.8932765686362
 10
175.5673390257651
 20
382.0451341044183
 10
175.3849085954904
 20
382.1142338904794
 10
175.2130454015901
 20
382.1441938317066
 10
175.0707221614848
 20
382.1482357335725
 10
174.9275159463885
 20
382.1373004532544
 10
174.7731787013384
 20
382.1071760091752
 10
174.6455074551511
 20
382.0689017142949
 10
174.4493427637538
 20
381.9689508117357
 10
174.3377694273712
 20
381.8886231490155
 10
174.2297073969469
 20
381.810824757731
 10
174.1294537939621
 20
381.7197127383727
 10
174.0240217486069
 20
381.5857810237034
 10
173.9219762867428
 20
381.3892851085093
 10
173.9048373553581
 20
381.2097719048446
 10
173.9156719629191
 20
381.0473067810584
 10
174.0225464163805
 20
380.1121984023646
 10
174.0150658896454
 20
380.0731930148886
 10
173.9757572810801
 20
379.9958924899453
 10
173.9461463552563
 20
379.9456456313541
 10
173.8938930529793
 20
379.913289259131
 10
173.8024214325476
 20
379.8501875127501
 10
173.7563330112048
 20
379.8356282685215
 10
173.6735685090887
 20
379.8327839113691
 10
173.6241676707559
 20
379.8488536079704
 10
173.5636266454408
 20
379.8685471180721
 10
173.4685684372046
 20
379.9280694524975
 10
173.4222741255435
 20
379.9712835877676
 10
173.4007837498014
 20
380.0018333914845
 10
173.3631416827812
 20
380.0604518473022
 10
173.3126836005111
 20
380.1769079349354
 10
173.2751513342025
 20
380.2686966255825
 10
173.2596121080256
 20
380.3178488689914
 10
173.2647492957097
 20
380.3521425530275
 10
173.2716456881355
 20
380.4311552585831
 10
173.286808744941
 20
380.5008734989735
 10
173.3800186565525
 20
380.6323326715992
 10
173.4202261318814
 20
380.6782850953616
 10
173.5018284412144
 20
380.7357121218383
 10
173.7331714616531
 20
380.8879316939883
  0
LWPOLYLINE
  5
DEE6
330
37
100
AcDbEntity
  8
0
 62
     3
100
AcDbPolyline
 90
       72
 70
     1
 43
0.0
 10
190.0632454073519
 20
380.3419434170823
 10
190.0206027524726
 20
380.5133826651129
 10
190.0147506402275
 20
380.6630263858177
 10
190.0096343495228
 20
380.7938417650441
 10
190.0087976299618
 20
380.9622902527282
 10
190.0519743190704
 20
381.1232740660555
 10
190.0978096021109
 20
381.2322634500781
 10
190.1505227337933
 20
381.3511210582691
 10
190.2077410280746
 20
381.4820619826518
 10
190.2971596782738
 20
381.6045752312001
 10
190.3864625055371
 20
381.7315437783912
 10
190.5024593203901
 20
381.8693596328501
 10
190.6510056205221
 20
381.9535614346566
 10
190.758608086158
 20
382.0000339924424
 10
190.8730930896579
 20
382.0649285308184
 10
191.01805727947
 20
382.1093018284014
 10
191.1720612704456
 20
382.1400988122205
 10
191.2991360418272
 20
382.1467148328781
 10
191.432864396012
 20
382.1481780689189
 10
191.5787902006423
 20
382.1303915778578
 10
191.7149857556154
 20
382.1074692219502
 10
191.8301256154235
 20
382.1003436321405
 10
191.928649799171
 20
382.0793210265342
 10
192.0885931651479
 20
382.0170082673706
 10
192.2224277213842
 20
381.9686550933982
 10
192.3220077067052
 20
381.9157074759984
 10
192.4614024732753
 20
381.8739322056027
 10
192.6539513310561
 20
381.7588572375496
 10
192.7807137593186
 20
381.6597675134979
 10
192.8713739495584
 20
381.6022294292769
 10
192.9965179643293
 20
381.5245868738697
 10
193.1087270882906
 20
381.4385829077435
 10
193.2341844118368
 20
381.3018926531139
 10
193.3990479766572
 20
381.1200031153455
 10
193.5048733520995
 20
380.998047350919
 10
193.603565578728
 20
380.782245135531
 10
193.6626587021731
 20
380.6150971470172
 10
193.6832239927149
 20
380.4967285306418
 10
193.7093403437003
 20
380.3656774757038
 10
193.73187655634
 20
380.205507010138
 10
193.7093929510426
 20
380.0461189622807
 10
193.6607924606481
 20
379.9116811536223
 10
193.6298157490411
 20
379.7961848230384
 10
193.5832475926132
 20
379.6573616391447
 10
193.5059840664549
 20
379.5392494470856
 10
193.4478183071486
 20
379.4681918504328
 10
193.3790705073534
 20
379.3598446734085
 10
193.3249208125061
 20
379.3036436544802
 10
193.2370844740212
 20
379.1924154290476
 10
193.0808995986084
 20
379.1162694192536
 10
192.9630756707848
 20
379.0575747593472
 10
192.8503798020997
 20
378.9650256070357
 10
192.6075946031353
 20
378.9092706625654
 10
192.4322460329607
 20
378.8946913553459
 10
192.2832796448923
 20
378.8930624812839
 10
192.1331598542789
 20
378.9278824433535
 10
191.9774430975759
 20
378.9431677251769
 10
191.831294199035
 20
378.9609824506279
 10
191.6795678719426
 20
379.004195036295
 10
191.5361165714811
 20
379.0588879025951
 10
191.356768996111
 20
379.120717140825
 10
191.22235894329
 20
379.1921842336202
 10
191.0927251759054
 20
379.2718700070641
 10
190.935812563776
 20
379.3656473165534
 10
190.7964734653133
 20
379.4505955327691
 10
190.6438851429837
 20
379.5563097487008
 10
190.5422598273584
 20
379.6632001606468
 10
190.4537464075479
 20
379.7733385054609
 10
190.3463895462281
 20
379.8903021994775
 10
190.2563253456077
 20
379.9903124028428
 10
190.1812363358582
 20
380.1298129157643
 10
190.120219810649
 20
380.2431711812619
  0
LWPOLYLINE
  5
DEE7
330
37
100
AcDbEntity
  8
0
 62
     3
100
AcDbPolyline
 90
       10
 70
     1
 43
0.0
 10
175.2623552857411
 20
378.5703603011675
 10
176.1933648602312
 20
375.4195378092762
 10
176.8939773649504
 20
376.1568347425473
 42
0.3262597201020667
 10
189.2196244441778
 20
376.1528121326537
 10
189.895287193421
 20
375.4264982364415
 10
190.8596609993606
 20
378.5672695375102
 10
187.6574863621882
 20
377.832056101664
 10
188.3269756065684
 20
377.1123785079195
 42
-0.3164916484887445
 10
177.7980342562599
 20
377.1082285143898
 10
178.4565523937794
 20
377.8012269978968
  0
LWPOLYLINE
  5
DEE8
330
37
100
AcDbEntity
  8
0
 62
     3
100
AcDbPolyline
 90
       52
 70
     1
 43
0.0
 10
191.097265966836
 20
380.4639127853864
 10
191.0638428734736
 20
380.5386091840201
 10
191.0395349045272
 20
380.5949947132573
 10
191.0320775065594
 20
380.6558652024305
 10
191.021485579258
 20
380.736109504295
 10
191.0338685711252
 20
380.7795421482544
 10
191.0747322691632
 20
380.8893615234155
 10
191.0959864708271
 20
380.9501909611855
 10
191.1234629122731
 20
380.98605605363
 10
191.2007535890267
 20
381.0764854792832
 10
191.2237544389032
 20
381.0953744517305
 10
191.2962941911482
 20
381.121412549794
 10
191.4045064583796
 20
381.1646563581517
 10
191.4937685104231
 20
381.1806784324179
 10
191.5919023792272
 20
381.1805300936767
 10
191.7487719418106
 20
381.1432462563173
 10
191.8573122761148
 20
381.1162752282733
 10
192.000133380454
 20
381.0555723725997
 10
192.2838371557976
 20
380.9047243994515
 10
192.3843279532613
 20
380.8376685209542
 10
192.4976812223166
 20
380.721673429952
 10
192.5786542451277
 20
380.6396616725681
 10
192.6277400623735
 20
380.5706410099844
 10
192.6658601290854
 20
380.4967435625105
 10
192.6911888607011
 20
380.4137960407901
 10
192.7167834663558
 20
380.3434501038022
 10
192.7193656558328
 20
380.2932869277853
 10
192.7218557973987
 20
380.229617986341
 10
192.7149934761169
 20
380.2067406225847
 10
192.6982931552928
 20
380.1629606644492
 10
192.6544811695304
 20
380.0664945768474
 10
192.6108191233819
 20
379.9948639467785
 10
192.5902867361282
 20
379.9753274337538
 10
192.5461849912231
 20
379.9391093913628
 10
192.4962651051741
 20
379.9167332805483
 10
192.4267376850281
 20
379.885568751452
 10
192.3673975898975
 20
379.8674046448013
 10
192.2402723879779
 20
379.8705549594455
 10
192.1580801713715
 20
379.8577011473261
 10
192.0762949686462
 20
379.8597278041634
 10
191.9512510561308
 20
379.8807729670016
 10
191.8922866587901
 20
379.9060856967939
 10
191.7934418682387
 20
379.9485176605854
 10
191.6871987687732
 20
379.9880302125997
 10
191.609325518419
 20
380.0294361542871
 10
191.5153418135563
 20
380.079408176585
 10
191.418891297004
 20
380.1392485500074
 10
191.3568413188013
 20
380.1786289755535
 10
191.2913240118324
 20
380.2444073476032
 10
191.1994250984181
 20
380.321800882915
 10
191.1675287046872
 20
380.3533752724759
 10
191.1135237393196
 20
380.4337090630593
  0
CIRCLE
  5
DEEF
330
37
100
AcDbEntity
  8
0
 62
     3
100
AcDbCircle
 10
183.059555168524
 20
384.5941417980051
 30
0.0
 40
3.149999999999999
  0
CIRCLE
  5
DEF0
330
37
100
AcDbEntity
  8
0
 62
     3
100
AcDbCircle
 10
183.059555168524
 20
384.5941417980051
 30
0.0
 40
4.0
  0
LINE
  5
DEF1
330
37
100
AcDbEntity
  8
0
 62
     3
100
AcDbLine
 10
179.306763168524
 20
378.0941637980051
 30
0.0
 11
175.5539931685239
 21
384.5941507980052
 31
0.0
  0
LINE
  5
DEF2
330
37
100
AcDbEntity
  8
0
 62
     3
100
AcDbLine
 10
190.565093168524
 20
384.5941637980051
 30
0.0
 11
186.8123231685241
 21
391.0941507980052
 31
0.0
  0
LINE
  5
DEF3
330
37
100
AcDbEntity
  8
0
 62
     3
100
AcDbLine
 10
175.554017168524
 20
384.5941637980051
 30
0.0
 11
179.306787168524
 21
391.0941507980052
 31
0.0
  0
LINE
  5
DEF4
330
37
100
AcDbEntity
  8
0
 62
     3
100
AcDbLine
 10
186.812347168524
 20
378.0941637980051
 30
0.0
 11
190.5651171685241
 21
384.5941507980052
 31
0.0
  0
LINE
  5
DEF5
330
37
100
AcDbEntity
  8
0
 62
     3
100
AcDbLine
 10
179.306778168524
 20
391.0941417980051
 30
0.0
 11
186.8123321685241
 21
391.0941417980051
 31
0.0
  0
LINE
  5
DEF6
330
37
100
AcDbEntity
  8
0
 62
     3
100
AcDbLine
 10
179.306778168524
 20
378.0941417980051
 30
0.0
 11
186.8123321685241
 21
378.0941417980051
 31
0.0
  0
LINE
  5
DF07
330
37
100
AcDbEntity
  8
0
 62
     3
100
AcDbLine
 10
305.2207408256378
 20
282.9146070198204
 30
0.0
 11
305.2095514201702
 21
291.9146070198205
 31
0.0
  0
LINE
  5
DF08
330
37
100
AcDbEntity
  8
0
 62
     3
100
AcDbLine
 10
314.9207483223454
 20
282.9146070198204
 30
0.0
 11
314.9095589168779
 21
291.9146070198205
 31
0.0
  0
LINE
  5
DF09
330
37
100
AcDbEntity
  8
0
 62
     3
100
AcDbLine
 10
165.7452634332096
 20
261.4146070198204
 30
0.0
 11
169.1823722503964
 21
262.7299827184324
 31
0.0
  0
LINE
  5
DF0A
330
37
100
AcDbEntity
  8
0
 62
   110
100
AcDbLine
 10
183.0657715088984
 20
318.914610799579
 30
0.0
 11
183.0657715088984
 21
272.9146070198205
 31
0.0
  0
LINE
  5
DF0E
330
37
100
AcDbEntity
  8
0
 62
     3
100
AcDbLine
 10
200.2507634597095
 20
261.4146070198204
 30
0.0
 11
196.8732388130047
 21
262.7464409881873
 31
0.0
  0
LINE
  5
DF0F
330
37
100
AcDbEntity
  8
0
 62
     3
100
AcDbLine
 10
310.059555168524
 20
261.4146070198206
 30
0.0
 11
310.0595551685239
 21
253.4146070198205
 31
0.0
  0
LINE
  5
DF10
330
37
100
AcDbEntity
  8
0
 62
     3
100
AcDbLine
 10
174.3070410563522
 20
261.4146070198206
 30
0.0
 11
174.3070410563522
 21
253.4146070198205
 31
0.0
  0
LINE
  5
DF11
330
37
100
AcDbEntity
  8
0
 62
     3
100
AcDbLine
 10
191.7260255467428
 20
261.4146070198206
 30
0.0
 11
191.7260255467428
 21
253.4146070198204
 31
0.0
  0
LINE
  5
DF12
330
37
100
AcDbEntity
  8
0
 62
   110
100
AcDbLine
 10
310.0595551685241
 20
317.9146070198204
 30
0.0
 11
310.059555168524
 21
272.9146070198205
 31
0.0
  0
LINE
  5
DF14
330
37
100
AcDbEntity
  8
0
 62
     3
100
AcDbLine
 10
168.4010746714819
 20
282.9146070198204
 30
0.0
 11
197.7304683463149
 21
282.9146070198204
 31
0.0
  0
LINE
  5
DF15
330
37
100
AcDbEntity
  8
0
 62
     3
100
AcDbLine
 10
175.7166389819888
 20
282.9146070198204
 30
0.0
 11
175.7166389819888
 21
271.4146070198205
 31
0.0
  0
LINE
  5
DF16
330
37
100
AcDbEntity
  8
0
 62
     3
100
AcDbLine
 10
168.3842905632805
 20
282.9146070198204
 30
0.0
 11
168.3842905632805
 21
271.4146070198205
 31
0.0
  0
LINE
  5
DF17
330
37
100
AcDbEntity
  8
0
 62
     3
100
AcDbLine
 10
190.3813358194053
 20
282.9146070198204
 30
0.0
 11
190.3813358194053
 21
271.4146070198205
 31
0.0
  0
LINE
  5
DF18
330
37
100
AcDbEntity
  8
0
 62
     3
100
AcDbLine
 10
197.7136842381135
 20
282.9146070198204
 30
0.0
 11
197.7136842381135
 21
271.4146070198204
 31
0.0
  0
LINE
  5
DF19
330
37
100
AcDbEntity
  8
0
 62
     3
100
AcDbLine
 10
195.7657715088983
 20
282.9146070198204
 30
0.0
 11
170.3657715088984
 21
282.9146070198206
 31
0.0
  0
LINE
  5
DF1A
330
37
100
AcDbEntity
  8
0
 62
     3
100
AcDbLine
 10
197.7136842381135
 20
271.4146070198204
 30
0.0
 11
168.3842905632805
 21
271.4146070198205
 31
0.0
  0
LINE
  5
DF1B
330
37
100
AcDbEntity
  8
0
 62
     3
100
AcDbLine
 10
299.9013392767257
 20
271.4146070198205
 30
0.0
 11
299.9013392767257
 21
268.2440408662097
 31
0.0
  0
LINE
  5
DF1C
330
37
100
AcDbEntity
  8
0
 62
     3
100
AcDbLine
 10
320.2513392767256
 20
271.4146070198205
 30
0.0
 11
320.2513392767256
 21
268.2440408662097
 31
0.0
  0
LINE
  5
DF1D
330
37
100
AcDbEntity
  8
0
 62
     3
100
AcDbLine
 10
310.0595551685241
 20
282.9146070198206
 30
0.0
 11
310.0595551685241
 21
271.4146070198205
 31
0.0
  0
LINE
  5
DF1E
330
37
100
AcDbEntity
  8
0
 62
     3
100
AcDbLine
 10
321.0345551685242
 20
268.2440408662097
 30
0.0
 11
299.0845551667764
 21
268.2440408662097
 31
0.0
  0
LINE
  5
DF1F
330
37
100
AcDbEntity
  8
0
 62
     3
100
AcDbLine
 10
172.0739873997053
 20
271.4146070198205
 30
0.0
 11
172.0739873979274
 21
266.932573727144
 31
0.0
  0
LINE
  5
DF20
330
37
100
AcDbEntity
  8
0
 62
     3
100
AcDbLine
 10
194.023987400697
 20
271.4146070198205
 30
0.0
 11
194.0239874006969
 21
266.9327316016339
 31
0.0
  0
LINE
  5
DF21
330
37
100
AcDbEntity
  8
0
 62
     3
100
AcDbLine
 10
172.8907715088983
 20
271.4146070198205
 30
0.0
 11
172.8907715088983
 21
268.2440408662096
 31
0.0
  0
LINE
  5
DF22
330
37
100
AcDbEntity
  8
0
 62
     3
100
AcDbLine
 10
193.2407715088984
 20
271.4146070198205
 30
0.0
 11
193.2407715088984
 21
268.2440408662096
 31
0.0
  0
LINE
  5
DF23
330
37
100
AcDbEntity
  8
0
 62
     3
100
AcDbLine
 10
194.0239874006969
 20
268.2440408662096
 30
0.0
 11
172.0739873989492
 21
268.2440408662096
 31
0.0
  0
ARC
  5
DF24
330
37
100
AcDbEntity
  8
0
 62
     3
100
AcDbCircle
 10
198.5239874006969
 20
266.932731601634
 30
0.0
 40
4.5
100
AcDbArc
 50
180.0
 51
248.4795665285901
  0
ARC
  5
DF25
330
37
100
AcDbEntity
  8
0
 62
     3
100
AcDbCircle
 10
167.5739874006966
 20
266.9327316016345
 30
0.0
 40
4.500000000000044
100
AcDbArc
 50
290.9417634675841
 51
359.9979898795546
  0
LINE
  5
DF27
330
37
100
AcDbEntity
  8
0
 62
     3
100
AcDbLine
 10
202.5657715088983
 20
217.2834117733447
 30
0.0
 11
212.0657715088985
 21
217.2834117733447
 31
0.0
  0
LINE
  5
DF29
330
37
100
AcDbEntity
  8
0
 62
     3
100
AcDbLine
 10
202.5657715088983
 20
180.5458022662961
 30
0.0
 11
212.0657715088984
 21
180.545802266296
 31
0.0
  0
TEXT
  5
DF2F
330
37
100
AcDbEntity
  8
0
 62
   110
100
AcDbText
 10
150.8193153349757
 20
141.4993390198205
 30
0.0
 40
4.167178999999999
  1
        GATE VALVE  11/4
  7
MX_NOTE_STANDARD
100
AcDbText
  0
TEXT
  5
DF30
330
37
100
AcDbEntity
  8
0
 62
   110
100
AcDbText
 10
150.7585343349756
 20
125.4993390198204
 30
0.0
 40
4.167178999999999
  1
TOA
 41
0.9124859999999999
  7
MX_NOTE_STANDARD
100
AcDbText
  0
TEXT
  5
DF31
330
37
100
AcDbEntity
  8
0
 62
   110
100
AcDbText
 10
150.8361353349755
 20
133.4993390198204
 30
0.0
 40
4.167178999999999
  1
FIG   FR11/4
 41
1.024218999999998
  7
MX_NOTE_STANDARD
100
AcDbText
  0
TEXT
  5
DF32
330
37
100
AcDbEntity
  8
0
 62
   110
100
AcDbText
 10
150.7585343349756
 20
149.4993390198204
 30
0.0
 40
4.167178999999999
  1
NAME  CLASS 125 BRASS
 41
0.9124859999999999
  7
MX_NOTE_STANDARD
100
AcDbText
  0
LWPOLYLINE
  5
DF38
330
37
100
AcDbEntity
  8
0
 62
     3
100
AcDbPolyline
 90
        7
 70
     0
 43
0.0
 10
334.5132255972804
 20
308.1536241232735
 10
336.3274062416522
 20
308.1536241232736
 42
-0.3891335041401637
 10
343.5576523853953
 20
305.3582584383077
 42
-0.5562333753131814
 10
342.6614529550931
 20
303.9146070198204
 10
338.3430304453437
 20
303.9146070198202
 42
-0.2777174623191159
 10
337.9012145733567
 20
304.1805157229716
 10
335.7961066383162
 20
308.1536241232735
  0
LWPOLYLINE
  5
DF39
330
37
100
AcDbEntity
  8
0
 62
     3
100
AcDbPolyline
 90
        4
 70
     0
 43
0.0
 10
335.2730406319563
 20
303.9146070198204
 10
335.9867503024707
 20
303.9146070198202
 42
0.5652912783785915
 10
336.4285661744578
 20
304.6486983166689
 10
334.5715196547477
 20
308.1536241232735
  0
LWPOLYLINE
  5
DF3A
330
37
100
AcDbEntity
  8
0
 62
     3
100
AcDbPolyline
 90
        7
 70
     1
 43
0.0
 10
322.7886828152644
 20
304.3074246557463
 42
0.3522622163507818
 10
323.2770596583185
 20
303.9146070198204
 10
329.2015558088984
 20
303.9146070198207
 42
0.4455482202550054
 10
330.1959656522738
 20
305.0201961451407
 42
0.1446415011088052
 10
328.959663349985
 20
308.001707345867
 42
0.3147949331696338
 10
326.1588570553781
 20
308.1536241232736
 10
321.9445708195934
 20
308.1536241232735
  0
LWPOLYLINE
  5
DF3B
330
37
100
AcDbEntity
  8
0
 62
     3
100
AcDbPolyline
 90
        6
 70
     0
 43
0.0
 10
335.1551891338419
 20
301.9146070198208
 42
0.1431475204990165
 10
334.0504893499422
 20
309.2437769214809
 42
0.054529746927522
 10
332.5397705117895
 20
311.4510287039915
 42
0.1868050035715048
 10
328.7701991769492
 20
312.9146070198205
 42
0.284155532268236
 10
325.3518726819454
 20
310.4146070198203
 10
313.5595551685243
 20
310.4146070198201
  0
LWPOLYLINE
  5
DF3C
330
37
100
AcDbEntity
  8
0
 62
     3
100
AcDbPolyline
 90
        6
 70
     0
 43
0.0
 10
313.5595551685243
 20
308.1536241232735
 10
318.9881563155574
 20
308.1536241232735
 10
319.7852224312613
 20
304.5217893838946
 42
-0.4790030926081064
 10
319.2968455882073
 20
303.9146070198204
 10
314.5595551685243
 20
303.9146070198204
 42
-0.4142135623730951
 10
313.5595551685243
 20
304.9146070198204
  0
LWPOLYLINE
  5
DF3D
330
37
100
AcDbEntity
  8
0
 62
     3
100
AcDbPolyline
 90
        8
 70
     0
 43
0.0
 10
271.9811776726313
 20
301.9146070198202
 10
305.5595551685239
 20
301.9146070198204
 42
0.4142135623730951
 10
306.5595551685238
 20
302.9146070198204
 10
306.5595551685228
 20
311.7880041922242
 42
-0.3218865221702702
 10
313.5595551685243
 20
311.788004192225
 10
313.5595551685243
 20
302.9146070198204
 42
0.4142135623730951
 10
314.5595551685243
 20
301.9146070198204
 10
348.1379326644169
 20
301.9146070198202
  0
LWPOLYLINE
  5
DF3E
330
37
100
AcDbEntity
  8
0
 62
     3
100
AcDbPolyline
 90
        9
 70
     0
 43
0.0
 10
272.5595551685241
 20
296.9146070198204
 10
310.0595551685241
 20
296.9146070198204
 10
347.5595551685241
 20
296.9146070198204
 42
0.4142135623730951
 10
348.5595551685241
 20
297.9146070198204
 10
348.5595551685241
 20
298.9146070198204
 10
347.9680940482202
 20
303.1230715671989
 42
0.1328409089400239
 10
343.6698931625291
 20
311.4779510776302
 42
0.4007910367776997
 10
334.0595551685241
 20
310.4146070198205
 10
333.3374560097023
 20
310.4146070198205
  0
LWPOLYLINE
  5
DF3F
330
37
100
AcDbEntity
  8
0
 62
     3
100
AcDbPolyline
 90
        3
 70
     0
 43
0.0
 10
320.0595551685241
 20
295.4146070198204
 10
332.0652067662155
 20
296.4649654328603
 42
0.1517828920160613
 10
333.1636596725604
 20
296.9146070198203
  0
LWPOLYLINE
  5
DF40
330
37
100
AcDbEntity
  8
0
 62
     3
100
AcDbPolyline
 90
        6
 70
     0
 43
0.0
 10
300.0595551685241
 20
296.9146070198204
 10
300.0595551685241
 20
292.4146070198204
 42
0.4142135623730951
 10
300.5595551685241
 20
291.9146070198205
 10
319.5595551685241
 20
291.9146070198205
 42
0.4142135623730951
 10
320.0595551685241
 20
292.4146070198204
 10
320.0595551685241
 20
296.9146070198204
  0
LWPOLYLINE
  5
DF41
330
37
100
AcDbEntity
  8
0
 62
     3
100
AcDbPolyline
 90
        7
 70
     0
 43
0.0
 10
285.6058847397677
 20
308.1536241232735
 10
283.791704095396
 20
308.1536241232736
 42
0.3891335041401552
 10
276.5614579516529
 20
305.3582584383077
 42
0.556233375313178
 10
277.4576573819551
 20
303.9146070198204
 10
281.7760798917043
 20
303.9146070198202
 42
0.2777174623191181
 10
282.2178957636914
 20
304.1805157229716
 10
284.3230036987319
 20
308.1536241232735
  0
LWPOLYLINE
  5
DF42
330
37
100
AcDbEntity
  8
0
 62
     3
100
AcDbPolyline
 90
        4
 70
     0
 43
0.0
 10
284.8460697050917
 20
303.9146070198204
 10
284.1323600345774
 20
303.9146070198202
 42
-0.5652912783785978
 10
283.6905441625903
 20
304.6486983166689
 10
285.5475906823004
 20
308.1536241232735
  0
LWPOLYLINE
  5
DF43
330
37
100
AcDbEntity
  8
0
 62
     3
100
AcDbPolyline
 90
        7
 70
     1
 43
0.0
 10
298.1745395174547
 20
308.1536241232735
 10
293.9602532816701
 20
308.1536241232736
 42
0.3147949331696331
 10
291.1594469870632
 20
308.001707345867
 42
0.1446415011088171
 10
289.9231446847742
 20
305.0201961451407
 42
0.4455482202550043
 10
290.9175545281497
 20
303.9146070198207
 10
296.8420506787296
 20
303.9146070198204
 42
0.3522622163507823
 10
297.3304275217837
 20
304.3074246557463
  0
LWPOLYLINE
  5
DF44
330
37
100
AcDbEntity
  8
0
 62
     3
100
AcDbPolyline
 90
        6
 70
     0
 43
0.0
 10
306.5595551685238
 20
310.4146070198201
 10
294.7672376551028
 20
310.4146070198203
 42
0.2841555322682366
 10
291.348911160099
 20
312.9146070198205
 42
0.1868050035715141
 10
287.5793398252584
 20
311.4510287039912
 42
0.0545297469275151
 10
286.068620987106
 20
309.2437769214809
 42
0.1431475204990151
 10
284.9639212032063
 20
301.9146070198208
  0
LWPOLYLINE
  5
DF45
330
37
100
AcDbEntity
  8
0
 62
     3
100
AcDbPolyline
 90
        6
 70
     0
 43
0.0
 10
306.5595551685238
 20
308.1536241232735
 10
301.1309540214908
 20
308.1536241232735
 10
300.3338879057868
 20
304.5217893838946
 42
0.4790030926081083
 10
300.8222647488409
 20
303.9146070198204
 10
305.5595551685239
 20
303.9146070198204
 42
0.4142135623730951
 10
306.5595551685238
 20
304.9146070198204
  0
LWPOLYLINE
  5
DF46
330
37
100
AcDbEntity
  8
0
 62
     3
100
AcDbPolyline
 90
        4
 70
     0
 43
0.0
 10
272.1510162888281
 20
303.1230715671992
 42
-0.1328409089400122
 10
276.4492171745191
 20
311.4779510776302
 42
-0.4007910367776941
 10
286.0595551685241
 20
310.4146070198205
 10
286.7816543273458
 20
310.4146070198205
  0
LWPOLYLINE
  5
DF47
330
37
100
AcDbEntity
  8
0
 62
     3
100
AcDbPolyline
 90
        3
 70
     0
 43
0.0
 10
286.9554506644877
 20
296.9146070198204
 42
0.1517828920160704
 10
288.0539035708326
 20
296.4649654328603
 10
300.0595551685241
 20
295.4146070198204
  0
LINE
  5
DF51
330
37
100
AcDbEntity
  8
0
 62
     3
100
AcDbLine
 10
178.1047807077169
 20
202.5133255152206
 30
0.0
 11
181.0846711005673
 21
202.509010168743
 31
0.0
  0
ARC
  5
DF52
330
37
100
AcDbEntity
  8
0
 62
     3
100
AcDbCircle
 10
181.0842399664092
 20
202.2112976809168
 30
0.0
 40
0.2977128
100
AcDbArc
 50
345.0000000000055
 51
89.91702682484525
1001
GENIUS_GENOBJ-N-FIL_13
1002
{
1000
OWNER
1000
GEN
1002
}
1001
GENIUS_GENODEF_13
1002
{
1000
HIER
1070
     0
1002
}
1002
{
1000
MANEDIT
1070
     0
1002
}
1002
{
1000
NOSEL
1070
     0
1002
}
1002
{
1000
BEHIND
1070
     0
1002
}
1002
{
1000
OTHER
1070
     0
1002
}
1002
{
1000
REACTOR
1002
}
  0
LINE
  5
DF53
330
37
100
AcDbEntity
  8
0
 62
     3
100
AcDbLine
 10
180.0653054476009
 20
201.6136458913726
 30
0.0
 11
181.0021984705171
 21
201.6136458913726
 31
0.0
  0
ARC
  5
DF54
330
37
100
AcDbEntity
  8
0
 62
     3
100
AcDbCircle
 10
178.0244245648313
 20
201.9135390993203
 30
0.0
 40
0.29989320795
100
AcDbArc
 50
165.0000000000055
 51
270.0
  0
ARC
  5
DF55
330
37
100
AcDbEntity
  8
0
 62
     3
100
AcDbCircle
 10
178.8818678576852
 20
199.2145002277708
 30
0.0
 40
0.29989320795
100
AcDbArc
 50
270.0
 51
345.0000000000055
  0
ARC
  5
DF56
330
37
100
AcDbEntity
  8
0
 62
     3
100
AcDbCircle
 10
178.6983446057169
 20
199.2145002277708
 30
0.0
 40
0.29989320795
100
AcDbArc
 50
165.0000000000055
 51
270.0
  0
LINE
  5
DF57
330
37
100
AcDbEntity
  8
0
 62
     3
100
AcDbLine
 10
178.6983446057169
 20
198.9146070198204
 30
0.0
 11
178.8818678576852
 21
198.9146070198204
 31
0.0
  0
LINE
  5
DF58
330
37
100
AcDbEntity
  8
0
 62
     3
100
AcDbLine
 10
178.0244245648313
 20
201.6136458913726
 30
0.0
 11
178.639893016203
 21
201.6136458913726
 31
0.0
  0
LINE
  5
DF59
330
37
100
AcDbEntity
  8
0
 62
     3
100
AcDbLine
 10
178.9295676108912
 20
201.2361346097069
 30
0.0
 11
178.4086700110291
 21
199.2921183014847
 31
0.0
  0
ARC
  5
DF5A
330
37
100
AcDbEntity
  8
0
 62
     3
100
AcDbCircle
 10
180.0653054476009
 20
201.3137526834204
 30
0.0
 40
0.29989320795
100
AcDbArc
 50
90.0
 51
165.0000000000055
  0
ARC
  5
DF5B
330
37
100
AcDbEntity
  8
0
 62
     3
100
AcDbCircle
 10
178.639893016203
 20
201.3137526834204
 30
0.0
 40
0.29989320795
100
AcDbArc
 50
345.0000000000055
 51
90.0
  0
LINE
  5
DF5C
330
37
100
AcDbEntity
  8
0
 62
     3
100
AcDbLine
 10
179.7756308529131
 20
201.3913707571347
 30
0.0
 11
179.171542452373
 21
199.1368821540569
 31
0.0
  0
LINE
  5
DF5D
330
37
100
AcDbEntity
  8
0
 62
     3
100
AcDbLine
 10
177.8151061130292
 20
202.291050380985
 30
0.0
 11
177.734749970143
 21
201.9911571730369
 31
0.0
  0
ARC
  5
DF5E
330
37
100
AcDbEntity
  8
0
 62
     3
100
AcDbCircle
 10
178.1047807077169
 20
202.2134323072711
 30
0.0
 40
0.29989320795
100
AcDbArc
 50
90.0
 51
165.0000000000055
  0
ARC
  5
DF5F
330
37
100
AcDbEntity
  8
0
 62
     3
100
AcDbCircle
 10
187.5865890441349
 20
201.3137526834204
 30
0.0
 40
1.199572831799998
100
AcDbArc
 50
0.0
 51
90.0
  0
ARC
  5
DF60
330
37
100
AcDbEntity
  8
0
 62
     3
100
AcDbCircle
 10
188.167329744151
 20
199.2145002277708
 30
0.0
 40
0.29989320795
100
AcDbArc
 50
194.4775121859299
 51
270.0
  0
ARC
  5
DF61
330
37
100
AcDbEntity
  8
0
 62
     3
100
AcDbCircle
 10
187.0721817030529
 20
201.3137526834204
 30
0.0
 40
1.199572831799998
100
AcDbArc
 50
90.0
 51
165.0000000000055
  0
ARC
  5
DF64
330
37
100
AcDbEntity
  8
0
 62
     3
100
AcDbCircle
 10
181.0021984705171
 20
201.9135390993203
 30
0.0
 40
0.29989320795
100
AcDbArc
 50
270.0
 51
345.0000000000055
  0
LINE
  5
DF65
330
37
100
AcDbEntity
  8
0
 62
     3
100
AcDbLine
 10
181.881704334441
 20
201.1638060794468
 30
0.0
 11
184.859478240125
 21
201.1638060794468
 31
0.0
  0
LINE
  5
DF67
330
37
100
AcDbEntity
  8
0
 62
     3
100
AcDbLine
 10
181.439745548569
 20
198.9146070198204
 30
0.0
 11
184.4175194542548
 21
198.9146070198204
 31
0.0
  0
ARC
  5
DF68
330
37
100
AcDbEntity
  8
0
 62
     3
100
AcDbCircle
 10
181.439745548569
 20
199.2145002277708
 30
0.0
 40
0.29989320795
100
AcDbArc
 50
165.0000000000055
 51
270.0
  0
ARC
  5
DF69
330
37
100
AcDbEntity
  8
0
 62
     3
100
AcDbCircle
 10
182.4916966474692
 20
199.6643400396966
 30
0.0
 40
0.29989320795
100
AcDbArc
 50
165.0000000000055
 51
270.0
  0
LINE
  5
DF6A
330
37
100
AcDbEntity
  8
0
 62
     3
100
AcDbLine
 10
182.4029124099969
 20
200.4916911332867
 30
0.0
 11
182.2020220527832
 21
199.7419581134105
 31
0.0
  0
ARC
  5
DF6B
330
37
100
AcDbEntity
  8
0
 62
     3
100
AcDbCircle
 10
181.881704334441
 20
200.8639128714968
 30
0.0
 40
0.29989320795
100
AcDbArc
 50
90.0
 51
165.0000000000055
  0
LINE
  5
DF6C
330
37
100
AcDbEntity
  8
0
 62
     3
100
AcDbLine
 10
181.5920297397527
 20
200.9415309452108
 30
0.0
 11
181.1500709538812
 21
199.2921183014847
 31
0.0
  0
ARC
  5
DF6D
330
37
100
AcDbEntity
  8
0
 62
     3
100
AcDbCircle
 10
182.6925870046828
 20
200.4140730595706
 30
0.0
 40
0.29989320795
100
AcDbArc
 50
90.0
 51
165.0000000000055
  0
LINE
  5
DF6E
330
37
100
AcDbEntity
  8
0
 62
     3
100
AcDbLine
 10
182.6925870046828
 20
200.7139662675205
 30
0.0
 11
183.8075271412252
 21
200.7139662675205
 31
0.0
  0
LINE
  5
DF6F
330
37
100
AcDbEntity
  8
0
 62
     3
100
AcDbLine
 10
184.097201735913
 20
200.3364549858567
 30
0.0
 11
183.8963113786993
 21
199.5867219659827
 31
0.0
  0
ARC
  5
DF70
330
37
100
AcDbEntity
  8
0
 62
     3
100
AcDbCircle
 10
183.6066367840111
 20
199.6643400396966
 30
0.0
 40
0.29989320795
100
AcDbArc
 50
270.0
 51
345.0000000000055
  0
LINE
  5
DF71
330
37
100
AcDbEntity
  8
0
 62
     3
100
AcDbLine
 10
182.4916966474692
 20
199.3644468317467
 30
0.0
 11
183.6066367840111
 21
199.3644468317467
 31
0.0
  0
ARC
  5
DF72
330
37
100
AcDbEntity
  8
0
 62
     3
100
AcDbCircle
 10
183.8075271412252
 20
200.4140730595706
 30
0.0
 40
0.29989320795
100
AcDbArc
 50
345.0000000000055
 51
90.0
  0
ARC
  5
DF73
330
37
100
AcDbEntity
  8
0
 62
     3
100
AcDbCircle
 10
185.8887441131371
 20
199.2145002277708
 30
0.0
 40
0.29989320795
100
AcDbArc
 50
270.0
 51
345.0000000000055
  0
ARC
  5
DF74
330
37
100
AcDbEntity
  8
0
 62
     3
100
AcDbCircle
 10
184.4175194542548
 20
199.2145002277708
 30
0.0
 40
0.29989320795
100
AcDbArc
 50
270.0
 51
345.0000000000055
  0
LINE
  5
DF75
330
37
100
AcDbEntity
  8
0
 62
     3
100
AcDbLine
 10
185.5744602881271
 20
198.9146070198204
 30
0.0
 11
185.8887441131371
 21
198.9146070198204
 31
0.0
  0
ARC
  5
DF76
330
37
100
AcDbEntity
  8
0
 62
     3
100
AcDbCircle
 10
186.4695106314091
 20
199.0645536237968
 30
0.0
 40
0.29989320795
100
AcDbArc
 50
90.0
 51
165.0000000000055
  0
ARC
  5
DF77
330
37
100
AcDbEntity
  8
0
 62
     3
100
AcDbCircle
 10
184.859478240125
 20
200.8639128714968
 30
0.0
 40
0.29989320795
100
AcDbArc
 50
345.0000000000055
 51
90.0
  0
LINE
  5
DF78
330
37
100
AcDbEntity
  8
0
 62
     3
100
AcDbLine
 10
186.179836036721
 20
199.1421716975107
 30
0.0
 11
186.178418707825
 21
199.1368821540569
 31
0.0
  0
LINE
  5
DF79
330
37
100
AcDbEntity
  8
0
 62
     3
100
AcDbLine
 10
185.1491528348132
 20
200.7862947977825
 30
0.0
 11
184.7071940489412
 21
199.1368821540569
 31
0.0
  0
LINE
  5
DF7A
330
37
100
AcDbEntity
  8
0
 62
     3
100
AcDbLine
 10
185.9134833243009
 20
201.6242249782787
 30
0.0
 11
185.287610726997
 21
199.2884366460744
 31
0.0
  0
ARC
  5
DF7B
330
37
100
AcDbEntity
  8
0
 62
     3
100
AcDbCircle
 10
185.5744602881271
 20
199.2115755378205
 30
0.0
 40
0.296968518
100
AcDbArc
 50
164.999999999992
 51
270.0
1001
GENIUS_GENODEF_13
1002
{
1000
HIER
1070
     0
1002
}
1002
{
1000
MANEDIT
1070
     0
1002
}
1002
{
1000
NOSEL
1070
     0
1002
}
1002
{
1000
BEHIND
1070
     0
1002
}
1002
{
1000
OTHER
1070
     0
1002
}
1002
{
1000
REACTOR
1002
}
1001
GENIUS_GENOBJ-N-FIL_13
1002
{
1000
OWNER
1000
GEN
1002
}
  0
LINE
  5
DF7C
330
37
100
AcDbEntity
  8
0
 62
     3
100
AcDbLine
 10
187.0721817030529
 20
201.6136458913726
 30
0.0
 11
187.5865890441349
 21
201.6136458913726
 31
0.0
  0
ARC
  5
DF7D
330
37
100
AcDbEntity
  8
0
 62
     3
100
AcDbCircle
 10
187.0721817030529
 20
201.3137526834204
 30
0.0
 40
0.29989320795
100
AcDbArc
 50
90.0
 51
165.0000000000055
  0
ARC
  5
DF7E
330
37
100
AcDbEntity
  8
0
 62
     3
100
AcDbCircle
 10
187.5865890441349
 20
201.3137526834204
 30
0.0
 40
0.29989320795
100
AcDbArc
 50
0.0
 51
90.0
  0
ARC
  5
DF7F
330
37
100
AcDbEntity
  8
0
 62
     3
100
AcDbCircle
 10
187.5865890441349
 20
199.0645536237968
 30
0.0
 40
0.29989320795
100
AcDbArc
 50
14.47751218592986
 51
90.0
  0
LINE
  5
DF80
330
37
100
AcDbEntity
  8
0
 62
     3
100
AcDbLine
 10
186.4695106314091
 20
199.3644468317467
 30
0.0
 11
187.5865890441349
 21
199.3644468317467
 31
0.0
  0
LINE
  5
DF81
330
37
100
AcDbEntity
  8
0
 62
     3
100
AcDbLine
 10
186.7507571315089
 20
199.8142866436707
 30
0.0
 11
187.5865890441349
 21
199.8142866436707
 31
0.0
  0
ARC
  5
DF82
330
37
100
AcDbEntity
  8
0
 62
     3
100
AcDbCircle
 10
187.5865890441349
 20
200.1141798516206
 30
0.0
 40
0.29989320795
100
AcDbArc
 50
270.0
 51
0.0
  0
ARC
  5
DF83
330
37
100
AcDbEntity
  8
0
 62
     3
100
AcDbCircle
 10
186.7507571315089
 20
200.1141798516206
 30
0.0
 40
0.29989320795
100
AcDbArc
 50
165.0000000000055
 51
270.0
  0
LINE
  5
DF84
330
37
100
AcDbEntity
  8
0
 62
     3
100
AcDbLine
 10
187.8864822520853
 20
201.3137526834204
 30
0.0
 11
187.8864822520853
 21
200.1141798516206
 31
0.0
  0
LINE
  5
DF85
330
37
100
AcDbEntity
  8
0
 62
     3
100
AcDbLine
 10
186.7825071083651
 20
201.3913707571347
 30
0.0
 11
186.4610825368212
 21
200.191797925335
 31
0.0
  0
LINE
  5
DF89
330
37
100
AcDbEntity
  8
0
 62
     3
100
AcDbLine
 10
181.3718084487449
 20
202.1342439383067
 30
0.0
 11
181.291873065203
 21
201.8359210256068
 31
0.0
  0
LINE
  5
DF8C
330
37
100
AcDbEntity
  8
0
 62
     3
100
AcDbLine
 10
187.0721817030529
 20
202.5133255152206
 30
0.0
 11
187.5865890441349
 21
202.5133255152206
 31
0.0
  0
ARC
  5
DF8D
330
37
100
AcDbEntity
  8
0
 62
     3
100
AcDbCircle
 10
188.4862686679852
 20
199.2145002277708
 30
0.0
 40
0.29989320795
100
AcDbArc
 50
270.0
 51
0.0
  0
LINE
  5
DF8E
330
37
100
AcDbEntity
  8
0
 62
     3
100
AcDbLine
 10
188.167329744151
 20
198.9146070198204
 30
0.0
 11
188.4862686679852
 21
198.9146070198204
 31
0.0
  0
LINE
  5
DF8F
330
37
100
AcDbEntity
  8
0
 62
     3
100
AcDbLine
 10
188.7861618759369
 20
201.3137526834204
 30
0.0
 11
188.7861618759369
 21
199.2145002277708
 31
0.0
  0
LINE
  5
E254
330
37
100
AcDbEntity
  8
0
 62
     3
100
AcDbLine
 10
212.0657715088985
 20
224.8920198268379
 30
0.0
 11
212.0657715088984
 21
172.937194212803
 31
0.0
  0
LWPOLYLINE
  5
E256
330
37
100
AcDbEntity
  8
0
 62
     3
100
AcDbPolyline
 90
        8
 70
     1
 43
0.0
 10
291.6907504149998
 20
217.2834117733447
 10
284.0821423615066
 20
198.9146070198204
 10
291.6907504149998
 20
180.5458022662961
 10
310.0595551685241
 20
172.937194212803
 10
328.4283599220484
 20
180.5458022662961
 10
336.0369679755415
 20
198.9146070198204
 10
328.4283599220484
 20
217.2834117733447
 10
310.0595551685241
 20
224.8920198268379
  0
LINE
  5
E26F
330
37
100
AcDbEntity
  8
0
 62
     3
100
AcDbLine
 10
197.7136842381135
 20
271.4146070198204
 30
0.0
 11
168.3842905632805
 21
271.4146070198205
 31
0.0
  0
LINE
  5
E270
330
37
100
AcDbEntity
  8
0
 62
     3
100
AcDbLine
 10
322.5595551685241
 20
282.9146070198204
 30
0.0
 11
297.5595551685241
 21
282.9146070198204
 31
0.0
  0
LINE
  5
E271
330
37
100
AcDbEntity
  8
0
 62
     3
100
AcDbLine
 10
297.5595551685241
 20
282.9146070198206
 30
0.0
 11
297.5595551685241
 21
271.4146070198207
 31
0.0
  0
LINE
  5
E272
330
37
100
AcDbEntity
  8
0
 62
     3
100
AcDbLine
 10
297.5595551685241
 20
271.4146070198205
 30
0.0
 11
322.5595551685241
 21
271.4146070198205
 31
0.0
  0
LINE
  5
E273
330
37
100
AcDbEntity
  8
0
 62
     3
100
AcDbLine
 10
322.5595551685241
 20
271.4146070198206
 30
0.0
 11
322.5595551685241
 21
282.9146070198204
 31
0.0
  0
LINE
  5
E27D
330
37
100
AcDbEntity
  8
0
 62
     3
100
AcDbLine
 10
297.5595551685241
 20
271.4146070198205
 30
0.0
 11
322.5595551685241
 21
271.4146070198205
 31
0.0
  0
LINE
  5
E27E
330
37
100
AcDbEntity
  8
Defpoints
 62
   110
100
AcDbLine
 10
183.0657715088984
 20
271.9146070198205
 30
0.0
 11
183.0657715088984
 21
168.214613799579
 31
0.0
  0
LINE
  5
E27F
330
37
100
AcDbEntity
  8
Defpoints
 62
   110
100
AcDbLine
 10
310.059555168524
 20
271.9146070198206
 30
0.0
 11
310.0595551685241
 21
167.2146100198204
 31
0.0
  0
LINE
  5
E2BF
330
37
100
AcDbEntity
  8
0
 62
     3
100
AcDbLine
 10
297.5595551685241
 20
271.4146070198205
 30
0.0
 11
322.5595551685241
 21
271.4146070198205
 31
0.0
  0
LINE
  5
E2C0
330
37
100
AcDbEntity
  8
0
 62
     3
100
AcDbLine
 10
197.6969001299121
 20
271.4146070198204
 30
0.0
 11
168.3675064550791
 21
271.4146070198205
 31
0.0
  0
LINE
  5
E310
330
37
100
AcDbEntity
  8
0
 62
     3
100
AcDbLine
 10
208.0657715088984
 20
249.9146070198205
 30
0.0
 11
158.0657715088984
 21
249.9146070198204
 31
0.0
  0
LINE
  5
E311
330
37
100
AcDbEntity
  8
0
 62
     3
100
AcDbLine
 10
158.0657715088984
 20
249.9146070198205
 30
0.0
 11
158.0657715088984
 21
239.2466578273894
 31
0.0
  0
LINE
  5
E322
330
37
100
AcDbEntity
  8
0
 62
     3
100
AcDbLine
 10
335.0595551685239
 20
239.2466578273893
 30
0.0
 11
335.0595551685239
 21
249.9146070198205
 31
0.0
  0
LINE
  5
E323
330
37
100
AcDbEntity
  8
0
 62
     3
100
AcDbLine
 10
285.0595551685239
 20
249.9146070198205
 30
0.0
 11
285.0595551685239
 21
239.2466578273894
 31
0.0
  0
LINE
  5
E324
330
37
100
AcDbEntity
  8
0
 62
     3
100
AcDbLine
 10
285.0595551685239
 20
249.9146070198205
 30
0.0
 11
335.0595551685239
 21
249.9146070198204
 31
0.0
  0
LINE
  5
E325
330
37
100
AcDbEntity
  8
0
 62
     3
100
AcDbLine
 10
285.0595551685237
 20
253.4146070198205
 30
0.0
 11
335.0595551685239
 21
253.4146070198205
 31
0.0
  0
LINE
  5
E326
330
37
100
AcDbEntity
  8
0
 62
     3
100
AcDbLine
 10
285.0595551685239
 20
249.9146070198205
 30
0.0
 11
285.0595551685239
 21
253.4146070198205
 31
0.0
  0
LINE
  5
E327
330
37
100
AcDbEntity
  8
0
 62
     3
100
AcDbLine
 10
335.0595551685239
 20
249.9146070198205
 30
0.0
 11
335.0595551685239
 21
253.4146070198205
 31
0.0
  0
LINE
  5
E328
330
37
100
AcDbEntity
  8
0
 62
     3
100
AcDbLine
 10
160.6191195002111
 20
237.5146070198205
 30
0.0
 11
205.9288455847234
 21
237.5146070198204
 31
0.0
  0
LINE
  5
E329
330
37
100
AcDbEntity
  8
0
 62
     3
100
AcDbLine
 10
159.5657715088984
 20
236.6485816160361
 30
0.0
 11
165.2132986384456
 21
233.3879803075363
 31
0.0
  0
ARC
  5
E32A
330
37
100
AcDbEntity
  8
0
 62
     3
100
AcDbCircle
 10
161.0657715088984
 20
239.2466578273894
 30
0.0
 40
3.0
100
AcDbArc
 50
180.0
 51
239.9999999999999
  0
ARC
  5
E32B
330
37
100
AcDbEntity
  8
0
 62
     3
100
AcDbCircle
 10
205.0657715088984
 20
239.2466578273893
 30
0.0
 40
3.0
100
AcDbArc
 50
300.0
 51
359.9999999999998
  0
LINE
  5
E32C
330
37
100
AcDbEntity
  8
0
 62
     3
100
AcDbLine
 10
206.5657715088984
 20
236.6485816160361
 30
0.0
 11
200.9182443793512
 21
233.3879803075363
 31
0.0
  0
ARC
  5
E32D
330
37
100
AcDbEntity
  8
0
 62
     3
100
AcDbCircle
 10
288.059555168524
 20
239.2466578273894
 30
0.0
 40
3.0
100
AcDbArc
 50
180.0
 51
250.7531138049667
  0
ARC
  5
E32E
330
37
100
AcDbEntity
  8
0
 62
     3
100
AcDbCircle
 10
332.059555168524
 20
239.2466578273893
 30
0.0
 40
3.0
100
AcDbArc
 50
289.2468861950334
 51
359.9999999999998
  0
LINE
  5
E330
330
37
100
AcDbEntity
  8
0
 62
     3
100
AcDbLine
 10
287.0706371570037
 20
236.4143370181429
 30
0.0
 11
333.0004164235248
 21
236.4143370181429
 31
0.0
  0
LINE
  5
E339
330
37
100
AcDbEntity
  8
0
 62
     3
100
AcDbLine
 10
202.5657715088984
 20
224.8920198268379
 30
0.0
 11
202.5657715088983
 21
172.937194212803
 31
0.0
  0
LINE
  5
E352
330
37
100
AcDbEntity
  8
0
 62
     3
100
AcDbLine
 10
204.0657715088984
 20
234.0505054046827
 30
0.0
 11
204.0657715088983
 21
226.8920198268379
 31
0.0
  0
LINE
  5
E354
330
37
100
AcDbEntity
  8
0
 62
     3
100
AcDbLine
 10
199.429660285076
 20
231.0513713244259
 30
0.0
 11
196.6180577260185
 21
198.9146070198204
 31
0.0
  0
ARC
  5
E368
330
37
100
AcDbEntity
  8
0
 62
     3
100
AcDbCircle
 10
202.4182443793512
 20
230.7899040961829
 30
0.0
 40
3.0
100
AcDbArc
 50
119.9999999999999
 51
175.0
  0
ARC
  5
E369
330
37
100
AcDbEntity
  8
0
 62
     3
100
AcDbCircle
 10
206.0657715088984
 20
234.0505054046827
 30
0.0
 40
2.0
100
AcDbArc
 50
119.9999999999999
 51
179.9999999999998
  0
ARC
  5
E36A
330
37
100
AcDbEntity
  8
0
 62
     3
100
AcDbCircle
 10
206.0657715088983
 20
226.8920198268379
 30
0.0
 40
2.0
100
AcDbArc
 50
179.9999999999998
 51
269.9999999999999
  0
LINE
  5
E3C0
330
37
100
AcDbEntity
  8
0
 62
     3
100
AcDbLine
 10
208.0657715088984
 20
249.9146070198204
 30
0.0
 11
208.0657715088984
 21
239.2466578273893
 31
0.0
  0
ARC
  5
E3C5
330
37
100
AcDbEntity
  8
0
 62
     3
100
AcDbCircle
 10
192.7683346335119
 20
169.949981708315
 30
0.0
 40
7.0
100
AcDbArc
 50
66.02442653040622
 51
109.1346494884525
  0
ARC
  5
E3C6
330
37
100
AcDbEntity
  8
0
 62
     3
100
AcDbCircle
 10
197.6445003175607
 20
180.9146070198204
 30
0.0
 40
5.0
100
AcDbArc
 50
246.0244265304063
 51
270.0
  0
LINE
  5
E3C8
330
37
100
AcDbEntity
  8
0
 62
     3
100
AcDbLine
 10
197.6445003175607
 20
175.9146070198204
 30
0.0
 11
202.5657715088984
 21
175.9146070198204
 31
0.0
  0
ARC
  5
E3CA
330
37
100
AcDbEntity
  8
0
 62
     3
100
AcDbCircle
 10
183.0657715088984
 20
197.9146070198204
 30
0.0
 40
22.6
100
AcDbArc
 50
270.0000000000001
 51
289.1346494884526
  0
LINE
  5
E3CB
330
37
100
AcDbEntity
  8
0
 62
     3
100
AcDbLine
 10
168.487042700236
 20
175.9146070198204
 30
0.0
 11
163.5657715088984
 21
175.9146070198204
 31
0.0
  0
LINE
  5
E3D0
330
37
100
AcDbEntity
  8
0
 62
     3
100
AcDbLine
 10
166.7018827327208
 20
231.0513713244259
 30
0.0
 11
169.5134852917781
 21
198.9146070198204
 31
0.0
  0
ARC
  5
E3D2
330
37
100
AcDbEntity
  8
0
 62
     3
100
AcDbCircle
 10
163.7132986384456
 20
230.789904096183
 30
0.0
 40
3.0
100
AcDbArc
 50
4.999999999999902
 51
60.0
  0
LINE
  5
E3D3
330
37
100
AcDbEntity
  8
0
 62
     3
100
AcDbLine
 10
162.0657715088984
 20
234.0505054046827
 30
0.0
 11
162.0657715088984
 21
226.8920198268379
 31
0.0
  0
ARC
  5
E3D5
330
37
100
AcDbEntity
  8
0
 62
     3
100
AcDbCircle
 10
160.0657715088984
 20
234.0505054046827
 30
0.0
 40
2.0
100
AcDbArc
 50
0.0000000000000872
 51
60.0
  0
LINE
  5
E3D8
330
37
100
AcDbEntity
  8
0
 62
     3
100
AcDbLine
 10
159.5657715088984
 20
236.6485816160361
 30
0.0
 11
165.2132986384456
 21
233.3879803075363
 31
0.0
  0
ARC
  5
E3D9
330
37
100
AcDbEntity
  8
0
 62
     3
100
AcDbCircle
 10
183.0657715088984
 20
197.9146070198204
 30
0.0
 40
22.6
100
AcDbArc
 50
250.8653505115474
 51
270.0
  0
ARC
  5
E3DA
330
37
100
AcDbEntity
  8
0
 62
     3
100
AcDbCircle
 10
173.3632083842848
 20
169.949981708315
 30
0.0
 40
7.0
100
AcDbArc
 50
70.86535051154742
 51
113.9755734695939
  0
ARC
  5
E3DB
330
37
100
AcDbEntity
  8
0
 62
     3
100
AcDbCircle
 10
168.487042700236
 20
180.9146070198204
 30
0.0
 40
5.0
100
AcDbArc
 50
270.0
 51
293.9755734695939
  0
LINE
  5
E418
330
37
100
AcDbEntity
  8
0
 62
     3
100
AcDbLine
 10
333.0484731800443
 20
236.4143370181429
 30
0.0
 11
332.7506832103648
 21
206.8484002697302
 31
0.0
  0
LINE
  5
E41E
330
37
100
AcDbEntity
  8
0
 62
     3
100
AcDbLine
 10
311.5595551685241
 20
231.1959943936079
 30
0.0
 11
311.5595551685241
 21
224.2706994832783
 31
0.0
  0
ARC
  5
E41F
330
37
100
AcDbEntity
  8
0
 62
     3
100
AcDbCircle
 10
314.5595551685241
 20
231.1959943936079
 30
0.0
 40
3.0
100
AcDbArc
 50
105.0
 51
180.0
  0
LINE
  5
E420
330
37
100
AcDbEntity
  8
0
 62
     3
100
AcDbLine
 10
313.7830980332165
 20
234.0937718724751
 30
0.0
 11
322.443565059122
 21
236.4143370181429
 31
0.0
  0
LINE
  5
E421
330
37
100
AcDbEntity
  8
0
 62
     3
100
AcDbLine
 10
308.5595551685238
 20
231.1959943936079
 30
0.0
 11
308.5595551685238
 21
224.2706994832782
 31
0.0
  0
LINE
  5
E422
330
37
100
AcDbEntity
  8
0
 62
     3
100
AcDbLine
 10
306.3360123038314
 20
234.0937718724751
 30
0.0
 11
297.6755452779258
 21
236.4143370181428
 31
0.0
  0
ARC
  5
E423
330
37
100
AcDbEntity
  8
0
 62
     3
100
AcDbCircle
 10
305.5595551685239
 20
231.1959943936079
 30
0.0
 40
3.0
100
AcDbArc
 50
0.0000000000006456
 51
74.9999999999989
  0
LINE
  5
E43D
330
37
100
AcDbEntity
  8
0
 62
     3
100
AcDbLine
 10
321.0345551685242
 20
271.4146070198205
 30
0.0
 11
321.0345551685242
 21
266.932731601634
 31
0.0
  0
ARC
  5
E43E
330
37
100
AcDbEntity
  8
0
 62
     3
100
AcDbCircle
 10
325.5345551685242
 20
266.932731601634
 30
0.0
 40
4.499999999999943
100
AcDbArc
 50
180.0
 51
241.4000598920592
  0
LINE
  5
E43F
330
37
100
AcDbEntity
  8
0
 62
     3
100
AcDbLine
 10
323.3804459377467
 20
262.9818059604863
 30
0.0
 11
325.0595551685244
 21
262.0663281656546
 31
0.0
  0
LINE
  5
E440
330
37
100
AcDbEntity
  8
0
 62
     3
100
AcDbLine
 10
325.0595551685241
 20
262.0663281656546
 30
0.0
 11
325.0595551685237
 21
253.4146070198205
 31
0.0
  0
LINE
  5
E44A
330
37
100
AcDbEntity
  8
0
 62
     3
100
AcDbLine
 10
295.0595551685237
 20
253.4146070198204
 30
0.0
 11
295.0595551685237
 21
262.0663281656546
 31
0.0
  0
LINE
  5
E44B
330
37
100
AcDbEntity
  8
0
 62
     3
100
AcDbLine
 10
295.0595551685236
 20
262.0663281656546
 30
0.0
 11
296.7386643993023
 21
262.9818059604872
 31
0.0
  0
ARC
  5
E44C
330
37
100
AcDbEntity
  8
0
 62
     3
100
AcDbCircle
 10
294.5845551685239
 20
266.9327316016346
 30
0.0
 40
4.500000000000044
100
AcDbArc
 50
298.5999401079521
 51
359.9979898795552
  0
LINE
  5
E44D
330
37
100
AcDbEntity
  8
0
 62
     3
100
AcDbLine
 10
299.0845551657546
 20
266.9325737271441
 30
0.0
 11
299.0845551675324
 21
271.4146070198205
 31
0.0
  0
LINE
  5
E48F
330
37
100
AcDbEntity
  8
0
 62
     3
100
AcDbLine
 10
197.6969001299121
 20
271.4146070198204
 30
0.0
 11
168.367506455079
 21
271.4146070198205
 31
0.0
  0
LINE
  5
E490
330
37
100
AcDbEntity
  8
0
 62
     3
100
AcDbLine
 10
297.5595551685241
 20
271.4146070198205
 30
0.0
 11
322.5595551685241
 21
271.4146070198205
 31
0.0
  0
LINE
  5
E49B
330
37
100
AcDbEntity
  8
0
 62
     3
100
AcDbLine
 10
195.5657715088984
 20
233.9297622601502
 30
0.0
 11
195.5657715088984
 21
202.2372933427118
 31
0.0
  0
LINE
  5
E49C
330
37
100
AcDbEntity
  8
0
 62
     3
100
AcDbLine
 10
169.5357744248323
 20
233.6706055704382
 30
0.0
 11
170.5657715088984
 21
202.3875266417523
 31
0.0
  0
ARC
  5
E4A1
330
37
100
AcDbEntity
  8
0
 62
     3
100
AcDbCircle
 10
201.0734038565042
 20
226.8920198268379
 30
0.0
 40
2.0
100
AcDbArc
 50
174.9999999999993
 51
270.0000000000008
  0
LINE
  5
E4A2
330
37
100
AcDbEntity
  8
0
 62
     3
100
AcDbLine
 10
202.5657715088983
 20
198.9146070198204
 30
0.0
 11
212.5657715088983
 21
198.9146070198204
 31
0.0
  0
LINE
  5
E4A3
330
37
100
AcDbEntity
  8
0
 62
     3
100
AcDbLine
 10
163.5657715088984
 20
172.937194212803
 30
0.0
 11
154.0657715088984
 21
172.937194212803
 31
0.0
  0
LINE
  5
E4A4
330
37
100
AcDbEntity
  8
0
 62
     3
100
AcDbLine
 10
154.0657715088984
 20
224.8920198268379
 30
0.0
 11
165.0581391612927
 21
224.8920198268379
 31
0.0
  0
LINE
  5
E4A5
330
37
100
AcDbEntity
  8
0
 62
     3
100
AcDbLine
 10
154.0657715088984
 20
224.8920198268379
 30
0.0
 11
154.0657715088984
 21
172.937194212803
 31
0.0
  0
LINE
  5
E4A6
330
37
100
AcDbEntity
  8
0
 62
     3
100
AcDbLine
 10
163.5657715088985
 20
224.8920198268379
 30
0.0
 11
163.5657715088984
 21
172.937194212803
 31
0.0
  0
ARC
  5
E4A7
330
37
100
AcDbEntity
  8
0
 62
     3
100
AcDbCircle
 10
160.0657715088985
 20
226.8920198268379
 30
0.0
 40
2.0
100
AcDbArc
 50
270.0
 51
0.0000000000000724
  0
LINE
  5
E4A8
330
37
100
AcDbEntity
  8
0
 62
     3
100
AcDbLine
 10
163.5657715088985
 20
217.2834117733448
 30
0.0
 11
154.0657715088984
 21
217.2834117733448
 31
0.0
  0
LINE
  5
E4A9
330
37
100
AcDbEntity
  8
0
 62
     3
100
AcDbLine
 10
163.5657715088984
 20
180.5458022662961
 30
0.0
 11
154.0657715088984
 21
180.545802266296
 31
0.0
  0
ARC
  5
E4AA
330
37
100
AcDbEntity
  8
0
 62
     3
100
AcDbCircle
 10
165.0581391612927
 20
226.8920198268379
 30
0.0
 40
2.0
100
AcDbArc
 50
270.0
 51
5.00000000000057
  0
LINE
  5
E4AB
330
37
100
AcDbEntity
  8
0
 62
     3
100
AcDbLine
 10
163.5657715088985
 20
198.9146070198204
 30
0.0
 11
153.5657715088985
 21
198.9146070198204
 31
0.0
  0
LINE
  5
E4AE
330
37
100
AcDbEntity
  8
0
 62
     3
100
AcDbLine
 10
202.5657715088984
 20
358.6167289909877
 30
0.0
 11
203.3746609635863
 21
358.6167289909877
 31
0.0
  0
LINE
  5
E4AF
330
37
100
AcDbEntity
  8
0
 62
     3
100
AcDbLine
 10
212.0733676323923
 20
410.5715546050225
 30
0.0
 11
211.3005995086577
 21
410.5715546050226
 31
0.0
  0
LINE
  5
E4B0
330
37
100
AcDbEntity
  8
0
 62
     3
100
AcDbLine
 10
212.0733676323923
 20
410.5715546050225
 30
0.0
 11
212.0733676323922
 21
409.0834595438883
 31
0.0
  0
LINE
  5
E4B1
330
37
100
AcDbEntity
  8
0
 62
     3
100
AcDbLine
 10
202.5657715088984
 20
410.5715546050225
 30
0.0
 11
202.5657715088984
 21
409.0501056066853
 31
0.0
  0
LINE
  5
E4B2
330
37
100
AcDbEntity
  8
0
 62
     3
100
AcDbLine
 10
206.3781073903539
 20
402.9629465515293
 30
0.0
 11
209.5373025347064
 21
402.9629465515292
 31
0.0
  0
LINE
  5
E4B3
330
37
100
AcDbEntity
  8
0
 62
     3
100
AcDbLine
 10
206.3781073903541
 20
366.2253370444808
 30
0.0
 11
209.5373025347064
 21
366.2253370444808
 31
0.0
  0
LINE
  5
E4B4
330
37
100
AcDbEntity
  8
0
 62
     3
100
AcDbLine
 10
202.5657715088983
 20
384.5941417980051
 30
0.0
 11
212.5657715088983
 21
384.5941417980051
 31
0.0
  0
LINE
  5
E4B5
330
37
100
AcDbEntity
  8
0
 62
     3
100
AcDbLine
 10
163.5657715088984
 20
358.6167289909877
 30
0.0
 11
162.7444493734619
 21
358.6167289909877
 31
0.0
  0
LINE
  5
E4B6
330
37
100
AcDbEntity
  8
0
 62
     3
100
AcDbLine
 10
154.0657715088984
 20
410.5715546050225
 30
0.0
 11
154.8185108283903
 21
410.5715546050225
 31
0.0
  0
LINE
  5
E4B7
330
37
100
AcDbEntity
  8
0
 62
     3
100
AcDbLine
 10
154.0657715088984
 20
410.5715546050225
 30
0.0
 11
154.0657715088984
 21
409.1339900145531
 31
0.0
  0
LINE
  5
E4B8
330
37
100
AcDbEntity
  8
0
 62
     3
100
AcDbLine
 10
163.5657715088985
 20
410.5715546050225
 30
0.0
 11
163.5657715088985
 21
409.0376729259368
 31
0.0
  0
LINE
  5
E4B9
330
37
100
AcDbEntity
  8
0
 62
     3
100
AcDbLine
 10
159.7410029466939
 20
402.9629465515292
 30
0.0
 11
156.5818078023412
 21
402.9629465515292
 31
0.0
  0
LINE
  5
E4BA
330
37
100
AcDbEntity
  8
0
 62
     3
100
AcDbLine
 10
159.7410029466938
 20
366.2253370444809
 30
0.0
 11
156.5818078023412
 21
366.2253370444809
 31
0.0
  0
LINE
  5
E4CA
330
37
100
AcDbEntity
  8
0
 62
     3
100
AcDbLine
 10
162.7444493734617
 20
410.5715546050225
 30
0.0
 11
163.5657715088985
 21
410.5715546050225
 31
0.0
  0
LINE
  5
E4CB
330
37
100
AcDbEntity
  8
0
 62
     3
100
AcDbLine
 10
163.5657715088984
 20
393.8706651688137
 30
0.0
 11
163.5657715088984
 21
389.6771557706721
 31
0.0
  0
LINE
  5
E4CC
330
37
100
AcDbEntity
  8
0
 62
     3
100
AcDbLine
 10
153.5784244582061
 20
402.9629465515292
 30
0.0
 11
153.5657715088985
 21
402.9629465515292
 31
0.0
  0
LINE
  5
E4CD
330
37
100
AcDbEntity
  8
0
 62
     3
100
AcDbLine
 10
154.0657715088984
 20
394.0921428173507
 30
0.0
 11
154.0657715088984
 21
388.094141798005
 31
0.0
  0
LINE
  5
E4CE
330
37
100
AcDbEntity
  8
0
 62
     3
100
AcDbLine
 10
163.5657715088985
 20
379.5111278253382
 30
0.0
 11
163.5657715088985
 21
375.3176184271965
 31
0.0
  0
LINE
  5
E4CF
330
37
100
AcDbEntity
  8
0
 62
     3
100
AcDbLine
 10
154.0657715088984
 20
381.0941417980048
 30
0.0
 11
154.0657715088984
 21
375.0961407786595
 31
0.0
  0
LINE
  5
E4D0
330
37
100
AcDbEntity
  8
0
 62
     3
100
AcDbLine
 10
163.5657715088984
 20
360.1506106700737
 30
0.0
 11
163.5657715088984
 21
358.6167289909877
 31
0.0
  0
LINE
  5
E4D1
330
37
100
AcDbEntity
  8
0
 62
     3
100
AcDbLine
 10
154.0657715088984
 20
360.0542935814569
 30
0.0
 11
154.0657715088984
 21
358.6167289909877
 31
0.0
  0
LINE
  5
E4D2
330
37
100
AcDbEntity
  8
0
 62
     3
100
AcDbLine
 10
153.5784244582061
 20
366.2253370444808
 30
0.0
 11
153.5657715088984
 21
366.2253370444809
 31
0.0
  0
LINE
  5
E4D3
330
37
100
AcDbEntity
  8
0
 62
     3
100
AcDbLine
 10
154.8185108283903
 20
358.6167289909877
 30
0.0
 11
154.0657715088984
 21
358.6167289909877
 31
0.0
  0
LINE
  5
E4D4
330
37
100
AcDbEntity
  8
0
 62
     3
100
AcDbLine
 10
203.3746609635857
 20
410.5715546050225
 30
0.0
 11
202.5657715088984
 21
410.5715546050225
 31
0.0
  0
LINE
  5
E4D5
330
37
100
AcDbEntity
  8
0
 62
     3
100
AcDbLine
 10
202.5657715088984
 20
393.8444937534692
 30
0.0
 11
202.5657715088984
 21
389.6854645757557
 31
0.0
  0
LINE
  5
E4D6
330
37
100
AcDbEntity
  8
0
 62
     3
100
AcDbLine
 10
212.5406858788415
 20
402.9629465515292
 30
0.0
 11
212.5657715088983
 21
402.9629465515292
 31
0.0
  0
LINE
  5
E4D7
330
37
100
AcDbEntity
  8
0
 62
     3
100
AcDbLine
 10
212.0733676323923
 20
394.0563367838504
 30
0.0
 11
212.0733676323923
 21
388.0941417980052
 31
0.0
  0
LINE
  5
E4D8
330
37
100
AcDbEntity
  8
0
 62
     3
100
AcDbLine
 10
212.0733676323922
 20
381.0073177091717
 30
0.0
 11
212.0733676323922
 21
375.1319468121593
 31
0.0
  0
LINE
  5
E4D9
330
37
100
AcDbEntity
  8
0
 62
     3
100
AcDbLine
 10
202.5657715088984
 20
379.5028190202546
 30
0.0
 11
202.5657715088984
 21
375.3437898425411
 31
0.0
  0
LINE
  5
E4DA
330
37
100
AcDbEntity
  8
0
 62
     3
100
AcDbLine
 10
202.5657715088984
 20
360.1381779893247
 30
0.0
 11
202.5657715088983
 21
358.6167289909877
 31
0.0
  0
LINE
  5
E4DB
330
37
100
AcDbEntity
  8
0
 62
     3
100
AcDbLine
 10
211.3005995086579
 20
358.6167289909877
 30
0.0
 11
212.0733676323922
 21
358.6167289909877
 31
0.0
  0
LINE
  5
E4DC
330
37
100
AcDbEntity
  8
0
 62
     3
100
AcDbLine
 10
212.5406858788415
 20
366.2253370444808
 30
0.0
 11
212.5657715088983
 21
366.2253370444808
 31
0.0
  0
LINE
  5
E4DE
330
37
100
AcDbEntity
  8
0
 62
     3
100
AcDbLine
 10
212.0733676323922
 20
360.1048240521216
 30
0.0
 11
212.0733676323922
 21
358.6167289909877
 31
0.0
  0
LINE
  5
E815
330
37
100
AcDbEntity
  8
0
 62
     3
100
AcDbLine
 10
174.3184390866565
 20
392.7838652810608
 30
0.0
 11
177.2486668725099
 21
395.2426183354358
 31
0.0
  0
LINE
  5
E816
330
37
100
AcDbEntity
  8
0
 62
     3
100
AcDbLine
 10
175.1100967785526
 20
391.8404043826388
 30
0.0
 11
175.5916139575033
 21
392.2444452699018
 31
0.0
  0
LINE
  5
E817
330
37
100
AcDbEntity
  8
0
 62
     3
100
AcDbLine
 10
177.299153680941
 20
393.6772412220591
 30
0.0
 11
178.0403245644059
 21
394.2991574370138
 31
0.0
  0
LINE
  5
E818
330
37
100
AcDbEntity
  8
0
 62
     3
100
AcDbLine
 10
177.1368778590168
 20
392.9452622921671
 30
0.0
 11
178.3540608116237
 21
390.3350050267756
 31
0.0
  0
ARC
  5
E819
330
37
100
AcDbEntity
  8
0
 62
     3
100
AcDbCircle
 10
174.7142679326044
 20
392.3121348318499
 30
0.0
 40
0.6158003669999999
100
AcDbArc
 50
129.9999999999999
 51
309.9999999999999
  0
ARC
  5
E81A
330
37
100
AcDbEntity
  8
0
 62
     3
100
AcDbCircle
 10
177.6444957184581
 20
394.7708878862248
 30
0.0
 40
0.6158003669999999
100
AcDbArc
 50
309.9999999999999
 51
129.9999999999999
  0
ARC
  5
E81B
330
37
100
AcDbEntity
  8
0
 62
     3
100
AcDbCircle
 10
177.7959561437515
 20
390.0747565460948
 30
0.0
 40
0.6158003669999999
100
AcDbArc
 50
204.2944179854851
 51
24.9999999999994
  0
ARC
  5
E81C
330
37
100
AcDbEntity
  8
0
 62
     3
100
AcDbCircle
 10
177.6949825268891
 20
393.205510772848
 30
0.0
 40
0.6158003669999999
100
AcDbArc
 50
129.9999999999999
 51
204.9999999999994
  0
LINE
  5
E81D
330
37
100
AcDbEntity
  8
0
 62
     3
100
AcDbLine
 10
176.1639740657956
 20
392.117556088784
 30
0.0
 11
177.2410986029341
 21
389.8076550646398
 31
0.0
  0
ARC
  5
E81E
330
37
100
AcDbEntity
  8
0
 62
     3
100
AcDbCircle
 10
175.8291112650721
 20
391.9614070003752
 30
0.0
 40
0.3694802202
100
AcDbArc
 50
24.9999999999994
 51
129.9999999999999
  0
LINE
  5
E81F
330
37
100
AcDbEntity
  8
0
 62
     3
100
AcDbLine
 10
182.3181984762923
 20
396.6488413469742
 30
0.0
 11
183.7892304683551
 21
396.7259348669324
 31
0.0
  0
LINE
  5
E820
330
37
100
AcDbEntity
  8
0
 62
     3
100
AcDbLine
 10
181.4824926273146
 20
391.6718801939421
 30
0.0
 11
182.9535246193773
 21
391.7489737139003
 31
0.0
  0
LINE
  5
E821
330
37
100
AcDbEntity
  8
0
 62
     3
100
AcDbLine
 10
182.2471992399577
 20
392.3286022274827
 30
0.0
 11
182.3790209038541
 21
392.3355107081492
 31
0.0
  0
ARC
  5
E822
330
37
100
AcDbEntity
  8
0
 62
     3
100
AcDbCircle
 10
182.301672501306
 20
393.8114061497466
 30
0.0
 40
1.477920880799998
100
AcDbArc
 50
272.9999999999991
 51
348.0000000000038
  0
ARC
  5
E823
330
37
100
AcDbEntity
  8
0
 62
     3
100
AcDbCircle
 10
183.8665788709032
 20
395.2500394253352
 30
0.0
 40
1.477920880799998
100
AcDbArc
 50
348.0000000000038
 51
92.9999999999991
  0
ARC
  5
E824
330
37
100
AcDbEntity
  8
0
 62
     3
100
AcDbCircle
 10
182.4342210801144
 20
394.4349981845783
 30
0.0
 40
2.216881321199999
100
AcDbArc
 50
92.9999999999991
 51
168.0000000000037
  0
LINE
  5
E825
330
37
100
AcDbEntity
  8
0
 62
     3
100
AcDbLine
 10
182.8927021918157
 20
396.0623043527254
 30
0.0
 11
183.0245238557116
 21
396.0692128333917
 31
0.0
  0
ARC
  5
E826
330
37
100
AcDbEntity
  8
0
 62
     3
100
AcDbCircle
 10
182.9700505943636
 20
394.5864089111282
 30
0.0
 40
1.477920880799998
100
AcDbArc
 50
92.9999999999991
 51
167.9999999999836
  0
LINE
  5
E827
330
37
100
AcDbEntity
  8
0
 62
     3
100
AcDbLine
 10
180.2657839346711
 20
394.8959137284112
 30
0.0
 11
179.9595194611377
 21
393.4550526647615
 31
0.0
  0
ARC
  5
E828
330
37
100
AcDbEntity
  8
0
 62
     3
100
AcDbCircle
 10
181.4051442247665
 20
393.1477756355395
 30
0.0
 40
1.477920880799998
100
AcDbArc
 50
168.0000000000037
 51
272.9999999999991
  0
LINE
  5
E829
330
37
100
AcDbEntity
  8
0
 62
     3
100
AcDbLine
 10
181.5244258307351
 20
394.8936859403503
 30
0.0
 11
181.2318837958398
 21
393.5173838746962
 31
0.0
  0
ARC
  5
E82A
330
37
100
AcDbEntity
  8
0
 62
     3
100
AcDbCircle
 10
182.195633638259
 20
393.3125325218814
 30
0.0
 40
0.9852805871999999
100
AcDbArc
 50
167.9999999999836
 51
272.9999999999991
  0
LINE
  5
E82B
330
37
100
AcDbEntity
  8
0
 62
     3
100
AcDbLine
 10
185.3122036345321
 20
394.942762396113
 30
0.0
 11
185.0059391609985
 21
393.5019013324632
 31
0.0
  0
ARC
  5
E82C
330
37
100
AcDbEntity
  8
0
 62
     3
100
AcDbCircle
 10
182.837502015555
 20
393.9628168762963
 30
0.0
 40
2.216881321199999
100
AcDbArc
 50
272.9999999999991
 51
348.0000000000038
  0
LINE
  5
E82D
330
37
100
AcDbEntity
  8
0
 62
     3
100
AcDbLine
 10
184.0398392998297
 20
394.8804311861787
 30
0.0
 11
183.7472972649347
 21
393.5041291205245
 31
0.0
  0
ARC
  5
E82E
330
37
100
AcDbEntity
  8
0
 62
     3
100
AcDbCircle
 10
183.0760894574104
 20
395.0852825389933
 30
0.0
 40
0.9852805871999999
100
AcDbArc
 50
348.0000000000038
 51
92.9999999999991
  0
LINE
  5
E82F
330
37
100
AcDbEntity
  8
0
 62
     3
100
AcDbLine
 10
187.7525798244168
 20
394.1133600010984
 30
0.0
 11
185.625579386445
 21
392.6240182606549
 31
0.0
  0
ARC
  5
E830
330
37
100
AcDbEntity
  8
0
 62
     3
100
AcDbCircle
 10
185.9787879664524
 20
392.1195841311529
 30
0.0
 40
0.6158003669998711
100
AcDbArc
 50
124.9999999999882
 51
304.9999999999882
  0
LINE
  5
E831
330
37
100
AcDbEntity
  8
0
 62
     3
100
AcDbLine
 10
186.3319965464597
 20
391.6151500016509
 30
0.0
 11
186.4671592640949
 21
391.7097919554237
 31
0.0
  0
LINE
  5
E832
330
37
100
AcDbEntity
  8
0
 62
     3
100
AcDbLine
 10
186.4671592640949
 20
391.7097919554237
 30
0.0
 11
188.4372853030954
 21
390.0566599227251
 31
0.0
  0
ARC
  5
E833
330
37
100
AcDbEntity
  8
0
 62
     3
100
AcDbCircle
 10
188.9090157523064
 20
389.660831076777
 30
0.0
 40
0.6158003670000376
100
AcDbArc
 50
140.0000000000045
 51
320.0000000000045
  0
LINE
  5
E834
330
37
100
AcDbEntity
  8
0
 62
     3
100
AcDbLine
 10
189.3807462015176
 20
389.265002230829
 30
0.0
 11
190.7265642777409
 21
390.8688857581466
 31
0.0
  0
ARC
  5
E835
330
37
100
AcDbEntity
  8
0
 62
     3
100
AcDbCircle
 10
189.0283346605816
 20
392.2938696035598
 30
0.0
 40
2.216881321200006
100
AcDbArc
 50
319.9999999999881
 51
50.07091754396732
  0
ARC
  5
E836
330
37
100
AcDbEntity
  8
0
 62
     3
100
AcDbCircle
 10
189.024130712444
 20
392.2973971348914
 30
0.0
 40
2.216881321199923
100
AcDbArc
 50
49.92908245603985
 51
125.3312556800376
  0
LWPOLYLINE
  5
E837
330
37
100
AcDbEntity
  8
0
 62
     3
100
AcDbPolyline
 90
        8
 70
     0
 43
0.0
 10
188.5085414223486
 20
393.139183131
 10
187.6467792594482
 20
392.5357707683933
 42
0.4931454260313034
 10
187.6041589935075
 20
391.5596061896802
 10
188.3613836998328
 20
390.9242192178841
 42
0.4142135623731421
 10
189.2289429949918
 20
391.000120821147
 10
189.7831033793192
 20
391.6605434500425
 42
0.4150294844298412
 10
189.6595563840476
 20
393.0503991610373
 42
0.3426517265994233
 10
188.4520189822429
 20
393.0995604622001
  0
LWPOLYLINE
  5
E87F
330
37
100
AcDbEntity
  8
0
 62
     3
100
AcDbPolyline
 90
        3
 70
     0
 43
0.0
 10
178.3095551685241
 20
397.0941417980051
 10
175.8426768036537
 20
397.0941417980051
 10
171.3682122174341
 20
389.3441417980051
  0
LWPOLYLINE
  5
E885
330
37
100
AcDbEntity
  8
0
 62
     3
100
AcDbPolyline
 90
        3
 70
     0
 43
0.0
 10
194.7508981196139
 20
389.3441417980051
 10
190.2764335333943
 20
397.0941417980051
 10
187.809555168524
 20
397.0941417980051
  0
LWPOLYLINE
  5
E886
330
37
100
AcDbEntity
  8
0
 62
     3
100
AcDbPolyline
 90
        3
 70
     0
 43
0.0
 10
171.3682122174341
 20
379.8441417980051
 10
175.8426768036537
 20
372.0941417980051
 10
178.3095551685236
 20
372.0941417980051
  0
LWPOLYLINE
  5
E887
330
37
100
AcDbEntity
  8
0
 62
     3
100
AcDbPolyline
 90
        3
 70
     0
 43
0.0
 10
187.8095551685236
 20
372.0941417980051
 10
190.2764335333943
 20
372.0941417980051
 10
194.7508981196139
 20
379.8441417980051
  0
VIEWPORT
  5
542
102
{ACAD_XDICTIONARY
360
EAE1
102
}
330
33
100
AcDbEntity
 67
     1
  8
0
100
AcDbViewport
 10
211.3860542255906
 20
148.4223392912986
 30
0.0
 40
502.1167268962511
 41
309.3955765315075
 68
     1
 69
     1
 12
211.3860542255906
 22
148.4223392912986
 13
0.0
 23
0.0
 14
10.0
 24
10.0
 15
10.0
 25
10.0
 16
0.0
 26
0.0
 36
1.0
 17
0.0
 27
0.0
 37
0.0
 42
50.0
 43
0.0
 44
0.0
 45
309.3955765315075
 50
0.0
 51
0.0
 72
  1000
 90
   557088
  1

281
     0
 71
     1
 74
     0
110
0.0
120
0.0
130
0.0
111
1.0
121
0.0
131
0.0
112
0.0
122
1.0
132
0.0
 79
     0
146
0.0
  0
ENDSEC
  0
SECTION
  2
OBJECTS
  0
DICTIONARY
  5
C
330
0
100
AcDbDictionary
281
     1
  3
ACAD_2007HEADERVARS_RT
350
EAAA
  3
ACAD_CIP_PREVIOUS_PRODUCT_INFO
350
DB99
  3
ACAD_COLOR
350
30
  3
ACAD_DETAILVIEWSTYLE
350
DB91
  3
ACAD_GROUP
350
D
  3
ACAD_LAYOUT
350
2F
  3
ACAD_MATERIAL
350
10
  3
ACAD_MLEADERSTYLE
350
C40
  3
ACAD_MLINESTYLE
350
2C
  3
ACAD_PLOTSETTINGS
350
2E
  3
ACAD_PLOTSTYLENAME
350
E
  3
ACAD_SCALELIST
350
C2E
  3
ACAD_SECTIONVIEWSTYLE
350
DB8F
  3
ACAD_TABLESTYLE
350
31
  3
ACAD_VISUALSTYLE
350
14
  3
ACDB_RECOMPOSE_DATA
350
EAA8
  3
AcDbVariableDictionary
350
42
  3
AcDsDecomposeData
350
EAB5
  3
DWGPROPS
350
EAA9
  0
DICTIONARY
  5
366A
330
8
100
AcDbDictionary
280
     1
281
     1
  0
DICTIONARY
  5
81
330
2
100
AcDbDictionary
280
     1
281
     1
  3
ACAD_LAYERFILTERS
360
C1F
  3
ACAD_LAYERSTATES
360
559
  3
ACLYDICTIONARY
360
C1E
  0
DICTIONARY
  5
3620
330
25
100
AcDbDictionary
280
     1
281
     1
  3
ADSK_XREC_LAYER_RECONCILED
360
BCDA
  0
DICTIONARY
  5
93D8
330
1EA
100
AcDbDictionary
280
     1
281
     1
  3
ADSK_XREC_LAYER_RECONCILED
360
BCE4
  0
DICTIONARY
  5
48
330
37
100
AcDbDictionary
280
     1
281
     1
  3
ACAD_SORTENTS
360
49
  0
DICTIONARY
  5
B96
330
33
100
AcDbDictionary
280
     1
281
     1
  3
ACAD_SORTENTS
360
B97
  0
DICTIONARY
  5
EAE1
330
542
100
AcDbDictionary
280
     1
281
     1
  3
ACAD_XREC_ROUNDTRIP
360
EAE2
  0
DICTIONARY
  5
EAAA
102
{ACAD_REACTORS
330
C
102
}
330
C
100
AcDbDictionary
281
     1
  3
DIMARCSYM
350
EAAB
  3
DIMLTEX1
350
EAAD
  3
DIMLTEX2
350
EAAE
  3
DIMLTYPE
350
EAAC
  3
INTERFEREVPVS
350
EAAF
  0
XRECORD
  5
DB99
102
{ACAD_REACTORS
330
C
102
}
330
C
100
AcDbXrecord
280
     1
300
ACDLT
300
2019
300
ACDLT_F_S
  0
DICTIONARY
  5
30
102
{ACAD_REACTORS
330
C
102
}
330
C
100
AcDbDictionary
281
     1
  0
DICTIONARY
  5
DB91
102
{ACAD_REACTORS
330
C
102
}
330
C
100
AcDbDictionary
281
     1
  3
Metric50
350
DB92
  0
DICTIONARY
  5
D
102
{ACAD_REACTORS
330
C
102
}
330
C
100
AcDbDictionary
281
     1
  0
DICTIONARY
  5
2F
102
{ACAD_REACTORS
330
C
102
}
330
C
100
AcDbDictionary
281
     1
  3
Model
350
3A
  3
レイアウト1
350
36
  0
DICTIONARY
  5
10
102
{ACAD_REACTORS
330
C
102
}
330
C
100
AcDbDictionary
281
     1
  3
ByBlock
350
12
  3
ByLayer
350
11
  3
Global
350
13
  0
DICTIONARY
  5
C40
102
{ACAD_REACTORS
330
C
102
}
330
C
100
AcDbDictionary
281
     1
  3
Standard
350
C41
  3
部品図用_1：1
350
84CA
  0
DICTIONARY
  5
2C
102
{ACAD_REACTORS
330
C
102
}
330
C
100
AcDbDictionary
281
     1
  3
Standard
350
2D
  0
DICTIONARY
  5
2E
102
{ACAD_REACTORS
330
C
102
}
330
C
100
AcDbDictionary
281
     1
  3
A4横
350
7876
  3
A4縦
350
786D
  0
ACDBDICTIONARYWDFLT
  5
E
102
{ACAD_REACTORS
330
C
102
}
330
C
100
AcDbDictionary
281
     1
  3
Normal
350
F
100
AcDbDictionaryWithDefault
340
F
  0
DICTIONARY
  5
C2E
102
{ACAD_REACTORS
330
C
102
}
330
C
100
AcDbDictionary
281
     1
  3
A0
350
3737
  3
A1
350
3738
  3
A2
350
3739
  3
A3
350
373A
  3
A4
350
373B
  3
A5
350
373C
  3
A6
350
373D
  3
A7
350
373E
  3
A8
350
373F
  3
A9
350
3740
  3
B0
350
C2F
  3
B1
350
3741
  3
B2
350
3742
  3
B3
350
3743
  3
B4
350
3744
  3
B5
350
3745
  3
B6
350
3746
  0
DICTIONARY
  5
DB8F
102
{ACAD_REACTORS
330
C
102
}
330
C
100
AcDbDictionary
281
     1
  3
Metric50
350
DB90
  0
DICTIONARY
  5
31
102
{ACAD_REACTORS
330
C
102
}
330
C
100
AcDbDictionary
281
     1
  3
Standard
350
32
  0
DICTIONARY
  5
14
102
{ACAD_REACTORS
330
C
102
}
330
C
100
AcDbDictionary
281
     1
  3
2dWireframe
350
1A
  3
3D Hidden
350
1C
  3
3dWireframe
350
1B
  3
Basic
350
19
  3
Brighten
350
20
  3
ColorChange
350
24
  3
Conceptual
350
1D
  3
Dim
350
1F
  3
EdgeColorOff
350
C2D
  3
Facepattern
350
23
  3
Flat
350
15
  3
FlatWithEdges
350
16
  3
Gouraud
350
17
  3
GouraudWithEdges
350
18
  3
Hidden
350
DB89
  3
JitterOff
350
C2B
  3
Linepattern
350
22
  3
OverhangOff
350
C2C
  3
Realistic
350
1E
  3
Shaded
350
DB8E
  3
Shaded with edges
350
DB8D
  3
Shades of Gray
350
DB8A
  3
Sketchy
350
DB8B
  3
Thicken
350
21
  3
Wireframe
350
DB88
  3
X-Ray
350
DB8C
  0
XRECORD
  5
EAA8
102
{ACAD_REACTORS
330
C
102
}
330
C
100
AcDbXrecord
280
     1
 90
        1
330
32
  0
DICTIONARY
  5
42
102
{ACAD_REACTORS
330
C
102
}
330
C
100
AcDbDictionary
281
     1
  3
CANNOSCALE
350
3714
  3
CMLEADERSTYLE
350
3713
  3
CTABLESTYLE
350
43
  3
CVIEWDETAILSTYLE
350
DBE1
  3
CVIEWSECTIONSTYLE
350
DBE2
  3
DIMASSOC
350
3719
  3
HIDETEXT
350
3717
  3
INDEXCTL
350
3716
  3
LAYEREVAL
350
93DF
  3
LAYERNOTIFY
350
93E0
  3
LIGHTINGUNITS
350
93DE
  3
LOFTANG1
350
EAA3
  3
LOFTANG2
350
EAA4
  3
LONGITUDE
350
EAA5
  3
MLEADERSCALE
350
B1DD
  3
MSLTSCALE
350
93DD
  3
SOLIDHIST
350
EAA2
  3
SORTENTS
350
3715
  3
XCLIPFRAME
350
EAA6
  0
DICTIONARY
  5
EAB5
102
{ACAD_REACTORS
330
C
102
}
330
C
100
AcDbDictionary
281
     1
  3
AcDsRecords
350
EAB7
  3
AcDsSchemas
350
EAB6
1001
ACAD
1070
     2
  0
XRECORD
  5
EAA9
102
{ACAD_REACTORS
330
C
102
}
330
C
100
AcDbXrecord
280
     1
  1
DWGPROPS COOKIE
  2

  3

  4

  6

  7

  8
fukui-pc1
  9

300
=
301
=
302
=
303
=
304
=
305
=
306
=
307
=
308
=
309
=
 40
2.940088217592592
 41
2457035.733900463
 42
2459413.473935185
  1

 90
        0
  0
DICTIONARY
  5
C1F
102
{ACAD_REACTORS
330
81
102
}
330
81
100
AcDbDictionary
281
     1
  0
DICTIONARY
  5
559
102
{ACAD_REACTORS
330
81
102
}
330
81
100
AcDbDictionary
281
     1
  0
DICTIONARY
  5
C1E
102
{ACAD_REACTORS
330
81
102
}
330
81
100
AcDbDictionary
281
     1
1001
ACAD
1000
<All
  0
XRECORD
  5
BCDA
102
{ACAD_REACTORS
330
3620
102
}
330
3620
100
AcDbXrecord
280
     1
290
     1
  0
XRECORD
  5
BCE4
102
{ACAD_REACTORS
330
93D8
102
}
330
93D8
100
AcDbXrecord
280
     1
290
     1
  0
SORTENTSTABLE
  5
49
102
{ACAD_REACTORS
330
48
102
}
330
48
100
AcDbSortentsTable
330
37
331
DDCC
  5
DDCF
331
DDCD
  5
DDD3
331
DDCE
  5
DDD4
331
DDCF
  5
DDDA
331
DDD3
  5
DDE3
331
DDD4
  5
DDE4
331
DDE8
  5
DDFB
331
DDE9
  5
DDFC
331
DDEA
  5
DDFD
331
DDEB
  5
DDFE
331
DDEC
  5
DDFF
331
DDED
  5
DE00
331
DDEE
  5
DE01
331
DDEF
  5
DE02
331
DDF0
  5
DE03
331
DDF1
  5
DE04
331
DDF2
  5
DE05
331
DDF3
  5
DE06
331
DDF4
  5
DE07
331
DDF5
  5
DE08
331
DDF6
  5
DE09
331
DDF7
  5
DE0A
331
DDF8
  5
DE0B
331
DDF9
  5
DE0C
331
DDFA
  5
DE0D
331
DDFB
  5
DE0E
331
DDFC
  5
DE0F
331
DDFD
  5
DE10
331
DDFE
  5
DE11
331
DDFF
  5
DE12
331
DE00
  5
DE13
331
DE01
  5
DE14
331
DE02
  5
DE15
331
DE03
  5
DE16
331
DE04
  5
DE17
331
DE05
  5
DE18
331
DE06
  5
DE19
331
DE07
  5
DE1A
331
DE08
  5
DE1B
331
DE09
  5
DE1C
331
DE0A
  5
DE1D
331
DE0B
  5
DE1E
331
DE0C
  5
DE1F
331
DE0D
  5
DE20
331
DE0E
  5
DE21
331
DE0F
  5
DE22
331
DE10
  5
DE23
331
DE11
  5
DE24
331
DE12
  5
DE25
331
DE13
  5
DE26
331
DE14
  5
DE27
331
DE15
  5
DE28
331
DE16
  5
DE29
331
DE17
  5
DE2A
331
DE18
  5
DE2B
331
DE19
  5
DE2C
331
DE1A
  5
DE2D
331
DE1B
  5
DE2E
331
DE1C
  5
DE2F
331
DE1D
  5
DE30
331
DE1E
  5
DE31
331
DE1F
  5
DE32
331
DE20
  5
DE33
331
DE21
  5
DE34
331
DE22
  5
DE35
331
DE23
  5
DE36
331
DE24
  5
DE37
331
DE25
  5
DE38
331
DE26
  5
DE39
331
DE27
  5
DE3A
331
DE28
  5
DE3B
331
DE29
  5
DE3C
331
DE2A
  5
DE3D
331
DE2B
  5
DE3E
331
DE2C
  5
DE3F
331
DE2D
  5
DE40
331
DE2E
  5
DE41
331
DE2F
  5
DE42
331
DE30
  5
DE43
331
DE31
  5
DE44
331
DE32
  5
DE45
331
DE33
  5
DE46
331
DE34
  5
DE47
331
DE35
  5
DE48
331
DE36
  5
DE49
331
DE37
  5
DE4A
331
DE38
  5
DE4B
331
DE39
  5
DE4C
331
DE3A
  5
DE4D
331
DE3B
  5
DE4E
331
DE3C
  5
DE4F
331
DE3D
  5
DE50
331
DE3E
  5
DE52
331
DE3F
  5
DE53
331
DE40
  5
DE54
331
DE41
  5
DE55
331
DE42
  5
DE56
331
DE43
  5
DE57
331
DE44
  5
DE58
331
DE45
  5
DE59
331
DE46
  5
DE5A
331
DE47
  5
DE5B
331
DE48
  5
DE5C
331
DE49
  5
DE5D
331
DE4A
  5
DE5E
331
DE4B
  5
DE5F
331
DE4C
  5
DE60
331
DE4D
  5
DE61
331
DE4E
  5
DE62
331
DE4F
  5
DE63
331
DE50
  5
DE64
331
DE51
  5
DE65
331
DE52
  5
DE66
331
DE53
  5
DE67
331
DE54
  5
DE68
331
DE55
  5
DE69
331
DE56
  5
DE6A
331
DE57
  5
DE6B
331
DE58
  5
DE6C
331
DE59
  5
DE6D
331
DE5A
  5
DE6E
331
DE5B
  5
DE6F
331
DE5C
  5
DE70
331
DE5D
  5
DE71
331
DE5E
  5
DE72
331
DE5F
  5
DE73
331
DE60
  5
DE74
331
DE61
  5
DE75
331
DE62
  5
DE76
331
DE63
  5
DE77
331
DE64
  5
DE78
331
DE65
  5
DE79
331
DE66
  5
DE7A
331
DE67
  5
DE7B
331
DE68
  5
DE7C
331
DE69
  5
DE7D
331
DE6A
  5
DE7E
331
DE6B
  5
DE7F
331
DE6C
  5
DE80
331
DE6D
  5
DE81
331
DE6E
  5
DE82
331
DE6F
  5
DE83
331
DE70
  5
DE84
331
DE71
  5
DE85
331
DE72
  5
DE86
331
DE73
  5
DE87
331
DE74
  5
DE88
331
DE75
  5
DE89
331
DE76
  5
DE8A
331
DE77
  5
DE8B
331
DE78
  5
DE8C
331
DE79
  5
DE8D
331
DE7A
  5
DE8E
331
DE7B
  5
DE8F
331
DE7C
  5
DE90
331
DE7D
  5
DE91
331
DE7E
  5
DE92
331
DE7F
  5
DE93
331
DE80
  5
DE94
331
DE81
  5
DE95
331
DE82
  5
DE96
331
DE83
  5
DE97
331
DE84
  5
DE98
331
DE85
  5
DE99
331
DE86
  5
DE9A
331
DE87
  5
DE9B
331
DE88
  5
DE9C
331
DE89
  5
DE9D
331
DE8A
  5
DE9E
331
DE8B
  5
DE9F
331
DE8C
  5
DEA0
331
DE8D
  5
DEA1
331
DE8E
  5
DEA2
331
DE8F
  5
DEA3
331
DE90
  5
DEA4
331
DE91
  5
DEA5
331
DE92
  5
DEA6
331
DE93
  5
DEA7
331
DE94
  5
DEA8
331
DE95
  5
DEA9
331
DE96
  5
DEAA
331
DE97
  5
DEAB
331
DE98
  5
DEAC
331
DE99
  5
DEAD
331
DE9A
  5
DEAE
331
DE9B
  5
DEAF
331
DE9C
  5
DEB0
331
DE9D
  5
DEB1
331
DE9E
  5
DEB2
331
DE9F
  5
DEB3
331
DEA0
  5
DEB4
331
DEA1
  5
DEB5
331
DEA2
  5
DEB6
331
DEA3
  5
DEB7
331
DEA4
  5
DEB8
331
DEA5
  5
DEB9
331
DEA6
  5
DEBA
331
DEA7
  5
DEBB
331
DEA8
  5
DEBC
331
DEA9
  5
DEBD
331
DEAA
  5
DEBE
331
DEAB
  5
DEBF
331
DEAC
  5
DEC0
331
DEAD
  5
DEC1
331
DEAE
  5
DEC2
331
DEAF
  5
DEC3
331
DEB0
  5
DEC4
331
DEB1
  5
DEC5
331
DEB2
  5
DEC6
331
DEB3
  5
DEC7
331
DEB4
  5
DEC8
331
DEB5
  5
DEC9
331
DEB6
  5
DECA
331
DEB7
  5
DECB
331
DEB8
  5
DECC
331
DEB9
  5
DECD
331
DEBA
  5
DECE
331
DEBB
  5
DECF
331
DEBC
  5
DED0
331
DEBD
  5
DED1
331
DEBE
  5
DED2
331
DEBF
  5
DED3
331
DEC0
  5
DED4
331
DEC1
  5
DED5
331
DEC2
  5
DED6
331
DEC3
  5
DED7
331
DEC4
  5
DED8
331
DEC5
  5
DED9
331
DEC6
  5
DEDA
331
DEC7
  5
DEDB
331
DEC8
  5
DEDC
331
DEC9
  5
DEDD
331
DECA
  5
DEDE
331
DECB
  5
DEDF
331
DECC
  5
DEE0
331
DECD
  5
DEE1
331
DECE
  5
DEE2
331
DECF
  5
DEE3
331
DED0
  5
DEE4
331
DED1
  5
DEE5
331
DED2
  5
DEE6
331
DED3
  5
DEE7
331
DED4
  5
DEE8
331
DED5
  5
DEE9
331
DED6
  5
DEEA
331
DED7
  5
DEEB
331
DED8
  5
DEEC
331
DED9
  5
DEED
331
DEDA
  5
DEEE
331
DEDB
  5
DEEF
331
DEDC
  5
DEF0
331
DEDD
  5
DEF1
331
DEDE
  5
DEF2
331
DEDF
  5
DEF3
331
DEE0
  5
DEF4
331
DEE1
  5
DEF5
331
DEE2
  5
DEF6
331
DEE3
  5
DEF7
331
DEE4
  5
DEF8
331
DEE5
  5
DEF9
331
DEE6
  5
DEFA
331
DEE7
  5
DEFB
331
DEE8
  5
DEFC
331
DEEF
  5
DF03
331
DEF0
  5
DF04
331
DEF1
  5
DF05
331
DEF2
  5
DF06
331
DEF3
  5
DF07
331
DEF4
  5
DF08
331
DEF5
  5
DF09
331
DEF6
  5
DF0A
331
DF07
  5
DF20
331
DF08
  5
DF22
331
DF09
  5
DF23
331
DF0A
  5
DF24
331
DF0E
  5
DF33
331
DF0F
  5
DF34
331
DF10
  5
DF35
331
DF11
  5
DF36
331
DF12
  5
DF38
331
DF14
  5
DF3A
331
DF15
  5
DF3B
331
DF16
  5
DF3C
331
DF17
  5
DF3D
331
DF18
  5
DF3E
331
DF19
  5
DF3F
331
DF1A
  5
DF41
331
DF1B
  5
DF4D
331
DF1C
  5
DF4E
331
DF1D
  5
DF4F
331
DF1E
  5
DF50
331
DF1F
  5
DF51
331
DF20
  5
DF52
331
DF21
  5
DF53
331
DF22
  5
DF55
331
DF23
  5
DF56
331
DF24
  5
DF57
331
DF25
  5
DF58
331
DF27
  5
DF59
331
DF29
  5
DF5B
331
DF2F
  5
DF5C
331
DF30
  5
DF5D
331
DF31
  5
DF5E
331
DF32
  5
DF5F
331
DF38
  5
DF80
331
DF39
  5
DF81
331
DF3A
  5
DF82
331
DF3B
  5
DF83
331
DF3C
  5
DF84
331
DF3D
  5
DF85
331
DF3E
  5
DF86
331
DF3F
  5
DF87
331
DF40
  5
DF88
331
DF41
  5
DF89
331
DF42
  5
DF8A
331
DF43
  5
DF8B
331
DF44
  5
DF8C
331
DF45
  5
DF8D
331
DF46
  5
DF8E
331
DF47
  5
DF8F
331
DF51
  5
E020
331
DF52
  5
E038
331
DF53
  5
E050
331
DF54
  5
E098
331
DF55
  5
E0B0
331
DF56
  5
E0C8
331
DF57
  5
E0E0
331
DF58
  5
E0F8
331
DF59
  5
E110
331
DF5A
  5
E128
331
DF5B
  5
E13C
331
DF5C
  5
E15D
331
DF5D
  5
E171
331
DF5E
  5
E189
331
DF5F
  5
E1A1
331
DF60
  5
E255
331
DF61
  5
E256
331
DF64
  5
E270
331
DF65
  5
E271
331
DF67
  5
E272
331
DF68
  5
E273
331
DF69
  5
E27D
331
DF6A
  5
E27E
331
DF6B
  5
E27F
331
DF6C
  5
E2BF
331
DF6D
  5
E2F7
331
DF6E
  5
E2F8
331
DF6F
  5
E2F9
331
DF70
  5
E2FA
331
DF71
  5
E304
331
DF72
  5
E305
331
DF73
  5
E306
331
DF74
  5
E307
331
DF75
  5
E308
331
DF76
  5
E309
331
DF77
  5
E30A
331
DF78
  5
E30C
331
DF79
  5
E30D
331
DF7A
  5
E30F
331
DF7B
  5
E310
331
DF7C
  5
E322
331
DF7D
  5
E323
331
DF7E
  5
E324
331
DF7F
  5
E327
331
DF80
  5
E328
331
DF81
  5
E329
331
DF82
  5
E32A
331
DF83
  5
E32B
331
DF84
  5
E334
331
DF85
  5
E371
331
DF89
  5
E3C0
331
DF8C
  5
E3C5
331
DF8D
  5
E3C6
331
DF8E
  5
E3C9
331
DF8F
  5
E3CB
331
E254
  5
DDEE
331
E256
  5
E3CC
331
E26F
  5
DF43
331
E270
  5
DF6D
331
E271
  5
DF6E
331
E272
  5
DF76
331
E273
  5
DF7A
331
E27D
  5
DF77
331
E27E
  5
DF26
331
E27F
  5
DF39
331
E2BF
  5
DF78
331
E2C0
  5
DF4B
331
E310
  5
DDF8
331
E311
  5
DDF9
331
E322
  5
E3D1
331
E323
  5
E3D2
331
E324
  5
E3D3
331
E325
  5
E3D4
331
E326
  5
E3D5
331
E327
  5
E3D6
331
E328
  5
DE51
331
E329
  5
E3D9
331
E32A
  5
DDFA
331
E32B
  5
E3DA
331
E32C
  5
E3DB
331
E32D
  5
E3EF
331
E32E
  5
E3F9
331
E330
  5
E3FA
331
E339
  5
DDEF
331
E352
  5
DF2E
331
E354
  5
DF2C
331
E368
  5
DF2D
331
E369
  5
DF32
331
E36A
  5
DF31
331
E3C0
  5
E3FC
331
E3C5
  5
E3FD
331
E3C6
  5
E3FE
331
E3C8
  5
DDCD
331
E3CA
  5
E3FB
331
E3CB
  5
E418
331
E3D0
  5
E41C
331
E3D2
  5
E41F
331
E3D3
  5
E421
331
E3D5
  5
E422
331
E3D8
  5
E423
331
E3D9
  5
E424
331
E3DA
  5
E44B
331
E3DB
  5
E44C
331
E418
  5
E45B
331
E41E
  5
DF7F
331
E41F
  5
E49B
331
E420
  5
E48F
331
E421
  5
E49C
331
E422
  5
E4A1
331
E423
  5
E4A2
331
E43D
  5
DF7B
331
E43E
  5
DF7C
331
E43F
  5
DF7D
331
E440
  5
DF7E
331
E44A
  5
DF60
331
E44B
  5
DF69
331
E44C
  5
DF6A
331
E44D
  5
DF6B
331
E48F
  5
DF4C
331
E490
  5
DF79
331
E49B
  5
DF2B
331
E49C
  5
DF29
331
E4A1
  5
E4A3
331
E4A2
  5
E4A4
331
E4A3
  5
E4A5
331
E4A4
  5
E4A6
331
E4A5
  5
E4A7
331
E4A6
  5
E4A8
331
E4A7
  5
E4A9
331
E4A8
  5
E4AA
331
E4A9
  5
E4AB
331
E4AA
  5
E4AE
331
E4AB
  5
E4AF
331
E4AE
  5
E4B0
331
E4AF
  5
E4B2
331
E4B0
  5
E4B4
331
E4B1
  5
E4B9
331
E4B2
  5
E4CC
331
E4B3
  5
E4CE
331
E4B4
  5
E4D0
331
E4B5
  5
E4D1
331
E4B6
  5
E4D3
331
E4B7
  5
E4D5
331
E4B8
  5
E4D9
331
E4B9
  5
E4DD
331
E4BA
  5
E815
331
E4CA
  5
E4D4
331
E4CB
  5
E4DA
331
E4CC
  5
E4DE
331
E4CD
  5
E4D6
331
E4CE
  5
E4DB
331
E4CF
  5
E4D7
331
E4D0
  5
E4DC
331
E4D1
  5
E4D8
331
E4D2
  5
E816
331
E4D3
  5
E4D2
331
E4D4
  5
E4B3
331
E4D5
  5
E4BA
331
E4D6
  5
E4CD
331
E4D7
  5
E4B6
331
E4D8
  5
E4B7
331
E4D9
  5
E4CA
331
E4DA
  5
E4CB
331
E4DB
  5
E4B1
331
E4DC
  5
E4CF
331
E4DE
  5
E4B8
331
E815
  5
E817
331
E816
  5
E818
331
E817
  5
E819
331
E818
  5
E81A
331
E819
  5
E81B
331
E81A
  5
E81C
331
E81B
  5
E81D
331
E81C
  5
E81E
331
E81D
  5
E81F
331
E81E
  5
E820
331
E81F
  5
E821
331
E820
  5
E822
331
E821
  5
E823
331
E822
  5
E824
331
E823
  5
E825
331
E824
  5
E826
331
E825
  5
E827
331
E826
  5
E828
331
E827
  5
E829
331
E828
  5
E82A
331
E829
  5
E82B
331
E82A
  5
E82C
331
E82B
  5
E82D
331
E82C
  5
E82E
331
E82D
  5
E82F
331
E82E
  5
E830
331
E82F
  5
E831
331
E830
  5
E832
331
E831
  5
E833
331
E832
  5
E834
331
E833
  5
E835
331
E834
  5
E836
331
E835
  5
E837
331
E836
  5
E87F
331
E837
  5
E885
331
E87F
  5
E886
331
E885
  5
EA76
331
E886
  5
E887
331
E887
  5
EA43
  0
SORTENTSTABLE
  5
B97
102
{ACAD_REACTORS
330
B96
102
}
330
B96
100
AcDbSortentsTable
330
33
  0
XRECORD
  5
EAE2
102
{ACAD_REACTORS
330
EAE1
102
}
330
EAE1
100
AcDbXrecord
280
     1
102
SHADEPLOT
 70
     0
  0
XRECORD
  5
EAAB
102
{ACAD_REACTORS
330
EAAA
102
}
330
EAAA
100
AcDbXrecord
280
     1
 70
     1
  0
XRECORD
  5
EAAD
102
{ACAD_REACTORS
330
EAAA
102
}
330
EAAA
100
AcDbXrecord
280
     1
340
2A
  0
XRECORD
  5
EAAE
102
{ACAD_REACTORS
330
EAAA
102
}
330
EAAA
100
AcDbXrecord
280
     1
340
2A
  0
XRECORD
  5
EAAC
102
{ACAD_REACTORS
330
EAAA
102
}
330
EAAA
100
AcDbXrecord
280
     1
340
2A
  0
XRECORD
  5
EAAF
102
{ACAD_REACTORS
330
EAAA
102
}
330
EAAA
100
AcDbXrecord
280
     1
340
1B
  0
ACDBDETAILVIEWSTYLE
  5
DB92
102
{ACAD_XDICTIONARY
360
EAFD
102
}
102
{ACAD_REACTORS
330
DB91
102
}
330
DB91
100
AcDbModelDocViewStyle
 70
     0
  3
Metric50
290
     0
100
AcDbDetailViewStyle
 70
     0
 71
     0
 90
        3
 71
     1
340
26
 40
5.0
340
0
 40
5.0
300

 40
0.0
280
     1
 71
     2
340
2B
 90
       25
 71
     3
340
26
 40
5.0
 90
        0
 40
15.0
 90
        1
300
%<\AcVar ViewDetailId>% (%<\AcVar ViewScale \f "%sn">%)
 71
     4
340
2B
 90
       25
340
2B
 90
       25
280
     0
  0
LAYOUT
  5
3A
102
{ACAD_XDICTIONARY
360
92F1
102
}
102
{ACAD_REACTORS
330
2F
102
}
330
2F
100
AcDbPlotSettings
  1
A4縦
  2
Canon MP770 Series Printer
  4
A4
  6

 40
4.180416584014891
 41
5.831417560577392
 42
4.180404663085936
 43
3.757080078125
 44
209.9733276367186
 45
296.9683227539062
 46
-4.19374680519104
 47
-4.810087442398071
 48
0.0
 49
0.0
140
210.0
141
297.0
142
1.0
143
1.0
 70
 11940
 72
     1
 73
     0
 74
     4
  7
monochrome.ctb
 75
     0
147
0.7684300128340094
148
0.0
149
0.0
100
AcDbLayout
  1
Model
 70
     1
 71
     0
 10
0.0
 20
0.0
 11
12.0
 21
9.0
 12
0.0
 22
0.0
 32
0.0
 14
0.0
 24
0.0
 34
0.0
 15
0.0
 25
0.0
 35
0.0
146
0.0
 13
0.0
 23
0.0
 33
0.0
 16
1.0
 26
0.0
 36
0.0
 17
0.0
 27
1.0
 37
0.0
 76
     0
330
37
331
28
1001
ACAD_PSEXT
1000
Canon MP770 Series Printer
1000
Canon MP770 Series Printer
1000
USB001
1000

1070
     0
  0
LAYOUT
  5
36
102
{ACAD_XDICTIONARY
360
55B
102
}
102
{ACAD_REACTORS
330
2F
102
}
330
2F
100
AcDbPlotSettings
  1

  2
LP-8300F
  4
A4
  6

 40
5.873749732971191
 41
5.873717308044432
 42
5.873748779296875
 43
5.873748779296875
 44
209.9733276367186
 45
297.0106506347656
 46
0.0
 47
0.0
 48
0.0
 49
0.0
140
0.0
141
0.0
142
1.0
143
1.0
 70
   688
 72
     1
 73
     1
 74
     5
  7
monochrome.ctb
 75
    16
147
1.0
148
0.0
149
0.0
100
AcDbLayout
  1
レイアウト1
 70
     1
 71
     1
 10
-5.873748779296875
 20
-5.873749732971191
 11
291.1369018554688
 21
204.0995779037475
 12
0.0
 22
0.0
 32
0.0
 14
1.000000000000000E+20
 24
1.000000000000000E+20
 34
1.000000000000000E+20
 15
-1.000000000000000E+20
 25
-1.000000000000000E+20
 35
-1.000000000000000E+20
146
0.0
 13
0.0
 23
0.0
 33
0.0
 16
1.0
 26
0.0
 36
0.0
 17
0.0
 27
1.0
 37
0.0
 76
     0
330
33
331
542
1001
ACAD_PSEXT
1000
LP-8300F
1000
EPSON LP-8300F
1000
IP_192.168.252.91
1000

1070
     0
  0
MATERIAL
  5
12
102
{ACAD_XDICTIONARY
360
EABA
102
}
102
{ACAD_REACTORS
330
10
102
}
330
10
100
AcDbMaterial
  1
ByBlock
 73
     1
 78
     1
172
     1
176
     1
270
     1
274
     1
  0
MATERIAL
  5
11
102
{ACAD_XDICTIONARY
360
EAB8
102
}
102
{ACAD_REACTORS
330
10
102
}
330
10
100
AcDbMaterial
  1
ByLayer
 73
     1
 78
     1
172
     1
176
     1
270
     1
274
     1
  0
MATERIAL
  5
13
102
{ACAD_XDICTIONARY
360
EABC
102
}
102
{ACAD_REACTORS
330
10
102
}
330
10
100
AcDbMaterial
  1
Global
 73
     1
 78
     1
172
     1
176
     1
270
     1
274
     1
  0
MLEADERSTYLE
  5
C41
102
{ACAD_REACTORS
330
C40
102
}
330
C40
100
AcDbMLeaderStyle
170
     2
171
     1
172
     0
 90
        2
 40
0.0
 41
0.0
173
     1
 91
-1073741824
340
2A
 92
       -1
290
     1
 42
1.0
291
     0
 43
-0.5
  3
Standard
 44
2.5
300

342
26
174
     5
178
     5
175
     1
176
     0
 93
-1073741824
 45
3.0
292
     0
297
     0
 46
4.0
 94
-1056964608
 47
1.0
 49
1.0
140
1.0
293
     1
141
0.0
294
     1
177
     0
142
1.0
295
     0
296
     0
143
0.15
1001
ACAD_MLEADERVER
1070
     2
  0
MLEADERSTYLE
  5
84CA
102
{ACAD_REACTORS
330
C40
102
}
330
C40
100
AcDbMLeaderStyle
170
     2
171
     1
172
     0
 90
        2
 40
0.0
 41
0.0
173
     1
 91
-1073741824
340
2A
 92
       -1
290
     1
 42
1.0
291
     0
 43
-0.5
  3
Standard
 44
2.5
300

342
26
174
     5
178
     5
175
     1
176
     0
 93
-1073741824
 45
3.5
292
     0
297
     0
 46
4.0
 94
-1056964608
 47
1.0
 49
1.0
140
1.0
293
     1
141
0.0
294
     1
177
     0
142
1.0
295
     0
296
     0
143
0.15
1001
ACAD_MLEADERVER
1070
     2
  0
MLINESTYLE
  5
2D
102
{ACAD_REACTORS
330
2C
102
}
330
2C
100
AcDbMlineStyle
  2
STANDARD
 70
     0
  3

 62
   256
 51
90.0
 52
90.0
 71
     2
 49
0.5
 62
   256
  6
BYLAYER
 49
-0.5
 62
   256
  6
BYLAYER
  0
PLOTSETTINGS
  5
7876
102
{ACAD_XDICTIONARY
360
EAEB
102
}
102
{ACAD_REACTORS
330
2E
102
}
330
2E
100
AcDbPlotSettings
  1
A4横
  2
Canon MP770 Series Printer
  4
A4
  6

 40
4.180416584014891
 41
5.831417560577392
 42
4.180404663085936
 43
3.757080078125
 44
209.9733276367186
 45
296.9683227539062
 46
-4.19374680519104
 47
-4.810087442398071
 48
0.0
 49
350.0
140
297.0
141
560.0
142
1.0
143
1.0
 70
 11940
 72
     1
 73
     1
 74
     4
  7
monochrome.ctb
 75
     0
147
0.7684300128340094
148
0.0
149
-350.0
1001
ACAD_PSEXT
1000
Canon MP770 Series Printer
1000
Canon MP770 Series Printer
1000
USB001
1000

1070
     0
  0
PLOTSETTINGS
  5
786D
102
{ACAD_XDICTIONARY
360
EAE9
102
}
102
{ACAD_REACTORS
330
2E
102
}
330
2E
100
AcDbPlotSettings
  1
A4縦
  2
Canon MP770 Series Printer
  4
A4
  6

 40
4.180416584014891
 41
5.831417560577392
 42
4.180404663085936
 43
3.757080078125
 44
209.9733276367186
 45
296.9683227539062
 46
-4.19374680519104
 47
-4.810087442398071
 48
0.0
 49
0.0
140
210.0
141
297.0
142
1.0
143
1.0
 70
 11940
 72
     1
 73
     0
 74
     4
  7
monochrome.ctb
 75
     0
147
0.7684300128340094
148
0.0
149
0.0
1001
ACAD_PSEXT
1000
Canon MP770 Series Printer
1000
Canon MP770 Series Printer
1000
USB001
1000

1070
     0
  0
ACDBPLACEHOLDER
  5
F
102
{ACAD_REACTORS
330
E
102
}
330
E
  0
SCALE
  5
3737
102
{ACAD_REACTORS
330
C2E
102
}
330
C2E
100
AcDbScale
 70
     0
300
1:20
140
1.0
141
20.0
290
     0
  0
SCALE
  5
3738
102
{ACAD_REACTORS
330
C2E
102
}
330
C2E
100
AcDbScale
 70
     0
300
1:15
140
1.0
141
15.0
290
     0
  0
SCALE
  5
3739
102
{ACAD_REACTORS
330
C2E
102
}
330
C2E
100
AcDbScale
 70
     0
300
1:10
140
1.0
141
10.0
290
     0
  0
SCALE
  5
373A
102
{ACAD_REACTORS
330
C2E
102
}
330
C2E
100
AcDbScale
 70
     0
300
1:6
140
1.0
141
6.0
290
     0
  0
SCALE
  5
373B
102
{ACAD_REACTORS
330
C2E
102
}
330
C2E
100
AcDbScale
 70
     0
300
1:5
140
1.0
141
5.0
290
     0
  0
SCALE
  5
373C
102
{ACAD_REACTORS
330
C2E
102
}
330
C2E
100
AcDbScale
 70
     0
300
1:4
140
1.0
141
4.0
290
     0
  0
SCALE
  5
373D
102
{ACAD_REACTORS
330
C2E
102
}
330
C2E
100
AcDbScale
 70
     0
300
1:3
140
1.0
141
3.0
290
     0
  0
SCALE
  5
373E
102
{ACAD_REACTORS
330
C2E
102
}
330
C2E
100
AcDbScale
 70
     0
300
1:2.5
140
1.0
141
2.5
290
     0
  0
SCALE
  5
373F
102
{ACAD_REACTORS
330
C2E
102
}
330
C2E
100
AcDbScale
 70
     0
300
1:2
140
1.0
141
2.0
290
     0
  0
SCALE
  5
3740
102
{ACAD_REACTORS
330
C2E
102
}
330
C2E
100
AcDbScale
 70
     0
300
1:1.5
140
1.0
141
1.5
290
     0
  0
SCALE
  5
C2F
102
{ACAD_REACTORS
330
C2E
102
}
330
C2E
100
AcDbScale
 70
     0
300
1:1
140
1.0
141
1.0
290
     1
  0
SCALE
  5
3741
102
{ACAD_REACTORS
330
C2E
102
}
330
C2E
100
AcDbScale
 70
     0
300
2:1
140
2.0
141
1.0
290
     0
  0
SCALE
  5
3742
102
{ACAD_REACTORS
330
C2E
102
}
330
C2E
100
AcDbScale
 70
     0
300
2.5:1
140
2.5
141
1.0
290
     0
  0
SCALE
  5
3743
102
{ACAD_REACTORS
330
C2E
102
}
330
C2E
100
AcDbScale
 70
     0
300
3:1
140
3.0
141
1.0
290
     0
  0
SCALE
  5
3744
102
{ACAD_REACTORS
330
C2E
102
}
330
C2E
100
AcDbScale
 70
     0
300
4:1
140
4.0
141
1.0
290
     0
  0
SCALE
  5
3745
102
{ACAD_REACTORS
330
C2E
102
}
330
C2E
100
AcDbScale
 70
     0
300
5:1
140
5.0
141
1.0
290
     0
  0
SCALE
  5
3746
102
{ACAD_REACTORS
330
C2E
102
}
330
C2E
100
AcDbScale
 70
     0
300
10:1
140
10.0
141
1.0
290
     0
  0
ACDBSECTIONVIEWSTYLE
  5
DB90
102
{ACAD_XDICTIONARY
360
EAFB
102
}
102
{ACAD_REACTORS
330
DB8F
102
}
330
DB8F
100
AcDbModelDocViewStyle
 70
     0
  3
Metric50
290
     0
100
AcDbSectionViewStyle
 70
     0
 71
     0
 90
      102
 71
     1
340
26
 40
5.0
340
0
340
0
 40
5.0
300
I, O, Q, S, X, Z
 40
10.0
 90
        0
 40
2.5
 90
        0
 71
     2
340
2B
 90
       25
340
2B
 90
       50
 40
5.0
 40
2.5
 40
5.0
 71
     3
340
26
 40
5.0
 90
        0
 40
15.0
 90
        1
300
%<\AcVar ViewSectionStartId>%-%<\AcVar ViewSectionEndId>% (%<\AcVar ViewScale \f "%sn">%)
 71
     4
300
ANSI31
 40
1.0
 90
        0
290
     0
290
     0
 90
        6
 40
0.0
 40
1.570796326794896
 40
0.2617993877991494
 40
1.308996938995747
 40
-0.2617993877991494
 40
1.832595714594045
  0
TABLESTYLE
  5
32
102
{ACAD_XDICTIONARY
360
3660
102
}
102
{ACAD_REACTORS
330
31
102
}
330
31
100
AcDbTableStyle
  3
Standard
 70
     0
 71
     0
 40
1.5
 41
1.5
280
     0
281
     0
  7
Standard
140
4.5
170
     2
 62
     0
 63
     7
283
     0
274
    -2
284
     1
 64
     0
275
    -2
285
     1
 65
     0
276
    -2
286
     1
 66
     0
277
    -2
287
     1
 67
     0
278
    -2
288
     1
 68
     0
279
    -2
289
     1
 69
     0
  7
Standard
140
6.0
170
     5
 62
     0
 63
     7
283
     0
274
    -2
284
     1
 64
     0
275
    -2
285
     1
 65
     0
276
    -2
286
     1
 66
     0
277
    -2
287
     1
 67
     0
278
    -2
288
     1
 68
     0
279
    -2
289
     1
 69
     0
  7
Standard
140
4.5
170
     5
 62
     0
 63
     7
283
     0
274
    -2
284
     1
 64
     0
275
    -2
285
     1
 65
     0
276
    -2
286
     1
 66
     0
277
    -2
287
     1
 67
     0
278
    -2
288
     1
 68
     0
279
    -2
289
     1
 69
     0
  0
VISUALSTYLE
  5
1A
102
{ACAD_XDICTIONARY
360
EAC8
102
}
102
{ACAD_REACTORS
330
14
102
}
330
14
100
AcDbVisualStyle
  2
2dWireframe
 70
     4
 71
     0
 72
     2
 73
     0
 90
        0
 40
-0.6
 41
-30.0
 62
     5
 63
     7
 74
     1
 91
        4
 64
     7
 65
   257
 75
     1
175
     1
 42
1.0
 92
        0
 66
   257
 43
1.0
 76
     1
 77
     6
 78
     2
 67
     7
 79
     5
170
     0
171
     0
290
     0
174
     0
 93
        1
 44
0.0
173
     0
291
     0
 45
0.0
1001
ACAD
1000
AcDbSavedByObjectVersion
1070
     0
  0
VISUALSTYLE
  5
1C
102
{ACAD_XDICTIONARY
360
EACC
102
}
102
{ACAD_REACTORS
330
14
102
}
330
14
100
AcDbVisualStyle
  2
3D Hidden
 70
     6
 71
     1
 72
     2
 73
     2
 90
        0
 40
-0.6
 41
-30.0
 62
     5
 63
     7
 74
     2
 91
        2
 64
     7
 65
   257
 75
     2
175
     1
 42
40.0
 92
        0
 66
   257
 43
1.0
 76
     1
 77
     6
 78
     2
 67
     7
 79
     3
170
     0
171
     0
290
     0
174
     0
 93
        1
 44
0.0
173
     0
291
     0
 45
0.0
1001
ACAD
1000
AcDbSavedByObjectVersion
1070
     0
  0
VISUALSTYLE
  5
1B
102
{ACAD_XDICTIONARY
360
EACA
102
}
102
{ACAD_REACTORS
330
14
102
}
330
14
100
AcDbVisualStyle
  2
3dWireframe
 70
     5
 71
     0
 72
     2
 73
     0
 90
        0
 40
-0.6
 41
-30.0
 62
     5
 63
     7
 74
     1
 91
        4
 64
     7
 65
   257
 75
     1
175
     1
 42
1.0
 92
        0
 66
   257
 43
1.0
 76
     1
 77
     6
 78
     2
 67
     7
 79
     5
170
     0
171
     0
290
     0
174
     0
 93
        1
 44
0.0
173
     0
291
     0
 45
0.0
1001
ACAD
1000
AcDbSavedByObjectVersion
1070
     0
  0
VISUALSTYLE
  5
19
102
{ACAD_XDICTIONARY
360
EAC6
102
}
102
{ACAD_REACTORS
330
14
102
}
330
14
100
AcDbVisualStyle
  2
Basic
 70
     7
 71
     1
 72
     0
 73
     1
 90
        0
 40
-0.6
 41
-30.0
 62
     5
 63
     7
 74
     0
 91
        4
 64
     7
 65
   257
 75
     1
175
     1
 42
1.0
 92
        8
 66
     7
 43
1.0
 76
     1
 77
     6
 78
     2
 67
     7
 79
     5
170
     0
171
     0
290
     0
174
     0
 93
        1
 44
0.0
173
     0
291
     1
 45
0.0
1001
ACAD
1000
AcDbSavedByObjectVersion
1070
     0
  0
VISUALSTYLE
  5
20
102
{ACAD_XDICTIONARY
360
EAD4
102
}
102
{ACAD_REACTORS
330
14
102
}
330
14
100
AcDbVisualStyle
  2
Brighten
 70
    12
 71
     2
 72
     2
 73
     0
 90
        0
 40
-0.6
 41
-30.0
 62
     5
 63
     7
 74
     1
 91
        4
 64
     7
 65
   257
 75
     1
175
     1
 42
1.0
 92
        8
 66
     7
 43
1.0
 76
     1
 77
     6
 78
     2
 67
     7
 79
     5
170
     0
171
     0
290
     0
174
     0
 93
        1
 44
50.0
173
     0
291
     1
 45
0.0
1001
ACAD
1000
AcDbSavedByObjectVersion
1070
     0
  0
VISUALSTYLE
  5
24
102
{ACAD_XDICTIONARY
360
EADC
102
}
102
{ACAD_REACTORS
330
14
102
}
330
14
100
AcDbVisualStyle
  2
ColorChange
 70
    16
 71
     2
 72
     2
 73
     3
 90
        0
 40
-0.6
 41
-30.0
 62
     5
 63
     8
 74
     1
 91
        4
 64
     7
 65
   257
 75
     1
175
     1
 42
1.0
 92
        8
 66
     8
 43
1.0
 76
     1
 77
     6
 78
     2
 67
     7
 79
     5
170
     0
171
     0
290
     0
174
     0
 93
        1
 44
0.0
173
     0
291
     1
 45
0.0
1001
ACAD
1000
AcDbSavedByObjectVersion
1070
     0
  0
VISUALSTYLE
  5
1D
102
{ACAD_XDICTIONARY
360
EACE
102
}
102
{ACAD_REACTORS
330
14
102
}
330
14
100
AcDbVisualStyle
  2
Conceptual
 70
     9
 71
     3
 72
     2
 73
     0
 90
        0
 40
-0.6
 41
-30.0
 62
     5
 63
     7
 74
     2
 91
        2
 64
     7
 65
   257
 75
     1
175
     1
 42
40.0
 92
        8
 66
     7
 43
1.0
 76
     1
 77
     6
 78
     2
 67
     7
 79
     3
170
     0
171
     0
290
     0
174
     0
 93
        1
 44
0.0
173
     0
291
     0
 45
0.0
1001
ACAD
1000
AcDbSavedByObjectVersion
1070
     0
  0
VISUALSTYLE
  5
1F
102
{ACAD_XDICTIONARY
360
EAD2
102
}
102
{ACAD_REACTORS
330
14
102
}
330
14
100
AcDbVisualStyle
  2
Dim
 70
    11
 71
     2
 72
     2
 73
     0
 90
        0
 40
-0.6
 41
-30.0
 62
     5
 63
     7
 74
     1
 91
        4
 64
     7
 65
   257
 75
     1
175
     1
 42
1.0
 92
        8
 66
     7
 43
1.0
 76
     1
 77
     6
 78
     2
 67
     7
 79
     5
170
     0
171
     0
290
     0
174
     0
 93
        1
 44
-50.0
173
     0
291
     1
 45
0.0
1001
ACAD
1000
AcDbSavedByObjectVersion
1070
     0
  0
VISUALSTYLE
  5
C2D
102
{ACAD_XDICTIONARY
360
EAE7
102
}
102
{ACAD_REACTORS
330
14
102
}
330
14
100
AcDbVisualStyle
  2
EdgeColorOff
 70
    22
 71
     2
 72
     2
 73
     0
 90
        0
 40
-0.6
 41
-30.0
 62
     5
 63
     7
 74
     1
 91
        4
 64
     7
 65
   257
 75
     1
175
     1
 42
1.0
 92
        8
 66
     7
 43
1.0
 76
     1
 77
     6
 78
     2
 67
     7
 79
     5
170
     0
171
     0
290
     0
174
     0
 93
        1
 44
0.0
173
     0
291
     1
 45
0.0
1001
ACAD
1000
AcDbSavedByObjectVersion
1070
     0
  0
VISUALSTYLE
  5
23
102
{ACAD_XDICTIONARY
360
EADA
102
}
102
{ACAD_REACTORS
330
14
102
}
330
14
100
AcDbVisualStyle
  2
Facepattern
 70
    15
 71
     2
 72
     2
 73
     0
 90
        0
 40
-0.6
 41
-30.0
 62
     5
 63
     7
 74
     1
 91
        4
 64
     7
 65
   257
 75
     1
175
     1
 42
1.0
 92
        8
 66
     7
 43
1.0
 76
     1
 77
     6
 78
     2
 67
     7
 79
     5
170
     0
171
     0
290
     0
174
     0
 93
        1
 44
0.0
173
     0
291
     1
 45
0.0
1001
ACAD
1000
AcDbSavedByObjectVersion
1070
     0
  0
VISUALSTYLE
  5
15
102
{ACAD_XDICTIONARY
360
EABE
102
}
102
{ACAD_REACTORS
330
14
102
}
330
14
100
AcDbVisualStyle
  2
Flat
 70
     0
 71
     2
 72
     1
 73
     1
 90
        2
 40
-0.6
 41
30.0
 62
     5
 63
     7
 74
     0
 91
        4
 64
     7
 65
   257
 75
     1
175
     1
 42
1.0
 92
        8
 66
     7
 43
1.0
 76
     1
 77
     6
 78
     2
 67
     7
 79
     5
170
     0
171
     0
290
     0
174
     0
 93
       13
 44
0.0
173
     0
291
     1
 45
0.0
1001
ACAD
1000
AcDbSavedByObjectVersion
1070
     0
  0
VISUALSTYLE
  5
16
102
{ACAD_XDICTIONARY
360
EAC0
102
}
102
{ACAD_REACTORS
330
14
102
}
330
14
100
AcDbVisualStyle
  2
FlatWithEdges
 70
     1
 71
     2
 72
     1
 73
     1
 90
        2
 40
-0.6
 41
30.0
 62
     5
 63
     7
 74
     1
 91
        4
 64
     7
 65
   257
 75
     1
175
     1
 42
1.0
 92
        0
 66
   257
 43
1.0
 76
     1
 77
     6
 78
     2
 67
     7
 79
     5
170
     0
171
     0
290
     0
174
     0
 93
       13
 44
0.0
173
     0
291
     1
 45
0.0
1001
ACAD
1000
AcDbSavedByObjectVersion
1070
     0
  0
VISUALSTYLE
  5
17
102
{ACAD_XDICTIONARY
360
EAC2
102
}
102
{ACAD_REACTORS
330
14
102
}
330
14
100
AcDbVisualStyle
  2
Gouraud
 70
     2
 71
     2
 72
     2
 73
     1
 90
        2
 40
-0.6
 41
30.0
 62
     5
 63
     7
 74
     0
 91
        4
 64
     7
 65
   257
 75
     1
175
     1
 42
1.0
 92
        0
 66
     7
 43
1.0
 76
     1
 77
     6
 78
     2
 67
     7
 79
     5
170
     0
171
     0
290
     0
174
     0
 93
       13
 44
0.0
173
     0
291
     1
 45
0.0
1001
ACAD
1000
AcDbSavedByObjectVersion
1070
     0
  0
VISUALSTYLE
  5
18
102
{ACAD_XDICTIONARY
360
EAC4
102
}
102
{ACAD_REACTORS
330
14
102
}
330
14
100
AcDbVisualStyle
  2
GouraudWithEdges
 70
     3
 71
     2
 72
     2
 73
     1
 90
        2
 40
-0.6
 41
30.0
 62
     5
 63
     7
 74
     1
 91
        4
 64
     7
 65
   257
 75
     1
175
     1
 42
1.0
 92
        0
 66
   257
 43
1.0
 76
     1
 77
     6
 78
     2
 67
     7
 79
     5
170
     0
171
     0
290
     0
174
     0
 93
       13
 44
0.0
173
     0
291
     1
 45
0.0
1001
ACAD
1000
AcDbSavedByObjectVersion
1070
     0
  0
VISUALSTYLE
  5
DB89
102
{ACAD_XDICTIONARY
360
EAEF
102
}
102
{ACAD_REACTORS
330
14
102
}
330
14
100
AcDbVisualStyle
  2
Hidden
 70
     6
 71
     1
 72
     2
 73
     2
 90
        0
 40
-0.6
 41
-30.0
 62
     5
 63
     7
 74
     2
 91
        2
 64
     7
 65
   257
 75
     2
175
     1
 42
40.0
 92
        0
 66
   257
 43
1.0
 76
     1
 77
     6
 78
     2
 67
     7
 79
     3
170
     0
171
     0
290
     0
174
     0
 93
        1
 44
0.0
173
     0
291
     0
 45
0.0
1001
ACAD
1000
AcDbSavedByObjectVersion
1070
     0
  0
VISUALSTYLE
  5
C2B
102
{ACAD_XDICTIONARY
360
EAE3
102
}
102
{ACAD_REACTORS
330
14
102
}
330
14
100
AcDbVisualStyle
  2
JitterOff
 70
    20
 71
     2
 72
     2
 73
     0
 90
        0
 40
-0.6
 41
-30.0
 62
     5
 63
     7
 74
     1
 91
        4
 64
     7
 65
   257
 75
     1
175
     1
 42
1.0
 92
       10
 66
     7
 43
1.0
 76
     1
 77
     6
 78
     2
 67
     7
 79
     5
170
     0
171
     0
290
     0
174
     0
 93
        1
 44
0.0
173
     0
291
     1
 45
0.0
1001
ACAD
1000
AcDbSavedByObjectVersion
1070
     0
  0
VISUALSTYLE
  5
22
102
{ACAD_XDICTIONARY
360
EAD8
102
}
102
{ACAD_REACTORS
330
14
102
}
330
14
100
AcDbVisualStyle
  2
Linepattern
 70
    14
 71
     2
 72
     2
 73
     0
 90
        0
 40
-0.6
 41
-30.0
 62
     5
 63
     7
 74
     1
 91
        4
 64
     7
 65
   257
 75
     7
175
     7
 42
1.0
 92
        8
 66
     7
 43
1.0
 76
     1
 77
     6
 78
     2
 67
     7
 79
     5
170
     0
171
     0
290
     0
174
     0
 93
        1
 44
0.0
173
     0
291
     1
 45
0.0
1001
ACAD
1000
AcDbSavedByObjectVersion
1070
     0
  0
VISUALSTYLE
  5
C2C
102
{ACAD_XDICTIONARY
360
EAE5
102
}
102
{ACAD_REACTORS
330
14
102
}
330
14
100
AcDbVisualStyle
  2
OverhangOff
 70
    21
 71
     2
 72
     2
 73
     0
 90
        0
 40
-0.6
 41
-30.0
 62
     5
 63
     7
 74
     1
 91
        4
 64
     7
 65
   257
 75
     1
175
     1
 42
1.0
 92
        9
 66
     7
 43
1.0
 76
     1
 77
     6
 78
     2
 67
     7
 79
     5
170
     0
171
     0
290
     0
174
     0
 93
        1
 44
0.0
173
     0
291
     1
 45
0.0
1001
ACAD
1000
AcDbSavedByObjectVersion
1070
     0
  0
VISUALSTYLE
  5
1E
102
{ACAD_XDICTIONARY
360
EAD0
102
}
102
{ACAD_REACTORS
330
14
102
}
330
14
100
AcDbVisualStyle
  2
Realistic
 70
     8
 71
     2
 72
     2
 73
     0
 90
        0
 40
-0.6
 41
-30.0
 62
     5
 63
     7
 74
     1
 91
        0
 64
     7
 65
   257
 75
     1
175
     1
 42
1.0
 92
        8
 66
     8
 43
1.0
 76
     1
 77
     6
 78
     2
 67
     7
 79
     5
170
     0
171
     0
290
     0
174
     0
 93
       13
 44
0.0
173
     0
291
     0
 45
0.0
1001
ACAD
1000
AcDbSavedByObjectVersion
1070
     0
  0
VISUALSTYLE
  5
DB8E
102
{ACAD_XDICTIONARY
360
EAF9
102
}
102
{ACAD_REACTORS
330
14
102
}
330
14
100
AcDbVisualStyle
  2
Shaded
 70
    27
 71
     2
 72
     2
 73
     1
 90
        2
 40
-0.6
 41
30.0
 62
     5
 63
     7
 74
     0
 91
        4
 64
     7
 65
   257
 75
     1
175
     1
 42
1.0
 92
        8
 66
   257
 43
1.0
 76
     1
 77
     6
 78
     2
 67
     8
 79
     3
170
     0
171
     0
290
     0
174
     0
 93
        5
 44
0.0
173
     0
291
     0
 45
0.0
1001
ACAD
1000
AcDbSavedByObjectVersion
1070
     0
  0
VISUALSTYLE
  5
DB8D
102
{ACAD_XDICTIONARY
360
EAF7
102
}
102
{ACAD_REACTORS
330
14
102
}
330
14
100
AcDbVisualStyle
  2
Shaded with edges
 70
    26
 71
     2
 72
     2
 73
     1
 90
        2
 40
-0.6
 41
30.0
 62
     5
 63
     7
 74
     1
 91
        2
 64
     7
 65
   257
 75
     2
175
     1
 42
1.0
 92
        8
 66
   257
 43
1.0
 76
     1
 77
     6
 78
     2
 67
     7
 79
     3
170
     0
171
     0
290
     0
174
     0
 93
        5
 44
0.0
173
     0
291
     0
 45
0.0
1001
ACAD
1000
AcDbSavedByObjectVersion
1070
     0
  0
VISUALSTYLE
  5
DB8A
102
{ACAD_XDICTIONARY
360
EAF1
102
}
102
{ACAD_REACTORS
330
14
102
}
330
14
100
AcDbVisualStyle
  2
Shades of Gray
 70
    23
 71
     2
 72
     2
 73
     3
 90
        0
 40
-0.6
 41
-30.0
 62
     5
 63
     7
 74
     2
 91
        2
 64
     7
 65
     7
 75
     1
175
     1
 42
40.0
 92
        8
 66
     7
 43
1.0
 76
     1
 77
     6
 78
     2
 67
     7
 79
     3
170
     0
171
     0
290
     0
174
     0
 93
        1
 44
0.0
173
     0
291
     0
 45
0.0
1001
ACAD
1000
AcDbSavedByObjectVersion
1070
     0
  0
VISUALSTYLE
  5
DB8B
102
{ACAD_XDICTIONARY
360
EAF3
102
}
102
{ACAD_REACTORS
330
14
102
}
330
14
100
AcDbVisualStyle
  2
Sketchy
 70
    24
 71
     1
 72
     2
 73
     2
 90
        0
 40
-0.6
 41
-30.0
 62
     5
 63
     7
 74
     2
 91
        2
 64
     7
 65
     7
 75
     1
175
     1
 42
40.0
 92
       11
 66
     7
 43
1.0
 76
     1
 77
     6
 78
     2
 67
     7
 79
     6
170
     0
171
     0
290
     0
174
     0
 93
        1
 44
0.0
173
     0
291
     0
 45
0.0
1001
ACAD
1000
AcDbSavedByObjectVersion
1070
     0
  0
VISUALSTYLE
  5
21
102
{ACAD_XDICTIONARY
360
EAD6
102
}
102
{ACAD_REACTORS
330
14
102
}
330
14
100
AcDbVisualStyle
  2
Thicken
 70
    13
 71
     2
 72
     2
 73
     0
 90
        0
 40
-0.6
 41
-30.0
 62
     5
 63
     7
 74
     1
 91
        4
 64
     7
 65
   257
 75
     1
175
     1
 42
1.0
 92
       12
 66
     7
 43
1.0
 76
     1
 77
     6
 78
     2
 67
     7
 79
     5
170
     0
171
     0
290
     0
174
     0
 93
        1
 44
0.0
173
     0
291
     1
 45
0.0
1001
ACAD
1000
AcDbSavedByObjectVersion
1070
     0
  0
VISUALSTYLE
  5
DB88
102
{ACAD_XDICTIONARY
360
EAED
102
}
102
{ACAD_REACTORS
330
14
102
}
330
14
100
AcDbVisualStyle
  2
Wireframe
 70
     5
 71
     0
 72
     2
 73
     0
 90
        0
 40
-0.6
 41
-30.0
 62
     5
 63
     7
 74
     1
 91
        4
 64
     7
 65
   257
 75
     1
175
     1
 42
1.0
 92
        0
 66
   257
 43
1.0
 76
     1
 77
     6
 78
     2
 67
     7
 79
     3
170
     0
171
     0
290
     0
174
     0
 93
        1
 44
0.0
173
     0
291
     0
 45
0.0
1001
ACAD
1000
AcDbSavedByObjectVersion
1070
     0
  0
VISUALSTYLE
  5
DB8C
102
{ACAD_XDICTIONARY
360
EAF5
102
}
102
{ACAD_REACTORS
330
14
102
}
330
14
100
AcDbVisualStyle
  2
X-Ray
 70
    25
 71
     2
 72
     2
 73
     1
 90
        1
 40
0.5
 41
-30.0
 62
     5
 63
     7
 74
     1
 91
        0
 64
     7
 65
   257
 75
     1
175
     1
 42
1.0
 92
        8
 66
     7
 43
1.0
 76
     1
 77
     6
 78
     2
 67
     7
 79
     3
170
     0
171
     0
290
     0
174
     0
 93
       13
 44
0.0
173
     0
291
     0
 45
0.0
1001
ACAD
1000
AcDbSavedByObjectVersion
1070
     0
  0
DICTIONARYVAR
  5
3714
102
{ACAD_REACTORS
330
42
102
}
330
42
100
DictionaryVariables
280
     0
  1
1:1
  0
DICTIONARYVAR
  5
3713
102
{ACAD_REACTORS
330
42
102
}
330
42
100
DictionaryVariables
280
     0
  1
部品図用_1：1
  0
DICTIONARYVAR
  5
43
102
{ACAD_REACTORS
330
42
102
}
330
42
100
DictionaryVariables
280
     0
  1
STANDARD
  0
DICTIONARYVAR
  5
DBE1
102
{ACAD_REACTORS
330
42
102
}
330
42
100
DictionaryVariables
280
     0
  1
Metric50
  0
DICTIONARYVAR
  5
DBE2
102
{ACAD_REACTORS
330
42
102
}
330
42
100
DictionaryVariables
280
     0
  1
Metric50
  0
DICTIONARYVAR
  5
3719
102
{ACAD_REACTORS
330
42
102
}
330
42
100
DictionaryVariables
280
     0
  1
2
  0
DICTIONARYVAR
  5
3717
102
{ACAD_REACTORS
330
42
102
}
330
42
100
DictionaryVariables
280
     0
  1
1
  0
DICTIONARYVAR
  5
3716
102
{ACAD_REACTORS
330
42
102
}
330
42
100
DictionaryVariables
280
     0
  1
0
  0
DICTIONARYVAR
  5
93DF
102
{ACAD_REACTORS
330
42
102
}
330
42
100
DictionaryVariables
280
     0
  1
1
  0
DICTIONARYVAR
  5
93E0
102
{ACAD_REACTORS
330
42
102
}
330
42
100
DictionaryVariables
280
     0
  1
15
  0
DICTIONARYVAR
  5
93DE
102
{ACAD_REACTORS
330
42
102
}
330
42
100
DictionaryVariables
280
     0
  1
0
  0
DICTIONARYVAR
  5
EAA3
102
{ACAD_REACTORS
330
42
102
}
330
42
100
DictionaryVariables
280
     0
  1
1.570796
  0
DICTIONARYVAR
  5
EAA4
102
{ACAD_REACTORS
330
42
102
}
330
42
100
DictionaryVariables
280
     0
  1
1.570796
  0
DICTIONARYVAR
  5
EAA5
102
{ACAD_REACTORS
330
42
102
}
330
42
100
DictionaryVariables
280
     0
  1
-122.394000
  0
DICTIONARYVAR
  5
B1DD
102
{ACAD_REACTORS
330
42
102
}
330
42
100
DictionaryVariables
280
     0
  1
1.000000
  0
DICTIONARYVAR
  5
93DD
102
{ACAD_REACTORS
330
42
102
}
330
42
100
DictionaryVariables
280
     0
  1
0
  0
DICTIONARYVAR
  5
EAA2
102
{ACAD_REACTORS
330
42
102
}
330
42
100
DictionaryVariables
280
     0
  1
1
  0
DICTIONARYVAR
  5
3715
102
{ACAD_REACTORS
330
42
102
}
330
42
100
DictionaryVariables
280
     0
  1
127
  0
DICTIONARYVAR
  5
EAA6
102
{ACAD_REACTORS
330
42
102
}
330
42
100
DictionaryVariables
280
     0
  1
2
  0
DICTIONARY
  5
EAB7
102
{ACAD_REACTORS
330
EAB5
102
}
330
EAB5
100
AcDbDictionary
281
     1
  0
DICTIONARY
  5
EAB6
102
{ACAD_REACTORS
330
EAB5
102
}
330
EAB5
100
AcDbDictionary
281
     1
  3
2239775083648
350
EAB0
  3
2239775083664
350
EAB1
  3
2239775083680
350
EAB2
  3
2239775083696
350
EAB3
  3
2239775083712
350
EAB4
  0
DICTIONARY
  5
EAFD
330
DB92
100
AcDbDictionary
280
     1
281
     1
  3
ACAD_XREC_ROUNDTRIP
360
EAFE
  0
DICTIONARY
  5
92F1
330
3A
100
AcDbDictionary
280
     1
281
     1
  3
ACAD_XREC_ROUNDTRIP
360
EAE0
  0
DICTIONARY
  5
55B
330
36
100
AcDbDictionary
280
     1
281
     1
  3
ACAD_XREC_ROUNDTRIP
360
EADF
  0
DICTIONARY
  5
EABA
330
12
100
AcDbDictionary
280
     1
281
     1
  3
ACAD_XREC_ROUNDTRIP
360
EABB
  0
DICTIONARY
  5
EAB8
330
11
100
AcDbDictionary
280
     1
281
     1
  3
ACAD_XREC_ROUNDTRIP
360
EAB9
  0
DICTIONARY
  5
EABC
330
13
100
AcDbDictionary
280
     1
281
     1
  3
ACAD_XREC_ROUNDTRIP
360
EABD
  0
DICTIONARY
  5
EAEB
330
7876
100
AcDbDictionary
280
     1
281
     1
  3
ACAD_XREC_ROUNDTRIP
360
EAEC
  0
DICTIONARY
  5
EAE9
330
786D
100
AcDbDictionary
280
     1
281
     1
  3
ACAD_XREC_ROUNDTRIP
360
EAEA
  0
DICTIONARY
  5
EAFB
330
DB90
100
AcDbDictionary
280
     1
281
     1
  3
ACAD_XREC_ROUNDTRIP
360
EAFC
  0
DICTIONARY
  5
3660
330
32
100
AcDbDictionary
280
     1
281
     1
  3
ACAD_ROUNDTRIP_2008_TABLESTYLE_CELLSTYLEMAP
360
EAA7
  3
ACAD_XREC_ROUNDTRIP
360
EADE
  0
DICTIONARY
  5
EAC8
330
1A
100
AcDbDictionary
280
     1
281
     1
  3
ACAD_XREC_ROUNDTRIP
360
EAC9
  0
DICTIONARY
  5
EACC
330
1C
100
AcDbDictionary
280
     1
281
     1
  3
ACAD_XREC_ROUNDTRIP
360
EACD
  0
DICTIONARY
  5
EACA
330
1B
100
AcDbDictionary
280
     1
281
     1
  3
ACAD_XREC_ROUNDTRIP
360
EACB
  0
DICTIONARY
  5
EAC6
330
19
100
AcDbDictionary
280
     1
281
     1
  3
ACAD_XREC_ROUNDTRIP
360
EAC7
  0
DICTIONARY
  5
EAD4
330
20
100
AcDbDictionary
280
     1
281
     1
  3
ACAD_XREC_ROUNDTRIP
360
EAD5
  0
DICTIONARY
  5
EADC
330
24
100
AcDbDictionary
280
     1
281
     1
  3
ACAD_XREC_ROUNDTRIP
360
EADD
  0
DICTIONARY
  5
EACE
330
1D
100
AcDbDictionary
280
     1
281
     1
  3
ACAD_XREC_ROUNDTRIP
360
EACF
  0
DICTIONARY
  5
EAD2
330
1F
100
AcDbDictionary
280
     1
281
     1
  3
ACAD_XREC_ROUNDTRIP
360
EAD3
  0
DICTIONARY
  5
EAE7
330
C2D
100
AcDbDictionary
280
     1
281
     1
  3
ACAD_XREC_ROUNDTRIP
360
EAE8
  0
DICTIONARY
  5
EADA
330
23
100
AcDbDictionary
280
     1
281
     1
  3
ACAD_XREC_ROUNDTRIP
360
EADB
  0
DICTIONARY
  5
EABE
330
15
100
AcDbDictionary
280
     1
281
     1
  3
ACAD_XREC_ROUNDTRIP
360
EABF
  0
DICTIONARY
  5
EAC0
330
16
100
AcDbDictionary
280
     1
281
     1
  3
ACAD_XREC_ROUNDTRIP
360
EAC1
  0
DICTIONARY
  5
EAC2
330
17
100
AcDbDictionary
280
     1
281
     1
  3
ACAD_XREC_ROUNDTRIP
360
EAC3
  0
DICTIONARY
  5
EAC4
330
18
100
AcDbDictionary
280
     1
281
     1
  3
ACAD_XREC_ROUNDTRIP
360
EAC5
  0
DICTIONARY
  5
EAEF
330
DB89
100
AcDbDictionary
280
     1
281
     1
  3
ACAD_XREC_ROUNDTRIP
360
EAF0
  0
DICTIONARY
  5
EAE3
330
C2B
100
AcDbDictionary
280
     1
281
     1
  3
ACAD_XREC_ROUNDTRIP
360
EAE4
  0
DICTIONARY
  5
EAD8
330
22
100
AcDbDictionary
280
     1
281
     1
  3
ACAD_XREC_ROUNDTRIP
360
EAD9
  0
DICTIONARY
  5
EAE5
330
C2C
100
AcDbDictionary
280
     1
281
     1
  3
ACAD_XREC_ROUNDTRIP
360
EAE6
  0
DICTIONARY
  5
EAD0
330
1E
100
AcDbDictionary
280
     1
281
     1
  3
ACAD_XREC_ROUNDTRIP
360
EAD1
  0
DICTIONARY
  5
EAF9
330
DB8E
100
AcDbDictionary
280
     1
281
     1
  3
ACAD_XREC_ROUNDTRIP
360
EAFA
  0
DICTIONARY
  5
EAF7
330
DB8D
100
AcDbDictionary
280
     1
281
     1
  3
ACAD_XREC_ROUNDTRIP
360
EAF8
  0
DICTIONARY
  5
EAF1
330
DB8A
100
AcDbDictionary
280
     1
281
     1
  3
ACAD_XREC_ROUNDTRIP
360
EAF2
  0
DICTIONARY
  5
EAF3
330
DB8B
100
AcDbDictionary
280
     1
281
     1
  3
ACAD_XREC_ROUNDTRIP
360
EAF4
  0
DICTIONARY
  5
EAD6
330
21
100
AcDbDictionary
280
     1
281
     1
  3
ACAD_XREC_ROUNDTRIP
360
EAD7
  0
DICTIONARY
  5
EAED
330
DB88
100
AcDbDictionary
280
     1
281
     1
  3
ACAD_XREC_ROUNDTRIP
360
EAEE
  0
DICTIONARY
  5
EAF5
330
DB8C
100
AcDbDictionary
280
     1
281
     1
  3
ACAD_XREC_ROUNDTRIP
360
EAF6
  0
XRECORD
  5
EAB0
102
{ACAD_REACTORS
330
EAB6
102
}
330
EAB6
100
AcDbXrecord
280
     1
  1
AcDb_Thumbnail_Schema
102
{ATTRRECORD
341
EAB1
  2
AcDbDs::TreatedAsObjectData
280
     1
291
     1
102
ATTRRECORD}
102
{ATTRRECORD
341
EAB2
  2
AcDbDs::Legacy
280
     1
291
     1
102
ATTRRECORD}
  2
AcDbDs::ID
280
    10
 91
        8
102
{ATTRRECORD
341
EAB3
  2
AcDs:Indexable
280
     1
291
     1
102
ATTRRECORD}
102
{ATTRRECORD
341
EAB4
  2
AcDbDs::HandleAttribute
280
     7
282
     1
102
ATTRRECORD}
  2
Thumbnail_Data
280
    15
 91
        0
  0
XRECORD
  5
EAB1
102
{ACAD_REACTORS
330
EAB6
102
}
330
EAB6
100
AcDbXrecord
280
     1
  1
AcDbDs::TreatedAsObjectDataSchema
  2
AcDbDs::TreatedAsObjectData
280
     1
 91
        0
  0
XRECORD
  5
EAB2
102
{ACAD_REACTORS
330
EAB6
102
}
330
EAB6
100
AcDbXrecord
280
     1
  1
AcDbDs::LegacySchema
  2
AcDbDs::Legacy
280
     1
 91
        0
  0
XRECORD
  5
EAB3
102
{ACAD_REACTORS
330
EAB6
102
}
330
EAB6
100
AcDbXrecord
280
     1
  1
AcDbDs::IndexedPropertySchema
  2
AcDs:Indexable
280
     1
 91
        0
  0
XRECORD
  5
EAB4
102
{ACAD_REACTORS
330
EAB6
102
}
330
EAB6
100
AcDbXrecord
280
     1
  1
AcDbDs::HandleAttributeSchema
  2
AcDbDs::HandleAttribute
280
     7
 91
        1
284
     1
  0
XRECORD
  5
EAFE
102
{ACAD_REACTORS
330
EAFD
102
}
330
EAFD
100
AcDbXrecord
280
     1
102
DISPLAYNAME
  1
Metric50
102
FLAGS
 90
        0
  0
XRECORD
  5
EAE0
102
{ACAD_REACTORS
330
92F1
102
}
330
92F1
100
AcDbXrecord
280
     1
102
SHADEPLOT
 70
     0
102
SHADEPLOTRESLEVEL
 70
     2
102
SHADEPLOTCUSTOMDPI
 70
   300
  0
XRECORD
  5
EADF
102
{ACAD_REACTORS
330
55B
102
}
330
55B
100
AcDbXrecord
280
     1
102
SHADEPLOT
 70
     0
102
SHADEPLOTRESLEVEL
 70
     2
102
SHADEPLOTCUSTOMDPI
 70
   300
  0
XRECORD
  5
EABB
102
{ACAD_REACTORS
330
EABA
102
}
330
EABA
100
AcDbXrecord
280
     1
102
MATERIAL
148
0.0
149
0.0
149
0.0
 93
        0
 94
       63
282
     0
 72
     1
 77
     1
171
     1
175
     1
179
     1
273
     0
  0
XRECORD
  5
EAB9
102
{ACAD_REACTORS
330
EAB8
102
}
330
EAB8
100
AcDbXrecord
280
     1
102
MATERIAL
148
0.0
149
0.0
149
0.0
 93
        0
 94
       63
282
     0
 72
     1
 77
     1
171
     1
175
     1
179
     1
273
     0
  0
XRECORD
  5
EABD
102
{ACAD_REACTORS
330
EABC
102
}
330
EABC
100
AcDbXrecord
280
     1
102
MATERIAL
148
0.0
149
0.0
149
0.0
 93
        0
 94
       63
282
     0
 72
     1
 77
     1
171
     1
175
     1
179
     1
273
     0
  0
XRECORD
  5
EAEC
102
{ACAD_REACTORS
330
EAEB
102
}
330
EAEB
100
AcDbXrecord
280
     1
102
SHADEPLOT
 70
     0
102
SHADEPLOTRESLEVEL
 70
     2
102
SHADEPLOTCUSTOMDPI
 70
   300
  0
XRECORD
  5
EAEA
102
{ACAD_REACTORS
330
EAE9
102
}
330
EAE9
100
AcDbXrecord
280
     1
102
SHADEPLOT
 70
     0
102
SHADEPLOTRESLEVEL
 70
     2
102
SHADEPLOTCUSTOMDPI
 70
   300
  0
XRECORD
  5
EAFC
102
{ACAD_REACTORS
330
EAFB
102
}
330
EAFB
100
AcDbXrecord
280
     1
102
DISPLAYNAME
  1
Metric50
102
FLAGS
 90
        0
  0
CELLSTYLEMAP
  5
EAA7
102
{ACAD_REACTORS
330
3660
102
}
330
3660
100
AcDbCellStyleMap
 90
        3
300
CELLSTYLE
  1
TABLEFORMAT_BEGIN
 90
        5
170
     1
 91
        0
 92
    32768
 62
   257
 93
        1
300
CONTENTFORMAT
  1
CONTENTFORMAT_BEGIN
 90
        0
 91
        0
 92
      512
 93
        0
300

 40
0.0
140
1.0
 94
        5
 62
     0
340
26
144
6.0
309
CONTENTFORMAT_END
171
     1
301
MARGIN
  1
CELLMARGIN_BEGIN
 40
1.5
 40
1.5
 40
1.5
 40
1.5
 40
0.18
 40
0.18
309
CELLMARGIN_END
 94
        6
 95
        1
302
GRIDFORMAT
  1
GRIDFORMAT_BEGIN
 90
        0
 91
        1
 62
     0
 92
       -2
340
0
 93
        0
 40
0.045
309
GRIDFORMAT_END
 95
        2
302
GRIDFORMAT
  1
GRIDFORMAT_BEGIN
 90
        0
 91
        1
 62
     0
 92
       -2
340
0
 93
        0
 40
0.045
309
GRIDFORMAT_END
 95
        4
302
GRIDFORMAT
  1
GRIDFORMAT_BEGIN
 90
        0
 91
        1
 62
     0
 92
       -2
340
0
 93
        0
 40
0.045
309
GRIDFORMAT_END
 95
        8
302
GRIDFORMAT
  1
GRIDFORMAT_BEGIN
 90
        0
 91
        1
 62
     0
 92
       -2
340
0
 93
        0
 40
0.045
309
GRIDFORMAT_END
 95
       16
302
GRIDFORMAT
  1
GRIDFORMAT_BEGIN
 90
        0
 91
        1
 62
     0
 92
       -2
340
0
 93
        0
 40
0.045
309
GRIDFORMAT_END
 95
       32
302
GRIDFORMAT
  1
GRIDFORMAT_BEGIN
 90
        0
 91
        1
 62
     0
 92
       -2
340
0
 93
        0
 40
0.045
309
GRIDFORMAT_END
309
TABLEFORMAT_END
  1
CELLSTYLE_BEGIN
 90
        1
 91
        1
300
_TITLE
309
CELLSTYLE_END
300
CELLSTYLE
  1
TABLEFORMAT_BEGIN
 90
        5
170
     1
 91
        0
 92
        0
 62
   257
 93
        1
300
CONTENTFORMAT
  1
CONTENTFORMAT_BEGIN
 90
        0
 91
        0
 92
      512
 93
        0
300

 40
0.0
140
1.0
 94
        5
 62
     0
340
26
144
4.5
309
CONTENTFORMAT_END
171
     1
301
MARGIN
  1
CELLMARGIN_BEGIN
 40
1.5
 40
1.5
 40
1.5
 40
1.5
 40
0.18
 40
0.18
309
CELLMARGIN_END
 94
        6
 95
        1
302
GRIDFORMAT
  1
GRIDFORMAT_BEGIN
 90
        0
 91
        1
 62
     0
 92
       -2
340
0
 93
        0
 40
0.045
309
GRIDFORMAT_END
 95
        2
302
GRIDFORMAT
  1
GRIDFORMAT_BEGIN
 90
        0
 91
        1
 62
     0
 92
       -2
340
0
 93
        0
 40
0.045
309
GRIDFORMAT_END
 95
        4
302
GRIDFORMAT
  1
GRIDFORMAT_BEGIN
 90
        0
 91
        1
 62
     0
 92
       -2
340
0
 93
        0
 40
0.045
309
GRIDFORMAT_END
 95
        8
302
GRIDFORMAT
  1
GRIDFORMAT_BEGIN
 90
        0
 91
        1
 62
     0
 92
       -2
340
0
 93
        0
 40
0.045
309
GRIDFORMAT_END
 95
       16
302
GRIDFORMAT
  1
GRIDFORMAT_BEGIN
 90
        0
 91
        1
 62
     0
 92
       -2
340
0
 93
        0
 40
0.045
309
GRIDFORMAT_END
 95
       32
302
GRIDFORMAT
  1
GRIDFORMAT_BEGIN
 90
        0
 91
        1
 62
     0
 92
       -2
340
0
 93
        0
 40
0.045
309
GRIDFORMAT_END
309
TABLEFORMAT_END
  1
CELLSTYLE_BEGIN
 90
        2
 91
        1
300
_HEADER
309
CELLSTYLE_END
300
CELLSTYLE
  1
TABLEFORMAT_BEGIN
 90
        5
170
     1
 91
        0
 92
        0
 62
   257
 93
        1
300
CONTENTFORMAT
  1
CONTENTFORMAT_BEGIN
 90
        0
 91
        0
 92
      512
 93
        0
300

 40
0.0
140
1.0
 94
        2
 62
     0
340
26
144
4.5
309
CONTENTFORMAT_END
171
     1
301
MARGIN
  1
CELLMARGIN_BEGIN
 40
1.5
 40
1.5
 40
1.5
 40
1.5
 40
0.18
 40
0.18
309
CELLMARGIN_END
 94
        6
 95
        1
302
GRIDFORMAT
  1
GRIDFORMAT_BEGIN
 90
        0
 91
        1
 62
     0
 92
       -2
340
0
 93
        0
 40
0.045
309
GRIDFORMAT_END
 95
        2
302
GRIDFORMAT
  1
GRIDFORMAT_BEGIN
 90
        0
 91
        1
 62
     0
 92
       -2
340
0
 93
        0
 40
0.045
309
GRIDFORMAT_END
 95
        4
302
GRIDFORMAT
  1
GRIDFORMAT_BEGIN
 90
        0
 91
        1
 62
     0
 92
       -2
340
0
 93
        0
 40
0.045
309
GRIDFORMAT_END
 95
        8
302
GRIDFORMAT
  1
GRIDFORMAT_BEGIN
 90
        0
 91
        1
 62
     0
 92
       -2
340
0
 93
        0
 40
0.045
309
GRIDFORMAT_END
 95
       16
302
GRIDFORMAT
  1
GRIDFORMAT_BEGIN
 90
        0
 91
        1
 62
     0
 92
       -2
340
0
 93
        0
 40
0.045
309
GRIDFORMAT_END
 95
       32
302
GRIDFORMAT
  1
GRIDFORMAT_BEGIN
 90
        0
 91
        1
 62
     0
 92
       -2
340
0
 93
        0
 40
0.045
309
GRIDFORMAT_END
309
TABLEFORMAT_END
  1
CELLSTYLE_BEGIN
 90
        3
 91
        2
300
_DATA
309
CELLSTYLE_END
  0
XRECORD
  5
EADE
102
{ACAD_REACTORS
330
3660
102
}
330
3660
100
AcDbXrecord
280
     1
102
ACAD_ROUNDTRIP_PRE2007_TABLESTYLE
 90
      512
 91
        0
  1

 92
      512
 93
        0
  2

 94
      512
 95
        0
  3

  0
XRECORD
  5
EAC9
102
{ACAD_REACTORS
330
EAC8
102
}
330
EAC8
100
AcDbXrecord
280
     1
102
RTVSPost2010Prop28
280
     1
102
RTVSPost2010PropOp28
 70
     1
102
RTVSPost2010Prop29
280
     1
102
RTVSPost2010PropOp29
 70
     1
102
RTVSPost2010Prop30
280
     0
102
RTVSPost2010PropOp30
 70
     1
102
RTVSPost2010Prop31
280
     0
102
RTVSPost2010PropOp31
 70
     1
102
RTVSPost2010Prop32
280
     0
102
RTVSPost2010PropOp32
 70
     1
102
RTVSPost2010Prop33
280
     0
102
RTVSPost2010PropOp33
 70
     1
102
RTVSPost2010Prop34
280
     0
102
RTVSPost2010PropOp34
 70
     1
102
RTVSPost2010Prop35
280
     0
102
RTVSPost2010PropOp35
 70
     1
102
RTVSPost2010Prop36
280
     0
102
RTVSPost2010PropOp36
 70
     1
102
RTVSPost2010Prop37
 90
       50
102
RTVSPost2010PropOp37
 70
     1
102
RTVSPost2010Prop38
140
0.0
102
RTVSPost2010PropOp38
 70
     1
102
RTVSPost2010Prop39
140
1.0
102
RTVSPost2010PropOp39
 70
     1
102
RTVSPost2010Prop40
 90
        0
102
RTVSPost2010PropOp40
 70
     1
102
RTVSPost2010Prop41ColorIndex
 90
       18
102
RTVSPost2010Prop41ColorRGB
 90
        0
102
RTVSPost2010PropOp41
 70
     1
102
RTVSPost2010Prop42
 90
       50
102
RTVSPost2010PropOp42
 70
     1
102
RTVSPost2010Prop43
 90
        3
102
RTVSPost2010PropOp43
 70
     1
102
RTVSPost2010Prop44ColorIndex
 90
        5
102
RTVSPost2010Prop44ColorRGB
 90
      255
102
RTVSPost2010PropOp44
 70
     1
102
RTVSPost2010Prop45
280
     0
102
RTVSPost2010PropOp45
 70
     1
102
RTVSPost2010Prop46
 90
       50
102
RTVSPost2010PropOp46
 70
     1
102
RTVSPost2010Prop47
 90
       50
102
RTVSPost2010PropOp47
 70
     1
102
RTVSPost2010Prop48
 90
       50
102
RTVSPost2010PropOp48
 70
     1
102
RTVSPost2010Prop49
280
     0
102
RTVSPost2010PropOp49
 70
     1
102
RTVSPost2010Prop50
 90
       50
102
RTVSPost2010PropOp50
 70
     1
102
RTVSPost2010Prop51ColorIndex
 90
      256
102
RTVSPost2010Prop51ColorRGB
 90
-16777216
102
RTVSPost2010PropOp51
 70
     0
102
RTVSPost2010Prop52
140
1.0
102
RTVSPost2010PropOp52
 70
     0
102
RTVSPost2010Prop53
 90
        2
102
RTVSPost2010PropOp53
 70
     1
102
RTVSPost2010Prop54
  1
strokes_ogs.tif
102
RTVSPost2010PropOp54
 70
     1
102
RTVSPost2010Prop55
280
     0
102
RTVSPost2010PropOp55
 70
     1
102
RTVSPost2010Prop56
140
1.0
102
RTVSPost2010PropOp56
 70
     1
102
RTVSPost2010Prop57
140
1.0
102
RTVSPost2010PropOp57
 70
     1
102
RTVSPropertyOp0
 70
     1
102
RTVSPropertyOp1
 70
     1
102
RTVSPropertyOp2
 70
     1
102
RTVSPropertyOp3
 70
     1
102
RTVSPropertyOp4
 70
     1
102
RTVSPropertyOp5
 70
     1
102
RTVSPropertyOp6
 70
     1
102
RTVSPropertyOp7
 70
     1
102
RTVSPropertyOp8
 70
     1
102
RTVSPropertyOp9
 70
     1
102
RTVSPropertyOp10
 70
     1
102
RTVSPropertyOp11
 70
     1
102
RTVSPropertyOp12
 70
     1
102
RTVSPropertyOp13
 70
     1
102
RTVSPropertyOp14
 70
     1
102
RTVSPropertyOp15
 70
     1
102
RTVSPropertyOp16
 70
     1
102
RTVSPropertyOp17
 70
     1
102
RTVSPropertyOp18
 70
     1
102
RTVSPropertyOp19
 70
     1
102
RTVSPropertyOp20
 70
     1
102
RTVSPropertyOp21
 70
     1
102
RTVSPropertyOp22
 70
     1
102
RTVSPropertyOp23
 70
     1
102
RTVSPropertyOp24
 70
     1
102
RTVSPropertyOp25
 70
     1
102
RTVSPropertyOp26
 70
     1
102
RTVSPropertyOp27
 70
     1
102
RTVSPropertyOp28
 70
     1
102
RTVSPropertyOp29
 70
     1
102
RTVSPropertyOp30
 70
     1
102
RTVSPropertyOp31
 70
     1
102
RTVSPropertyOp32
 70
     1
102
RTVSPropertyOp33
 70
     1
102
RTVSPropertyOp34
 70
     1
102
RTVSPropertyOp35
 70
     1
102
RTVSPropertyOp36
 70
     1
102
RTVSPropertyOp37
 70
     1
102
RTVSPropertyOp38
 70
     1
102
RTVSPropertyOp39
 70
     1
102
RTVSPropertyOp40
 70
     1
102
RTVSPropertyOp41
 70
     1
102
RTVSPropertyOp42
 70
     1
102
RTVSPropertyOp43
 70
     1
102
RTVSPropertyOp44
 70
     1
102
RTVSPropertyOp45
 70
     1
102
RTVSPropertyOp46
 70
     1
102
RTVSPropertyOp47
 70
     1
102
RTVSPropertyOp48
 70
     1
102
RTVSPropertyOp49
 70
     1
102
RTVSPropertyOp50
 70
     1
102
RTVSPropertyOp51
 70
     0
102
RTVSPropertyOp52
 70
     0
102
RTVSPropertyOp53
 70
     1
102
RTVSPropertyOp54
 70
     1
102
RTVSPropertyOp55
 70
     1
102
RTVSPropertyOp56
 70
     1
102
RTVSPropertyOp57
 70
     1
102
RTVSPropertyOp58
 70
     1
102
RTVSPropertyOp59
 70
     1
102
RTVSPropertyOp60
 70
     1
102
RTVSPropertyOp61
 70
     1
102
RTVSPropertyOp62
 70
     1
  0
XRECORD
  5
EACD
102
{ACAD_REACTORS
330
EACC
102
}
330
EACC
100
AcDbXrecord
280
     1
102
RTVSPost2010Prop28
280
     0
102
RTVSPost2010PropOp28
 70
     1
102
RTVSPost2010Prop29
280
     1
102
RTVSPost2010PropOp29
 70
     1
102
RTVSPost2010Prop30
280
     1
102
RTVSPost2010PropOp30
 70
     1
102
RTVSPost2010Prop31
280
     0
102
RTVSPost2010PropOp31
 70
     1
102
RTVSPost2010Prop32
280
     0
102
RTVSPost2010PropOp32
 70
     1
102
RTVSPost2010Prop33
280
     0
102
RTVSPost2010PropOp33
 70
     1
102
RTVSPost2010Prop34
280
     0
102
RTVSPost2010PropOp34
 70
     1
102
RTVSPost2010Prop35
280
     0
102
RTVSPost2010PropOp35
 70
     1
102
RTVSPost2010Prop36
280
     0
102
RTVSPost2010PropOp36
 70
     1
102
RTVSPost2010Prop37
 90
       50
102
RTVSPost2010PropOp37
 70
     1
102
RTVSPost2010Prop38
140
0.0
102
RTVSPost2010PropOp38
 70
     1
102
RTVSPost2010Prop39
140
1.0
102
RTVSPost2010PropOp39
 70
     1
102
RTVSPost2010Prop40
 90
        0
102
RTVSPost2010PropOp40
 70
     1
102
RTVSPost2010Prop41ColorIndex
 90
       18
102
RTVSPost2010Prop41ColorRGB
 90
        0
102
RTVSPost2010PropOp41
 70
     1
102
RTVSPost2010Prop42
 90
       50
102
RTVSPost2010PropOp42
 70
     1
102
RTVSPost2010Prop43
 90
        3
102
RTVSPost2010PropOp43
 70
     1
102
RTVSPost2010Prop44ColorIndex
 90
        5
102
RTVSPost2010Prop44ColorRGB
 90
      255
102
RTVSPost2010PropOp44
 70
     1
102
RTVSPost2010Prop45
280
     0
102
RTVSPost2010PropOp45
 70
     1
102
RTVSPost2010Prop46
 90
       50
102
RTVSPost2010PropOp46
 70
     1
102
RTVSPost2010Prop47
 90
       50
102
RTVSPost2010PropOp47
 70
     1
102
RTVSPost2010Prop48
 90
       50
102
RTVSPost2010PropOp48
 70
     1
102
RTVSPost2010Prop49
280
     0
102
RTVSPost2010PropOp49
 70
     1
102
RTVSPost2010Prop50
 90
       50
102
RTVSPost2010PropOp50
 70
     1
102
RTVSPost2010Prop51ColorIndex
 90
      256
102
RTVSPost2010Prop51ColorRGB
 90
-16777216
102
RTVSPost2010PropOp51
 70
     0
102
RTVSPost2010Prop52
140
1.0
102
RTVSPost2010PropOp52
 70
     0
102
RTVSPost2010Prop53
 90
        2
102
RTVSPost2010PropOp53
 70
     1
102
RTVSPost2010Prop54
  1
strokes_ogs.tif
102
RTVSPost2010PropOp54
 70
     1
102
RTVSPost2010Prop55
280
     0
102
RTVSPost2010PropOp55
 70
     1
102
RTVSPost2010Prop56
140
1.0
102
RTVSPost2010PropOp56
 70
     1
102
RTVSPost2010Prop57
140
1.0
102
RTVSPost2010PropOp57
 70
     1
102
RTVSPropertyOp0
 70
     1
102
RTVSPropertyOp1
 70
     1
102
RTVSPropertyOp2
 70
     1
102
RTVSPropertyOp3
 70
     1
102
RTVSPropertyOp4
 70
     1
102
RTVSPropertyOp5
 70
     1
102
RTVSPropertyOp6
 70
     1
102
RTVSPropertyOp7
 70
     1
102
RTVSPropertyOp8
 70
     1
102
RTVSPropertyOp9
 70
     1
102
RTVSPropertyOp10
 70
     1
102
RTVSPropertyOp11
 70
     1
102
RTVSPropertyOp12
 70
     1
102
RTVSPropertyOp13
 70
     1
102
RTVSPropertyOp14
 70
     1
102
RTVSPropertyOp15
 70
     1
102
RTVSPropertyOp16
 70
     1
102
RTVSPropertyOp17
 70
     1
102
RTVSPropertyOp18
 70
     1
102
RTVSPropertyOp19
 70
     1
102
RTVSPropertyOp20
 70
     1
102
RTVSPropertyOp21
 70
     1
102
RTVSPropertyOp22
 70
     1
102
RTVSPropertyOp23
 70
     1
102
RTVSPropertyOp24
 70
     1
102
RTVSPropertyOp25
 70
     1
102
RTVSPropertyOp26
 70
     1
102
RTVSPropertyOp27
 70
     1
102
RTVSPropertyOp28
 70
     1
102
RTVSPropertyOp29
 70
     1
102
RTVSPropertyOp30
 70
     1
102
RTVSPropertyOp31
 70
     1
102
RTVSPropertyOp32
 70
     1
102
RTVSPropertyOp33
 70
     1
102
RTVSPropertyOp34
 70
     1
102
RTVSPropertyOp35
 70
     1
102
RTVSPropertyOp36
 70
     1
102
RTVSPropertyOp37
 70
     1
102
RTVSPropertyOp38
 70
     1
102
RTVSPropertyOp39
 70
     1
102
RTVSPropertyOp40
 70
     1
102
RTVSPropertyOp41
 70
     1
102
RTVSPropertyOp42
 70
     1
102
RTVSPropertyOp43
 70
     1
102
RTVSPropertyOp44
 70
     1
102
RTVSPropertyOp45
 70
     1
102
RTVSPropertyOp46
 70
     1
102
RTVSPropertyOp47
 70
     1
102
RTVSPropertyOp48
 70
     1
102
RTVSPropertyOp49
 70
     1
102
RTVSPropertyOp50
 70
     1
102
RTVSPropertyOp51
 70
     0
102
RTVSPropertyOp52
 70
     0
102
RTVSPropertyOp53
 70
     1
102
RTVSPropertyOp54
 70
     1
102
RTVSPropertyOp55
 70
     1
102
RTVSPropertyOp56
 70
     1
102
RTVSPropertyOp57
 70
     1
102
RTVSPropertyOp58
 70
     1
102
RTVSPropertyOp59
 70
     1
102
RTVSPropertyOp60
 70
     1
102
RTVSPropertyOp61
 70
     1
102
RTVSPropertyOp62
 70
     1
  0
XRECORD
  5
EACB
102
{ACAD_REACTORS
330
EACA
102
}
330
EACA
100
AcDbXrecord
280
     1
102
RTVSPost2010Prop28
280
     0
102
RTVSPost2010PropOp28
 70
     1
102
RTVSPost2010Prop29
280
     1
102
RTVSPost2010PropOp29
 70
     1
102
RTVSPost2010Prop30
280
     1
102
RTVSPost2010PropOp30
 70
     1
102
RTVSPost2010Prop31
280
     0
102
RTVSPost2010PropOp31
 70
     1
102
RTVSPost2010Prop32
280
     0
102
RTVSPost2010PropOp32
 70
     1
102
RTVSPost2010Prop33
280
     0
102
RTVSPost2010PropOp33
 70
     1
102
RTVSPost2010Prop34
280
     0
102
RTVSPost2010PropOp34
 70
     1
102
RTVSPost2010Prop35
280
     0
102
RTVSPost2010PropOp35
 70
     1
102
RTVSPost2010Prop36
280
     0
102
RTVSPost2010PropOp36
 70
     1
102
RTVSPost2010Prop37
 90
       50
102
RTVSPost2010PropOp37
 70
     1
102
RTVSPost2010Prop38
140
0.0
102
RTVSPost2010PropOp38
 70
     1
102
RTVSPost2010Prop39
140
1.0
102
RTVSPost2010PropOp39
 70
     1
102
RTVSPost2010Prop40
 90
        0
102
RTVSPost2010PropOp40
 70
     1
102
RTVSPost2010Prop41ColorIndex
 90
       18
102
RTVSPost2010Prop41ColorRGB
 90
        0
102
RTVSPost2010PropOp41
 70
     1
102
RTVSPost2010Prop42
 90
       50
102
RTVSPost2010PropOp42
 70
     1
102
RTVSPost2010Prop43
 90
        3
102
RTVSPost2010PropOp43
 70
     1
102
RTVSPost2010Prop44ColorIndex
 90
        5
102
RTVSPost2010Prop44ColorRGB
 90
      255
102
RTVSPost2010PropOp44
 70
     1
102
RTVSPost2010Prop45
280
     0
102
RTVSPost2010PropOp45
 70
     1
102
RTVSPost2010Prop46
 90
       50
102
RTVSPost2010PropOp46
 70
     1
102
RTVSPost2010Prop47
 90
       50
102
RTVSPost2010PropOp47
 70
     1
102
RTVSPost2010Prop48
 90
       50
102
RTVSPost2010PropOp48
 70
     1
102
RTVSPost2010Prop49
280
     0
102
RTVSPost2010PropOp49
 70
     1
102
RTVSPost2010Prop50
 90
       50
102
RTVSPost2010PropOp50
 70
     1
102
RTVSPost2010Prop51ColorIndex
 90
      256
102
RTVSPost2010Prop51ColorRGB
 90
-16777216
102
RTVSPost2010PropOp51
 70
     0
102
RTVSPost2010Prop52
140
1.0
102
RTVSPost2010PropOp52
 70
     0
102
RTVSPost2010Prop53
 90
        2
102
RTVSPost2010PropOp53
 70
     1
102
RTVSPost2010Prop54
  1
strokes_ogs.tif
102
RTVSPost2010PropOp54
 70
     1
102
RTVSPost2010Prop55
280
     0
102
RTVSPost2010PropOp55
 70
     1
102
RTVSPost2010Prop56
140
1.0
102
RTVSPost2010PropOp56
 70
     1
102
RTVSPost2010Prop57
140
1.0
102
RTVSPost2010PropOp57
 70
     1
102
RTVSPropertyOp0
 70
     1
102
RTVSPropertyOp1
 70
     1
102
RTVSPropertyOp2
 70
     1
102
RTVSPropertyOp3
 70
     1
102
RTVSPropertyOp4
 70
     1
102
RTVSPropertyOp5
 70
     1
102
RTVSPropertyOp6
 70
     1
102
RTVSPropertyOp7
 70
     1
102
RTVSPropertyOp8
 70
     1
102
RTVSPropertyOp9
 70
     1
102
RTVSPropertyOp10
 70
     1
102
RTVSPropertyOp11
 70
     1
102
RTVSPropertyOp12
 70
     1
102
RTVSPropertyOp13
 70
     1
102
RTVSPropertyOp14
 70
     1
102
RTVSPropertyOp15
 70
     1
102
RTVSPropertyOp16
 70
     1
102
RTVSPropertyOp17
 70
     1
102
RTVSPropertyOp18
 70
     1
102
RTVSPropertyOp19
 70
     1
102
RTVSPropertyOp20
 70
     1
102
RTVSPropertyOp21
 70
     1
102
RTVSPropertyOp22
 70
     1
102
RTVSPropertyOp23
 70
     1
102
RTVSPropertyOp24
 70
     1
102
RTVSPropertyOp25
 70
     1
102
RTVSPropertyOp26
 70
     1
102
RTVSPropertyOp27
 70
     1
102
RTVSPropertyOp28
 70
     1
102
RTVSPropertyOp29
 70
     1
102
RTVSPropertyOp30
 70
     1
102
RTVSPropertyOp31
 70
     1
102
RTVSPropertyOp32
 70
     1
102
RTVSPropertyOp33
 70
     1
102
RTVSPropertyOp34
 70
     1
102
RTVSPropertyOp35
 70
     1
102
RTVSPropertyOp36
 70
     1
102
RTVSPropertyOp37
 70
     1
102
RTVSPropertyOp38
 70
     1
102
RTVSPropertyOp39
 70
     1
102
RTVSPropertyOp40
 70
     1
102
RTVSPropertyOp41
 70
     1
102
RTVSPropertyOp42
 70
     1
102
RTVSPropertyOp43
 70
     1
102
RTVSPropertyOp44
 70
     1
102
RTVSPropertyOp45
 70
     1
102
RTVSPropertyOp46
 70
     1
102
RTVSPropertyOp47
 70
     1
102
RTVSPropertyOp48
 70
     1
102
RTVSPropertyOp49
 70
     1
102
RTVSPropertyOp50
 70
     1
102
RTVSPropertyOp51
 70
     0
102
RTVSPropertyOp52
 70
     0
102
RTVSPropertyOp53
 70
     1
102
RTVSPropertyOp54
 70
     1
102
RTVSPropertyOp55
 70
     1
102
RTVSPropertyOp56
 70
     1
102
RTVSPropertyOp57
 70
     1
102
RTVSPropertyOp58
 70
     1
102
RTVSPropertyOp59
 70
     1
102
RTVSPropertyOp60
 70
     1
102
RTVSPropertyOp61
 70
     1
102
RTVSPropertyOp62
 70
     1
  0
XRECORD
  5
EAC7
102
{ACAD_REACTORS
330
EAC6
102
}
330
EAC6
100
AcDbXrecord
280
     1
102
RTVSPost2010Prop28
280
     0
102
RTVSPost2010PropOp28
 70
     1
102
RTVSPost2010Prop29
280
     1
102
RTVSPost2010PropOp29
 70
     1
102
RTVSPost2010Prop30
280
     1
102
RTVSPost2010PropOp30
 70
     1
102
RTVSPost2010Prop31
280
     0
102
RTVSPost2010PropOp31
 70
     1
102
RTVSPost2010Prop32
280
     0
102
RTVSPost2010PropOp32
 70
     1
102
RTVSPost2010Prop33
280
     0
102
RTVSPost2010PropOp33
 70
     1
102
RTVSPost2010Prop34
280
     0
102
RTVSPost2010PropOp34
 70
     1
102
RTVSPost2010Prop35
280
     0
102
RTVSPost2010PropOp35
 70
     1
102
RTVSPost2010Prop36
280
     0
102
RTVSPost2010PropOp36
 70
     1
102
RTVSPost2010Prop37
 90
       50
102
RTVSPost2010PropOp37
 70
     1
102
RTVSPost2010Prop38
140
0.0
102
RTVSPost2010PropOp38
 70
     1
102
RTVSPost2010Prop39
140
1.0
102
RTVSPost2010PropOp39
 70
     1
102
RTVSPost2010Prop40
 90
        0
102
RTVSPost2010PropOp40
 70
     1
102
RTVSPost2010Prop41ColorIndex
 90
       18
102
RTVSPost2010Prop41ColorRGB
 90
        0
102
RTVSPost2010PropOp41
 70
     1
102
RTVSPost2010Prop42
 90
       50
102
RTVSPost2010PropOp42
 70
     1
102
RTVSPost2010Prop43
 90
        3
102
RTVSPost2010PropOp43
 70
     1
102
RTVSPost2010Prop44ColorIndex
 90
        5
102
RTVSPost2010Prop44ColorRGB
 90
      255
102
RTVSPost2010PropOp44
 70
     1
102
RTVSPost2010Prop45
280
     0
102
RTVSPost2010PropOp45
 70
     1
102
RTVSPost2010Prop46
 90
       50
102
RTVSPost2010PropOp46
 70
     1
102
RTVSPost2010Prop47
 90
       50
102
RTVSPost2010PropOp47
 70
     1
102
RTVSPost2010Prop48
 90
       50
102
RTVSPost2010PropOp48
 70
     1
102
RTVSPost2010Prop49
280
     0
102
RTVSPost2010PropOp49
 70
     1
102
RTVSPost2010Prop50
 90
       50
102
RTVSPost2010PropOp50
 70
     1
102
RTVSPost2010Prop51ColorIndex
 90
      256
102
RTVSPost2010Prop51ColorRGB
 90
-16777216
102
RTVSPost2010PropOp51
 70
     0
102
RTVSPost2010Prop52
140
1.0
102
RTVSPost2010PropOp52
 70
     0
102
RTVSPost2010Prop53
 90
        2
102
RTVSPost2010PropOp53
 70
     1
102
RTVSPost2010Prop54
  1
strokes_ogs.tif
102
RTVSPost2010PropOp54
 70
     1
102
RTVSPost2010Prop55
280
     0
102
RTVSPost2010PropOp55
 70
     1
102
RTVSPost2010Prop56
140
1.0
102
RTVSPost2010PropOp56
 70
     1
102
RTVSPost2010Prop57
140
1.0
102
RTVSPost2010PropOp57
 70
     1
102
RTVSPropertyOp0
 70
     1
102
RTVSPropertyOp1
 70
     1
102
RTVSPropertyOp2
 70
     1
102
RTVSPropertyOp3
 70
     1
102
RTVSPropertyOp4
 70
     1
102
RTVSPropertyOp5
 70
     1
102
RTVSPropertyOp6
 70
     1
102
RTVSPropertyOp7
 70
     1
102
RTVSPropertyOp8
 70
     1
102
RTVSPropertyOp9
 70
     1
102
RTVSPropertyOp10
 70
     1
102
RTVSPropertyOp11
 70
     1
102
RTVSPropertyOp12
 70
     1
102
RTVSPropertyOp13
 70
     1
102
RTVSPropertyOp14
 70
     1
102
RTVSPropertyOp15
 70
     1
102
RTVSPropertyOp16
 70
     1
102
RTVSPropertyOp17
 70
     1
102
RTVSPropertyOp18
 70
     1
102
RTVSPropertyOp19
 70
     1
102
RTVSPropertyOp20
 70
     1
102
RTVSPropertyOp21
 70
     1
102
RTVSPropertyOp22
 70
     1
102
RTVSPropertyOp23
 70
     1
102
RTVSPropertyOp24
 70
     1
102
RTVSPropertyOp25
 70
     1
102
RTVSPropertyOp26
 70
     1
102
RTVSPropertyOp27
 70
     1
102
RTVSPropertyOp28
 70
     1
102
RTVSPropertyOp29
 70
     1
102
RTVSPropertyOp30
 70
     1
102
RTVSPropertyOp31
 70
     1
102
RTVSPropertyOp32
 70
     1
102
RTVSPropertyOp33
 70
     1
102
RTVSPropertyOp34
 70
     1
102
RTVSPropertyOp35
 70
     1
102
RTVSPropertyOp36
 70
     1
102
RTVSPropertyOp37
 70
     1
102
RTVSPropertyOp38
 70
     1
102
RTVSPropertyOp39
 70
     1
102
RTVSPropertyOp40
 70
     1
102
RTVSPropertyOp41
 70
     1
102
RTVSPropertyOp42
 70
     1
102
RTVSPropertyOp43
 70
     1
102
RTVSPropertyOp44
 70
     1
102
RTVSPropertyOp45
 70
     1
102
RTVSPropertyOp46
 70
     1
102
RTVSPropertyOp47
 70
     1
102
RTVSPropertyOp48
 70
     1
102
RTVSPropertyOp49
 70
     1
102
RTVSPropertyOp50
 70
     1
102
RTVSPropertyOp51
 70
     0
102
RTVSPropertyOp52
 70
     0
102
RTVSPropertyOp53
 70
     1
102
RTVSPropertyOp54
 70
     1
102
RTVSPropertyOp55
 70
     1
102
RTVSPropertyOp56
 70
     1
102
RTVSPropertyOp57
 70
     1
102
RTVSPropertyOp58
 70
     1
102
RTVSPropertyOp59
 70
     1
102
RTVSPropertyOp60
 70
     1
102
RTVSPropertyOp61
 70
     1
102
RTVSPropertyOp62
 70
     1
  0
XRECORD
  5
EAD5
102
{ACAD_REACTORS
330
EAD4
102
}
330
EAD4
100
AcDbXrecord
280
     1
102
RTVSPost2010Prop28
280
     0
102
RTVSPost2010PropOp28
 70
     1
102
RTVSPost2010Prop29
280
     1
102
RTVSPost2010PropOp29
 70
     1
102
RTVSPost2010Prop30
280
     1
102
RTVSPost2010PropOp30
 70
     1
102
RTVSPost2010Prop31
280
     0
102
RTVSPost2010PropOp31
 70
     1
102
RTVSPost2010Prop32
280
     0
102
RTVSPost2010PropOp32
 70
     1
102
RTVSPost2010Prop33
280
     0
102
RTVSPost2010PropOp33
 70
     1
102
RTVSPost2010Prop34
280
     0
102
RTVSPost2010PropOp34
 70
     1
102
RTVSPost2010Prop35
280
     0
102
RTVSPost2010PropOp35
 70
     1
102
RTVSPost2010Prop36
280
     0
102
RTVSPost2010PropOp36
 70
     1
102
RTVSPost2010Prop37
 90
       50
102
RTVSPost2010PropOp37
 70
     1
102
RTVSPost2010Prop38
140
0.0
102
RTVSPost2010PropOp38
 70
     1
102
RTVSPost2010Prop39
140
1.0
102
RTVSPost2010PropOp39
 70
     1
102
RTVSPost2010Prop40
 90
        0
102
RTVSPost2010PropOp40
 70
     1
102
RTVSPost2010Prop41ColorIndex
 90
       18
102
RTVSPost2010Prop41ColorRGB
 90
        0
102
RTVSPost2010PropOp41
 70
     1
102
RTVSPost2010Prop42
 90
       50
102
RTVSPost2010PropOp42
 70
     1
102
RTVSPost2010Prop43
 90
        3
102
RTVSPost2010PropOp43
 70
     1
102
RTVSPost2010Prop44ColorIndex
 90
        5
102
RTVSPost2010Prop44ColorRGB
 90
      255
102
RTVSPost2010PropOp44
 70
     1
102
RTVSPost2010Prop45
280
     0
102
RTVSPost2010PropOp45
 70
     1
102
RTVSPost2010Prop46
 90
       50
102
RTVSPost2010PropOp46
 70
     1
102
RTVSPost2010Prop47
 90
       50
102
RTVSPost2010PropOp47
 70
     1
102
RTVSPost2010Prop48
 90
       50
102
RTVSPost2010PropOp48
 70
     1
102
RTVSPost2010Prop49
280
     0
102
RTVSPost2010PropOp49
 70
     1
102
RTVSPost2010Prop50
 90
       50
102
RTVSPost2010PropOp50
 70
     1
102
RTVSPost2010Prop51ColorIndex
 90
      256
102
RTVSPost2010Prop51ColorRGB
 90
-16777216
102
RTVSPost2010PropOp51
 70
     0
102
RTVSPost2010Prop52
140
1.0
102
RTVSPost2010PropOp52
 70
     0
102
RTVSPost2010Prop53
 90
        2
102
RTVSPost2010PropOp53
 70
     1
102
RTVSPost2010Prop54
  1
strokes_ogs.tif
102
RTVSPost2010PropOp54
 70
     1
102
RTVSPost2010Prop55
280
     0
102
RTVSPost2010PropOp55
 70
     1
102
RTVSPost2010Prop56
140
1.0
102
RTVSPost2010PropOp56
 70
     1
102
RTVSPost2010Prop57
140
1.0
102
RTVSPost2010PropOp57
 70
     1
102
RTVSPropertyOp0
 70
     1
102
RTVSPropertyOp1
 70
     1
102
RTVSPropertyOp2
 70
     1
102
RTVSPropertyOp3
 70
     1
102
RTVSPropertyOp4
 70
     1
102
RTVSPropertyOp5
 70
     1
102
RTVSPropertyOp6
 70
     1
102
RTVSPropertyOp7
 70
     1
102
RTVSPropertyOp8
 70
     1
102
RTVSPropertyOp9
 70
     1
102
RTVSPropertyOp10
 70
     1
102
RTVSPropertyOp11
 70
     1
102
RTVSPropertyOp12
 70
     1
102
RTVSPropertyOp13
 70
     1
102
RTVSPropertyOp14
 70
     1
102
RTVSPropertyOp15
 70
     1
102
RTVSPropertyOp16
 70
     1
102
RTVSPropertyOp17
 70
     1
102
RTVSPropertyOp18
 70
     1
102
RTVSPropertyOp19
 70
     1
102
RTVSPropertyOp20
 70
     1
102
RTVSPropertyOp21
 70
     1
102
RTVSPropertyOp22
 70
     1
102
RTVSPropertyOp23
 70
     1
102
RTVSPropertyOp24
 70
     1
102
RTVSPropertyOp25
 70
     1
102
RTVSPropertyOp26
 70
     1
102
RTVSPropertyOp27
 70
     1
102
RTVSPropertyOp28
 70
     1
102
RTVSPropertyOp29
 70
     1
102
RTVSPropertyOp30
 70
     1
102
RTVSPropertyOp31
 70
     1
102
RTVSPropertyOp32
 70
     1
102
RTVSPropertyOp33
 70
     1
102
RTVSPropertyOp34
 70
     1
102
RTVSPropertyOp35
 70
     1
102
RTVSPropertyOp36
 70
     1
102
RTVSPropertyOp37
 70
     1
102
RTVSPropertyOp38
 70
     1
102
RTVSPropertyOp39
 70
     1
102
RTVSPropertyOp40
 70
     1
102
RTVSPropertyOp41
 70
     1
102
RTVSPropertyOp42
 70
     1
102
RTVSPropertyOp43
 70
     1
102
RTVSPropertyOp44
 70
     1
102
RTVSPropertyOp45
 70
     1
102
RTVSPropertyOp46
 70
     1
102
RTVSPropertyOp47
 70
     1
102
RTVSPropertyOp48
 70
     1
102
RTVSPropertyOp49
 70
     1
102
RTVSPropertyOp50
 70
     1
102
RTVSPropertyOp51
 70
     0
102
RTVSPropertyOp52
 70
     0
102
RTVSPropertyOp53
 70
     1
102
RTVSPropertyOp54
 70
     1
102
RTVSPropertyOp55
 70
     1
102
RTVSPropertyOp56
 70
     1
102
RTVSPropertyOp57
 70
     1
102
RTVSPropertyOp58
 70
     1
102
RTVSPropertyOp59
 70
     1
102
RTVSPropertyOp60
 70
     1
102
RTVSPropertyOp61
 70
     1
102
RTVSPropertyOp62
 70
     1
  0
XRECORD
  5
EADD
102
{ACAD_REACTORS
330
EADC
102
}
330
EADC
100
AcDbXrecord
280
     1
102
RTVSPost2010Prop28
280
     0
102
RTVSPost2010PropOp28
 70
     1
102
RTVSPost2010Prop29
280
     1
102
RTVSPost2010PropOp29
 70
     1
102
RTVSPost2010Prop30
280
     1
102
RTVSPost2010PropOp30
 70
     1
102
RTVSPost2010Prop31
280
     0
102
RTVSPost2010PropOp31
 70
     1
102
RTVSPost2010Prop32
280
     0
102
RTVSPost2010PropOp32
 70
     1
102
RTVSPost2010Prop33
280
     0
102
RTVSPost2010PropOp33
 70
     1
102
RTVSPost2010Prop34
280
     0
102
RTVSPost2010PropOp34
 70
     1
102
RTVSPost2010Prop35
280
     0
102
RTVSPost2010PropOp35
 70
     1
102
RTVSPost2010Prop36
280
     0
102
RTVSPost2010PropOp36
 70
     1
102
RTVSPost2010Prop37
 90
       50
102
RTVSPost2010PropOp37
 70
     1
102
RTVSPost2010Prop38
140
0.0
102
RTVSPost2010PropOp38
 70
     1
102
RTVSPost2010Prop39
140
1.0
102
RTVSPost2010PropOp39
 70
     1
102
RTVSPost2010Prop40
 90
        0
102
RTVSPost2010PropOp40
 70
     1
102
RTVSPost2010Prop41ColorIndex
 90
       18
102
RTVSPost2010Prop41ColorRGB
 90
        0
102
RTVSPost2010PropOp41
 70
     1
102
RTVSPost2010Prop42
 90
       50
102
RTVSPost2010PropOp42
 70
     1
102
RTVSPost2010Prop43
 90
        3
102
RTVSPost2010PropOp43
 70
     1
102
RTVSPost2010Prop44ColorIndex
 90
        5
102
RTVSPost2010Prop44ColorRGB
 90
      255
102
RTVSPost2010PropOp44
 70
     1
102
RTVSPost2010Prop45
280
     0
102
RTVSPost2010PropOp45
 70
     1
102
RTVSPost2010Prop46
 90
       50
102
RTVSPost2010PropOp46
 70
     1
102
RTVSPost2010Prop47
 90
       50
102
RTVSPost2010PropOp47
 70
     1
102
RTVSPost2010Prop48
 90
       50
102
RTVSPost2010PropOp48
 70
     1
102
RTVSPost2010Prop49
280
     0
102
RTVSPost2010PropOp49
 70
     1
102
RTVSPost2010Prop50
 90
       50
102
RTVSPost2010PropOp50
 70
     1
102
RTVSPost2010Prop51ColorIndex
 90
      256
102
RTVSPost2010Prop51ColorRGB
 90
-16777216
102
RTVSPost2010PropOp51
 70
     0
102
RTVSPost2010Prop52
140
1.0
102
RTVSPost2010PropOp52
 70
     0
102
RTVSPost2010Prop53
 90
        2
102
RTVSPost2010PropOp53
 70
     1
102
RTVSPost2010Prop54
  1
strokes_ogs.tif
102
RTVSPost2010PropOp54
 70
     1
102
RTVSPost2010Prop55
280
     0
102
RTVSPost2010PropOp55
 70
     1
102
RTVSPost2010Prop56
140
1.0
102
RTVSPost2010PropOp56
 70
     1
102
RTVSPost2010Prop57
140
1.0
102
RTVSPost2010PropOp57
 70
     1
102
RTVSPropertyOp0
 70
     1
102
RTVSPropertyOp1
 70
     1
102
RTVSPropertyOp2
 70
     1
102
RTVSPropertyOp3
 70
     1
102
RTVSPropertyOp4
 70
     1
102
RTVSPropertyOp5
 70
     1
102
RTVSPropertyOp6
 70
     1
102
RTVSPropertyOp7
 70
     1
102
RTVSPropertyOp8
 70
     1
102
RTVSPropertyOp9
 70
     1
102
RTVSPropertyOp10
 70
     1
102
RTVSPropertyOp11
 70
     1
102
RTVSPropertyOp12
 70
     1
102
RTVSPropertyOp13
 70
     1
102
RTVSPropertyOp14
 70
     1
102
RTVSPropertyOp15
 70
     1
102
RTVSPropertyOp16
 70
     1
102
RTVSPropertyOp17
 70
     1
102
RTVSPropertyOp18
 70
     1
102
RTVSPropertyOp19
 70
     1
102
RTVSPropertyOp20
 70
     1
102
RTVSPropertyOp21
 70
     1
102
RTVSPropertyOp22
 70
     1
102
RTVSPropertyOp23
 70
     1
102
RTVSPropertyOp24
 70
     1
102
RTVSPropertyOp25
 70
     1
102
RTVSPropertyOp26
 70
     1
102
RTVSPropertyOp27
 70
     1
102
RTVSPropertyOp28
 70
     1
102
RTVSPropertyOp29
 70
     1
102
RTVSPropertyOp30
 70
     1
102
RTVSPropertyOp31
 70
     1
102
RTVSPropertyOp32
 70
     1
102
RTVSPropertyOp33
 70
     1
102
RTVSPropertyOp34
 70
     1
102
RTVSPropertyOp35
 70
     1
102
RTVSPropertyOp36
 70
     1
102
RTVSPropertyOp37
 70
     1
102
RTVSPropertyOp38
 70
     1
102
RTVSPropertyOp39
 70
     1
102
RTVSPropertyOp40
 70
     1
102
RTVSPropertyOp41
 70
     1
102
RTVSPropertyOp42
 70
     1
102
RTVSPropertyOp43
 70
     1
102
RTVSPropertyOp44
 70
     1
102
RTVSPropertyOp45
 70
     1
102
RTVSPropertyOp46
 70
     1
102
RTVSPropertyOp47
 70
     1
102
RTVSPropertyOp48
 70
     1
102
RTVSPropertyOp49
 70
     1
102
RTVSPropertyOp50
 70
     1
102
RTVSPropertyOp51
 70
     0
102
RTVSPropertyOp52
 70
     0
102
RTVSPropertyOp53
 70
     1
102
RTVSPropertyOp54
 70
     1
102
RTVSPropertyOp55
 70
     1
102
RTVSPropertyOp56
 70
     1
102
RTVSPropertyOp57
 70
     1
102
RTVSPropertyOp58
 70
     1
102
RTVSPropertyOp59
 70
     1
102
RTVSPropertyOp60
 70
     1
102
RTVSPropertyOp61
 70
     1
102
RTVSPropertyOp62
 70
     1
  0
XRECORD
  5
EACF
102
{ACAD_REACTORS
330
EACE
102
}
330
EACE
100
AcDbXrecord
280
     1
102
RTVSPost2010Prop28
280
     0
102
RTVSPost2010PropOp28
 70
     1
102
RTVSPost2010Prop29
280
     1
102
RTVSPost2010PropOp29
 70
     1
102
RTVSPost2010Prop30
280
     1
102
RTVSPost2010PropOp30
 70
     1
102
RTVSPost2010Prop31
280
     0
102
RTVSPost2010PropOp31
 70
     1
102
RTVSPost2010Prop32
280
     0
102
RTVSPost2010PropOp32
 70
     1
102
RTVSPost2010Prop33
280
     0
102
RTVSPost2010PropOp33
 70
     1
102
RTVSPost2010Prop34
280
     0
102
RTVSPost2010PropOp34
 70
     1
102
RTVSPost2010Prop35
280
     0
102
RTVSPost2010PropOp35
 70
     1
102
RTVSPost2010Prop36
280
     0
102
RTVSPost2010PropOp36
 70
     1
102
RTVSPost2010Prop37
 90
       50
102
RTVSPost2010PropOp37
 70
     1
102
RTVSPost2010Prop38
140
0.0
102
RTVSPost2010PropOp38
 70
     1
102
RTVSPost2010Prop39
140
1.0
102
RTVSPost2010PropOp39
 70
     1
102
RTVSPost2010Prop40
 90
        0
102
RTVSPost2010PropOp40
 70
     1
102
RTVSPost2010Prop41ColorIndex
 90
       18
102
RTVSPost2010Prop41ColorRGB
 90
        0
102
RTVSPost2010PropOp41
 70
     1
102
RTVSPost2010Prop42
 90
       50
102
RTVSPost2010PropOp42
 70
     1
102
RTVSPost2010Prop43
 90
        3
102
RTVSPost2010PropOp43
 70
     1
102
RTVSPost2010Prop44ColorIndex
 90
        5
102
RTVSPost2010Prop44ColorRGB
 90
      255
102
RTVSPost2010PropOp44
 70
     1
102
RTVSPost2010Prop45
280
     0
102
RTVSPost2010PropOp45
 70
     1
102
RTVSPost2010Prop46
 90
       50
102
RTVSPost2010PropOp46
 70
     1
102
RTVSPost2010Prop47
 90
       50
102
RTVSPost2010PropOp47
 70
     1
102
RTVSPost2010Prop48
 90
       50
102
RTVSPost2010PropOp48
 70
     1
102
RTVSPost2010Prop49
280
     0
102
RTVSPost2010PropOp49
 70
     1
102
RTVSPost2010Prop50
 90
       50
102
RTVSPost2010PropOp50
 70
     1
102
RTVSPost2010Prop51ColorIndex
 90
      256
102
RTVSPost2010Prop51ColorRGB
 90
-16777216
102
RTVSPost2010PropOp51
 70
     0
102
RTVSPost2010Prop52
140
1.0
102
RTVSPost2010PropOp52
 70
     0
102
RTVSPost2010Prop53
 90
        2
102
RTVSPost2010PropOp53
 70
     1
102
RTVSPost2010Prop54
  1
strokes_ogs.tif
102
RTVSPost2010PropOp54
 70
     1
102
RTVSPost2010Prop55
280
     0
102
RTVSPost2010PropOp55
 70
     1
102
RTVSPost2010Prop56
140
1.0
102
RTVSPost2010PropOp56
 70
     1
102
RTVSPost2010Prop57
140
1.0
102
RTVSPost2010PropOp57
 70
     1
102
RTVSPropertyOp0
 70
     1
102
RTVSPropertyOp1
 70
     1
102
RTVSPropertyOp2
 70
     1
102
RTVSPropertyOp3
 70
     1
102
RTVSPropertyOp4
 70
     1
102
RTVSPropertyOp5
 70
     1
102
RTVSPropertyOp6
 70
     1
102
RTVSPropertyOp7
 70
     1
102
RTVSPropertyOp8
 70
     1
102
RTVSPropertyOp9
 70
     1
102
RTVSPropertyOp10
 70
     1
102
RTVSPropertyOp11
 70
     1
102
RTVSPropertyOp12
 70
     1
102
RTVSPropertyOp13
 70
     1
102
RTVSPropertyOp14
 70
     1
102
RTVSPropertyOp15
 70
     1
102
RTVSPropertyOp16
 70
     1
102
RTVSPropertyOp17
 70
     1
102
RTVSPropertyOp18
 70
     1
102
RTVSPropertyOp19
 70
     1
102
RTVSPropertyOp20
 70
     1
102
RTVSPropertyOp21
 70
     1
102
RTVSPropertyOp22
 70
     1
102
RTVSPropertyOp23
 70
     1
102
RTVSPropertyOp24
 70
     1
102
RTVSPropertyOp25
 70
     1
102
RTVSPropertyOp26
 70
     1
102
RTVSPropertyOp27
 70
     1
102
RTVSPropertyOp28
 70
     1
102
RTVSPropertyOp29
 70
     1
102
RTVSPropertyOp30
 70
     1
102
RTVSPropertyOp31
 70
     1
102
RTVSPropertyOp32
 70
     1
102
RTVSPropertyOp33
 70
     1
102
RTVSPropertyOp34
 70
     1
102
RTVSPropertyOp35
 70
     1
102
RTVSPropertyOp36
 70
     1
102
RTVSPropertyOp37
 70
     1
102
RTVSPropertyOp38
 70
     1
102
RTVSPropertyOp39
 70
     1
102
RTVSPropertyOp40
 70
     1
102
RTVSPropertyOp41
 70
     1
102
RTVSPropertyOp42
 70
     1
102
RTVSPropertyOp43
 70
     1
102
RTVSPropertyOp44
 70
     1
102
RTVSPropertyOp45
 70
     1
102
RTVSPropertyOp46
 70
     1
102
RTVSPropertyOp47
 70
     1
102
RTVSPropertyOp48
 70
     1
102
RTVSPropertyOp49
 70
     1
102
RTVSPropertyOp50
 70
     1
102
RTVSPropertyOp51
 70
     0
102
RTVSPropertyOp52
 70
     0
102
RTVSPropertyOp53
 70
     1
102
RTVSPropertyOp54
 70
     1
102
RTVSPropertyOp55
 70
     1
102
RTVSPropertyOp56
 70
     1
102
RTVSPropertyOp57
 70
     1
102
RTVSPropertyOp58
 70
     1
102
RTVSPropertyOp59
 70
     1
102
RTVSPropertyOp60
 70
     1
102
RTVSPropertyOp61
 70
     1
102
RTVSPropertyOp62
 70
     1
  0
XRECORD
  5
EAD3
102
{ACAD_REACTORS
330
EAD2
102
}
330
EAD2
100
AcDbXrecord
280
     1
102
RTVSPost2010Prop28
280
     0
102
RTVSPost2010PropOp28
 70
     1
102
RTVSPost2010Prop29
280
     1
102
RTVSPost2010PropOp29
 70
     1
102
RTVSPost2010Prop30
280
     1
102
RTVSPost2010PropOp30
 70
     1
102
RTVSPost2010Prop31
280
     0
102
RTVSPost2010PropOp31
 70
     1
102
RTVSPost2010Prop32
280
     0
102
RTVSPost2010PropOp32
 70
     1
102
RTVSPost2010Prop33
280
     0
102
RTVSPost2010PropOp33
 70
     1
102
RTVSPost2010Prop34
280
     0
102
RTVSPost2010PropOp34
 70
     1
102
RTVSPost2010Prop35
280
     0
102
RTVSPost2010PropOp35
 70
     1
102
RTVSPost2010Prop36
280
     0
102
RTVSPost2010PropOp36
 70
     1
102
RTVSPost2010Prop37
 90
       50
102
RTVSPost2010PropOp37
 70
     1
102
RTVSPost2010Prop38
140
0.0
102
RTVSPost2010PropOp38
 70
     1
102
RTVSPost2010Prop39
140
1.0
102
RTVSPost2010PropOp39
 70
     1
102
RTVSPost2010Prop40
 90
        0
102
RTVSPost2010PropOp40
 70
     1
102
RTVSPost2010Prop41ColorIndex
 90
       18
102
RTVSPost2010Prop41ColorRGB
 90
        0
102
RTVSPost2010PropOp41
 70
     1
102
RTVSPost2010Prop42
 90
       50
102
RTVSPost2010PropOp42
 70
     1
102
RTVSPost2010Prop43
 90
        3
102
RTVSPost2010PropOp43
 70
     1
102
RTVSPost2010Prop44ColorIndex
 90
        5
102
RTVSPost2010Prop44ColorRGB
 90
      255
102
RTVSPost2010PropOp44
 70
     1
102
RTVSPost2010Prop45
280
     0
102
RTVSPost2010PropOp45
 70
     1
102
RTVSPost2010Prop46
 90
       50
102
RTVSPost2010PropOp46
 70
     1
102
RTVSPost2010Prop47
 90
       50
102
RTVSPost2010PropOp47
 70
     1
102
RTVSPost2010Prop48
 90
       50
102
RTVSPost2010PropOp48
 70
     1
102
RTVSPost2010Prop49
280
     0
102
RTVSPost2010PropOp49
 70
     1
102
RTVSPost2010Prop50
 90
       50
102
RTVSPost2010PropOp50
 70
     1
102
RTVSPost2010Prop51ColorIndex
 90
      256
102
RTVSPost2010Prop51ColorRGB
 90
-16777216
102
RTVSPost2010PropOp51
 70
     0
102
RTVSPost2010Prop52
140
1.0
102
RTVSPost2010PropOp52
 70
     0
102
RTVSPost2010Prop53
 90
        2
102
RTVSPost2010PropOp53
 70
     1
102
RTVSPost2010Prop54
  1
strokes_ogs.tif
102
RTVSPost2010PropOp54
 70
     1
102
RTVSPost2010Prop55
280
     0
102
RTVSPost2010PropOp55
 70
     1
102
RTVSPost2010Prop56
140
1.0
102
RTVSPost2010PropOp56
 70
     1
102
RTVSPost2010Prop57
140
1.0
102
RTVSPost2010PropOp57
 70
     1
102
RTVSPropertyOp0
 70
     1
102
RTVSPropertyOp1
 70
     1
102
RTVSPropertyOp2
 70
     1
102
RTVSPropertyOp3
 70
     1
102
RTVSPropertyOp4
 70
     1
102
RTVSPropertyOp5
 70
     1
102
RTVSPropertyOp6
 70
     1
102
RTVSPropertyOp7
 70
     1
102
RTVSPropertyOp8
 70
     1
102
RTVSPropertyOp9
 70
     1
102
RTVSPropertyOp10
 70
     1
102
RTVSPropertyOp11
 70
     1
102
RTVSPropertyOp12
 70
     1
102
RTVSPropertyOp13
 70
     1
102
RTVSPropertyOp14
 70
     1
102
RTVSPropertyOp15
 70
     1
102
RTVSPropertyOp16
 70
     1
102
RTVSPropertyOp17
 70
     1
102
RTVSPropertyOp18
 70
     1
102
RTVSPropertyOp19
 70
     1
102
RTVSPropertyOp20
 70
     1
102
RTVSPropertyOp21
 70
     1
102
RTVSPropertyOp22
 70
     1
102
RTVSPropertyOp23
 70
     1
102
RTVSPropertyOp24
 70
     1
102
RTVSPropertyOp25
 70
     1
102
RTVSPropertyOp26
 70
     1
102
RTVSPropertyOp27
 70
     1
102
RTVSPropertyOp28
 70
     1
102
RTVSPropertyOp29
 70
     1
102
RTVSPropertyOp30
 70
     1
102
RTVSPropertyOp31
 70
     1
102
RTVSPropertyOp32
 70
     1
102
RTVSPropertyOp33
 70
     1
102
RTVSPropertyOp34
 70
     1
102
RTVSPropertyOp35
 70
     1
102
RTVSPropertyOp36
 70
     1
102
RTVSPropertyOp37
 70
     1
102
RTVSPropertyOp38
 70
     1
102
RTVSPropertyOp39
 70
     1
102
RTVSPropertyOp40
 70
     1
102
RTVSPropertyOp41
 70
     1
102
RTVSPropertyOp42
 70
     1
102
RTVSPropertyOp43
 70
     1
102
RTVSPropertyOp44
 70
     1
102
RTVSPropertyOp45
 70
     1
102
RTVSPropertyOp46
 70
     1
102
RTVSPropertyOp47
 70
     1
102
RTVSPropertyOp48
 70
     1
102
RTVSPropertyOp49
 70
     1
102
RTVSPropertyOp50
 70
     1
102
RTVSPropertyOp51
 70
     0
102
RTVSPropertyOp52
 70
     0
102
RTVSPropertyOp53
 70
     1
102
RTVSPropertyOp54
 70
     1
102
RTVSPropertyOp55
 70
     1
102
RTVSPropertyOp56
 70
     1
102
RTVSPropertyOp57
 70
     1
102
RTVSPropertyOp58
 70
     1
102
RTVSPropertyOp59
 70
     1
102
RTVSPropertyOp60
 70
     1
102
RTVSPropertyOp61
 70
     1
102
RTVSPropertyOp62
 70
     1
  0
XRECORD
  5
EAE8
102
{ACAD_REACTORS
330
EAE7
102
}
330
EAE7
100
AcDbXrecord
280
     1
102
RTVSPost2010Prop28
280
     0
102
RTVSPost2010PropOp28
 70
     1
102
RTVSPost2010Prop29
280
     1
102
RTVSPost2010PropOp29
 70
     1
102
RTVSPost2010Prop30
280
     1
102
RTVSPost2010PropOp30
 70
     1
102
RTVSPost2010Prop31
280
     0
102
RTVSPost2010PropOp31
 70
     1
102
RTVSPost2010Prop32
280
     0
102
RTVSPost2010PropOp32
 70
     1
102
RTVSPost2010Prop33
280
     0
102
RTVSPost2010PropOp33
 70
     1
102
RTVSPost2010Prop34
280
     0
102
RTVSPost2010PropOp34
 70
     1
102
RTVSPost2010Prop35
280
     0
102
RTVSPost2010PropOp35
 70
     1
102
RTVSPost2010Prop36
280
     0
102
RTVSPost2010PropOp36
 70
     1
102
RTVSPost2010Prop37
 90
       50
102
RTVSPost2010PropOp37
 70
     1
102
RTVSPost2010Prop38
140
0.0
102
RTVSPost2010PropOp38
 70
     1
102
RTVSPost2010Prop39
140
1.0
102
RTVSPost2010PropOp39
 70
     1
102
RTVSPost2010Prop40
 90
        0
102
RTVSPost2010PropOp40
 70
     1
102
RTVSPost2010Prop41ColorIndex
 90
       18
102
RTVSPost2010Prop41ColorRGB
 90
        0
102
RTVSPost2010PropOp41
 70
     1
102
RTVSPost2010Prop42
 90
       50
102
RTVSPost2010PropOp42
 70
     1
102
RTVSPost2010Prop43
 90
        3
102
RTVSPost2010PropOp43
 70
     1
102
RTVSPost2010Prop44ColorIndex
 90
        5
102
RTVSPost2010Prop44ColorRGB
 90
      255
102
RTVSPost2010PropOp44
 70
     1
102
RTVSPost2010Prop45
280
     0
102
RTVSPost2010PropOp45
 70
     1
102
RTVSPost2010Prop46
 90
       50
102
RTVSPost2010PropOp46
 70
     1
102
RTVSPost2010Prop47
 90
       50
102
RTVSPost2010PropOp47
 70
     1
102
RTVSPost2010Prop48
 90
       50
102
RTVSPost2010PropOp48
 70
     1
102
RTVSPost2010Prop49
280
     0
102
RTVSPost2010PropOp49
 70
     1
102
RTVSPost2010Prop50
 90
       50
102
RTVSPost2010PropOp50
 70
     1
102
RTVSPost2010Prop51ColorIndex
 90
      256
102
RTVSPost2010Prop51ColorRGB
 90
-16777216
102
RTVSPost2010PropOp51
 70
     0
102
RTVSPost2010Prop52
140
1.0
102
RTVSPost2010PropOp52
 70
     0
102
RTVSPost2010Prop53
 90
        2
102
RTVSPost2010PropOp53
 70
     1
102
RTVSPost2010Prop54
  1
strokes_ogs.tif
102
RTVSPost2010PropOp54
 70
     1
102
RTVSPost2010Prop55
280
     0
102
RTVSPost2010PropOp55
 70
     1
102
RTVSPost2010Prop56
140
1.0
102
RTVSPost2010PropOp56
 70
     1
102
RTVSPost2010Prop57
140
1.0
102
RTVSPost2010PropOp57
 70
     1
102
RTVSPropertyOp0
 70
     0
102
RTVSPropertyOp1
 70
     0
102
RTVSPropertyOp2
 70
     0
102
RTVSPropertyOp3
 70
     0
102
RTVSPropertyOp4
 70
     0
102
RTVSPropertyOp5
 70
     0
102
RTVSPropertyOp6
 70
     0
102
RTVSPropertyOp7
 70
     0
102
RTVSPropertyOp8
 70
     0
102
RTVSPropertyOp9
 70
     0
102
RTVSPropertyOp10
 70
     0
102
RTVSPropertyOp11
 70
     0
102
RTVSPropertyOp12
 70
     0
102
RTVSPropertyOp13
 70
     0
102
RTVSPropertyOp14
 70
     2
102
RTVSPropertyOp15
 70
     0
102
RTVSPropertyOp16
 70
     0
102
RTVSPropertyOp17
 70
     0
102
RTVSPropertyOp18
 70
     0
102
RTVSPropertyOp19
 70
     0
102
RTVSPropertyOp20
 70
     0
102
RTVSPropertyOp21
 70
     0
102
RTVSPropertyOp22
 70
     0
102
RTVSPropertyOp23
 70
     0
102
RTVSPropertyOp24
 70
     0
102
RTVSPropertyOp25
 70
     0
102
RTVSPropertyOp26
 70
     0
102
RTVSPropertyOp27
 70
     0
102
RTVSPropertyOp28
 70
     1
102
RTVSPropertyOp29
 70
     1
102
RTVSPropertyOp30
 70
     1
102
RTVSPropertyOp31
 70
     1
102
RTVSPropertyOp32
 70
     1
102
RTVSPropertyOp33
 70
     1
102
RTVSPropertyOp34
 70
     1
102
RTVSPropertyOp35
 70
     1
102
RTVSPropertyOp36
 70
     1
102
RTVSPropertyOp37
 70
     1
102
RTVSPropertyOp38
 70
     1
102
RTVSPropertyOp39
 70
     1
102
RTVSPropertyOp40
 70
     1
102
RTVSPropertyOp41
 70
     1
102
RTVSPropertyOp42
 70
     1
102
RTVSPropertyOp43
 70
     1
102
RTVSPropertyOp44
 70
     1
102
RTVSPropertyOp45
 70
     1
102
RTVSPropertyOp46
 70
     1
102
RTVSPropertyOp47
 70
     1
102
RTVSPropertyOp48
 70
     1
102
RTVSPropertyOp49
 70
     1
102
RTVSPropertyOp50
 70
     1
102
RTVSPropertyOp51
 70
     0
102
RTVSPropertyOp52
 70
     0
102
RTVSPropertyOp53
 70
     1
102
RTVSPropertyOp54
 70
     1
102
RTVSPropertyOp55
 70
     1
102
RTVSPropertyOp56
 70
     1
102
RTVSPropertyOp57
 70
     1
102
RTVSPropertyOp58
 70
     1
102
RTVSPropertyOp59
 70
     1
102
RTVSPropertyOp60
 70
     1
102
RTVSPropertyOp61
 70
     1
102
RTVSPropertyOp62
 70
     1
  0
XRECORD
  5
EADB
102
{ACAD_REACTORS
330
EADA
102
}
330
EADA
100
AcDbXrecord
280
     1
102
RTVSPost2010Prop28
280
     0
102
RTVSPost2010PropOp28
 70
     1
102
RTVSPost2010Prop29
280
     1
102
RTVSPost2010PropOp29
 70
     1
102
RTVSPost2010Prop30
280
     1
102
RTVSPost2010PropOp30
 70
     1
102
RTVSPost2010Prop31
280
     0
102
RTVSPost2010PropOp31
 70
     1
102
RTVSPost2010Prop32
280
     0
102
RTVSPost2010PropOp32
 70
     1
102
RTVSPost2010Prop33
280
     0
102
RTVSPost2010PropOp33
 70
     1
102
RTVSPost2010Prop34
280
     0
102
RTVSPost2010PropOp34
 70
     1
102
RTVSPost2010Prop35
280
     0
102
RTVSPost2010PropOp35
 70
     1
102
RTVSPost2010Prop36
280
     0
102
RTVSPost2010PropOp36
 70
     1
102
RTVSPost2010Prop37
 90
       50
102
RTVSPost2010PropOp37
 70
     1
102
RTVSPost2010Prop38
140
0.0
102
RTVSPost2010PropOp38
 70
     1
102
RTVSPost2010Prop39
140
1.0
102
RTVSPost2010PropOp39
 70
     1
102
RTVSPost2010Prop40
 90
        0
102
RTVSPost2010PropOp40
 70
     1
102
RTVSPost2010Prop41ColorIndex
 90
       18
102
RTVSPost2010Prop41ColorRGB
 90
        0
102
RTVSPost2010PropOp41
 70
     1
102
RTVSPost2010Prop42
 90
       50
102
RTVSPost2010PropOp42
 70
     1
102
RTVSPost2010Prop43
 90
        3
102
RTVSPost2010PropOp43
 70
     1
102
RTVSPost2010Prop44ColorIndex
 90
        5
102
RTVSPost2010Prop44ColorRGB
 90
      255
102
RTVSPost2010PropOp44
 70
     1
102
RTVSPost2010Prop45
280
     0
102
RTVSPost2010PropOp45
 70
     1
102
RTVSPost2010Prop46
 90
       50
102
RTVSPost2010PropOp46
 70
     1
102
RTVSPost2010Prop47
 90
       50
102
RTVSPost2010PropOp47
 70
     1
102
RTVSPost2010Prop48
 90
       50
102
RTVSPost2010PropOp48
 70
     1
102
RTVSPost2010Prop49
280
     0
102
RTVSPost2010PropOp49
 70
     1
102
RTVSPost2010Prop50
 90
       50
102
RTVSPost2010PropOp50
 70
     1
102
RTVSPost2010Prop51ColorIndex
 90
      256
102
RTVSPost2010Prop51ColorRGB
 90
-16777216
102
RTVSPost2010PropOp51
 70
     0
102
RTVSPost2010Prop52
140
1.0
102
RTVSPost2010PropOp52
 70
     0
102
RTVSPost2010Prop53
 90
        2
102
RTVSPost2010PropOp53
 70
     1
102
RTVSPost2010Prop54
  1
strokes_ogs.tif
102
RTVSPost2010PropOp54
 70
     1
102
RTVSPost2010Prop55
280
     0
102
RTVSPost2010PropOp55
 70
     1
102
RTVSPost2010Prop56
140
1.0
102
RTVSPost2010PropOp56
 70
     1
102
RTVSPost2010Prop57
140
1.0
102
RTVSPost2010PropOp57
 70
     1
102
RTVSPropertyOp0
 70
     1
102
RTVSPropertyOp1
 70
     1
102
RTVSPropertyOp2
 70
     1
102
RTVSPropertyOp3
 70
     1
102
RTVSPropertyOp4
 70
     1
102
RTVSPropertyOp5
 70
     1
102
RTVSPropertyOp6
 70
     1
102
RTVSPropertyOp7
 70
     1
102
RTVSPropertyOp8
 70
     1
102
RTVSPropertyOp9
 70
     1
102
RTVSPropertyOp10
 70
     1
102
RTVSPropertyOp11
 70
     1
102
RTVSPropertyOp12
 70
     1
102
RTVSPropertyOp13
 70
     1
102
RTVSPropertyOp14
 70
     1
102
RTVSPropertyOp15
 70
     1
102
RTVSPropertyOp16
 70
     1
102
RTVSPropertyOp17
 70
     1
102
RTVSPropertyOp18
 70
     1
102
RTVSPropertyOp19
 70
     1
102
RTVSPropertyOp20
 70
     1
102
RTVSPropertyOp21
 70
     1
102
RTVSPropertyOp22
 70
     1
102
RTVSPropertyOp23
 70
     1
102
RTVSPropertyOp24
 70
     1
102
RTVSPropertyOp25
 70
     1
102
RTVSPropertyOp26
 70
     1
102
RTVSPropertyOp27
 70
     1
102
RTVSPropertyOp28
 70
     1
102
RTVSPropertyOp29
 70
     1
102
RTVSPropertyOp30
 70
     1
102
RTVSPropertyOp31
 70
     1
102
RTVSPropertyOp32
 70
     1
102
RTVSPropertyOp33
 70
     1
102
RTVSPropertyOp34
 70
     1
102
RTVSPropertyOp35
 70
     1
102
RTVSPropertyOp36
 70
     1
102
RTVSPropertyOp37
 70
     1
102
RTVSPropertyOp38
 70
     1
102
RTVSPropertyOp39
 70
     1
102
RTVSPropertyOp40
 70
     1
102
RTVSPropertyOp41
 70
     1
102
RTVSPropertyOp42
 70
     1
102
RTVSPropertyOp43
 70
     1
102
RTVSPropertyOp44
 70
     1
102
RTVSPropertyOp45
 70
     1
102
RTVSPropertyOp46
 70
     1
102
RTVSPropertyOp47
 70
     1
102
RTVSPropertyOp48
 70
     1
102
RTVSPropertyOp49
 70
     1
102
RTVSPropertyOp50
 70
     1
102
RTVSPropertyOp51
 70
     0
102
RTVSPropertyOp52
 70
     0
102
RTVSPropertyOp53
 70
     1
102
RTVSPropertyOp54
 70
     1
102
RTVSPropertyOp55
 70
     1
102
RTVSPropertyOp56
 70
     1
102
RTVSPropertyOp57
 70
     1
102
RTVSPropertyOp58
 70
     1
102
RTVSPropertyOp59
 70
     1
102
RTVSPropertyOp60
 70
     1
102
RTVSPropertyOp61
 70
     1
102
RTVSPropertyOp62
 70
     1
  0
XRECORD
  5
EABF
102
{ACAD_REACTORS
330
EABE
102
}
330
EABE
100
AcDbXrecord
280
     1
102
RTVSPost2010Prop28
280
     0
102
RTVSPost2010PropOp28
 70
     1
102
RTVSPost2010Prop29
280
     1
102
RTVSPost2010PropOp29
 70
     1
102
RTVSPost2010Prop30
280
     1
102
RTVSPost2010PropOp30
 70
     1
102
RTVSPost2010Prop31
280
     0
102
RTVSPost2010PropOp31
 70
     1
102
RTVSPost2010Prop32
280
     0
102
RTVSPost2010PropOp32
 70
     1
102
RTVSPost2010Prop33
280
     0
102
RTVSPost2010PropOp33
 70
     1
102
RTVSPost2010Prop34
280
     0
102
RTVSPost2010PropOp34
 70
     1
102
RTVSPost2010Prop35
280
     0
102
RTVSPost2010PropOp35
 70
     1
102
RTVSPost2010Prop36
280
     0
102
RTVSPost2010PropOp36
 70
     1
102
RTVSPost2010Prop37
 90
       50
102
RTVSPost2010PropOp37
 70
     1
102
RTVSPost2010Prop38
140
0.0
102
RTVSPost2010PropOp38
 70
     1
102
RTVSPost2010Prop39
140
1.0
102
RTVSPost2010PropOp39
 70
     1
102
RTVSPost2010Prop40
 90
        0
102
RTVSPost2010PropOp40
 70
     1
102
RTVSPost2010Prop41ColorIndex
 90
       18
102
RTVSPost2010Prop41ColorRGB
 90
        0
102
RTVSPost2010PropOp41
 70
     1
102
RTVSPost2010Prop42
 90
       50
102
RTVSPost2010PropOp42
 70
     1
102
RTVSPost2010Prop43
 90
        3
102
RTVSPost2010PropOp43
 70
     1
102
RTVSPost2010Prop44ColorIndex
 90
        5
102
RTVSPost2010Prop44ColorRGB
 90
      255
102
RTVSPost2010PropOp44
 70
     1
102
RTVSPost2010Prop45
280
     0
102
RTVSPost2010PropOp45
 70
     1
102
RTVSPost2010Prop46
 90
       50
102
RTVSPost2010PropOp46
 70
     1
102
RTVSPost2010Prop47
 90
       50
102
RTVSPost2010PropOp47
 70
     1
102
RTVSPost2010Prop48
 90
       50
102
RTVSPost2010PropOp48
 70
     1
102
RTVSPost2010Prop49
280
     0
102
RTVSPost2010PropOp49
 70
     1
102
RTVSPost2010Prop50
 90
       50
102
RTVSPost2010PropOp50
 70
     1
102
RTVSPost2010Prop51ColorIndex
 90
      256
102
RTVSPost2010Prop51ColorRGB
 90
-16777216
102
RTVSPost2010PropOp51
 70
     0
102
RTVSPost2010Prop52
140
1.0
102
RTVSPost2010PropOp52
 70
     0
102
RTVSPost2010Prop53
 90
        2
102
RTVSPost2010PropOp53
 70
     1
102
RTVSPost2010Prop54
  1
strokes_ogs.tif
102
RTVSPost2010PropOp54
 70
     1
102
RTVSPost2010Prop55
280
     0
102
RTVSPost2010PropOp55
 70
     1
102
RTVSPost2010Prop56
140
1.0
102
RTVSPost2010PropOp56
 70
     1
102
RTVSPost2010Prop57
140
1.0
102
RTVSPost2010PropOp57
 70
     1
102
RTVSPropertyOp0
 70
     1
102
RTVSPropertyOp1
 70
     1
102
RTVSPropertyOp2
 70
     1
102
RTVSPropertyOp3
 70
     1
102
RTVSPropertyOp4
 70
     1
102
RTVSPropertyOp5
 70
     1
102
RTVSPropertyOp6
 70
     1
102
RTVSPropertyOp7
 70
     1
102
RTVSPropertyOp8
 70
     1
102
RTVSPropertyOp9
 70
     1
102
RTVSPropertyOp10
 70
     1
102
RTVSPropertyOp11
 70
     1
102
RTVSPropertyOp12
 70
     1
102
RTVSPropertyOp13
 70
     1
102
RTVSPropertyOp14
 70
     1
102
RTVSPropertyOp15
 70
     1
102
RTVSPropertyOp16
 70
     1
102
RTVSPropertyOp17
 70
     1
102
RTVSPropertyOp18
 70
     1
102
RTVSPropertyOp19
 70
     1
102
RTVSPropertyOp20
 70
     1
102
RTVSPropertyOp21
 70
     1
102
RTVSPropertyOp22
 70
     1
102
RTVSPropertyOp23
 70
     1
102
RTVSPropertyOp24
 70
     1
102
RTVSPropertyOp25
 70
     1
102
RTVSPropertyOp26
 70
     1
102
RTVSPropertyOp27
 70
     1
102
RTVSPropertyOp28
 70
     1
102
RTVSPropertyOp29
 70
     1
102
RTVSPropertyOp30
 70
     1
102
RTVSPropertyOp31
 70
     1
102
RTVSPropertyOp32
 70
     1
102
RTVSPropertyOp33
 70
     1
102
RTVSPropertyOp34
 70
     1
102
RTVSPropertyOp35
 70
     1
102
RTVSPropertyOp36
 70
     1
102
RTVSPropertyOp37
 70
     1
102
RTVSPropertyOp38
 70
     1
102
RTVSPropertyOp39
 70
     1
102
RTVSPropertyOp40
 70
     1
102
RTVSPropertyOp41
 70
     1
102
RTVSPropertyOp42
 70
     1
102
RTVSPropertyOp43
 70
     1
102
RTVSPropertyOp44
 70
     1
102
RTVSPropertyOp45
 70
     1
102
RTVSPropertyOp46
 70
     1
102
RTVSPropertyOp47
 70
     1
102
RTVSPropertyOp48
 70
     1
102
RTVSPropertyOp49
 70
     1
102
RTVSPropertyOp50
 70
     1
102
RTVSPropertyOp51
 70
     0
102
RTVSPropertyOp52
 70
     0
102
RTVSPropertyOp53
 70
     1
102
RTVSPropertyOp54
 70
     1
102
RTVSPropertyOp55
 70
     1
102
RTVSPropertyOp56
 70
     1
102
RTVSPropertyOp57
 70
     1
102
RTVSPropertyOp58
 70
     1
102
RTVSPropertyOp59
 70
     1
102
RTVSPropertyOp60
 70
     1
102
RTVSPropertyOp61
 70
     1
102
RTVSPropertyOp62
 70
     1
  0
XRECORD
  5
EAC1
102
{ACAD_REACTORS
330
EAC0
102
}
330
EAC0
100
AcDbXrecord
280
     1
102
RTVSPost2010Prop28
280
     0
102
RTVSPost2010PropOp28
 70
     1
102
RTVSPost2010Prop29
280
     1
102
RTVSPost2010PropOp29
 70
     1
102
RTVSPost2010Prop30
280
     1
102
RTVSPost2010PropOp30
 70
     1
102
RTVSPost2010Prop31
280
     0
102
RTVSPost2010PropOp31
 70
     1
102
RTVSPost2010Prop32
280
     0
102
RTVSPost2010PropOp32
 70
     1
102
RTVSPost2010Prop33
280
     0
102
RTVSPost2010PropOp33
 70
     1
102
RTVSPost2010Prop34
280
     0
102
RTVSPost2010PropOp34
 70
     1
102
RTVSPost2010Prop35
280
     0
102
RTVSPost2010PropOp35
 70
     1
102
RTVSPost2010Prop36
280
     0
102
RTVSPost2010PropOp36
 70
     1
102
RTVSPost2010Prop37
 90
       50
102
RTVSPost2010PropOp37
 70
     1
102
RTVSPost2010Prop38
140
0.0
102
RTVSPost2010PropOp38
 70
     1
102
RTVSPost2010Prop39
140
1.0
102
RTVSPost2010PropOp39
 70
     1
102
RTVSPost2010Prop40
 90
        0
102
RTVSPost2010PropOp40
 70
     1
102
RTVSPost2010Prop41ColorIndex
 90
       18
102
RTVSPost2010Prop41ColorRGB
 90
        0
102
RTVSPost2010PropOp41
 70
     1
102
RTVSPost2010Prop42
 90
       50
102
RTVSPost2010PropOp42
 70
     1
102
RTVSPost2010Prop43
 90
        3
102
RTVSPost2010PropOp43
 70
     1
102
RTVSPost2010Prop44ColorIndex
 90
        5
102
RTVSPost2010Prop44ColorRGB
 90
      255
102
RTVSPost2010PropOp44
 70
     1
102
RTVSPost2010Prop45
280
     0
102
RTVSPost2010PropOp45
 70
     1
102
RTVSPost2010Prop46
 90
       50
102
RTVSPost2010PropOp46
 70
     1
102
RTVSPost2010Prop47
 90
       50
102
RTVSPost2010PropOp47
 70
     1
102
RTVSPost2010Prop48
 90
       50
102
RTVSPost2010PropOp48
 70
     1
102
RTVSPost2010Prop49
280
     0
102
RTVSPost2010PropOp49
 70
     1
102
RTVSPost2010Prop50
 90
       50
102
RTVSPost2010PropOp50
 70
     1
102
RTVSPost2010Prop51ColorIndex
 90
      256
102
RTVSPost2010Prop51ColorRGB
 90
-16777216
102
RTVSPost2010PropOp51
 70
     0
102
RTVSPost2010Prop52
140
1.0
102
RTVSPost2010PropOp52
 70
     0
102
RTVSPost2010Prop53
 90
        2
102
RTVSPost2010PropOp53
 70
     1
102
RTVSPost2010Prop54
  1
strokes_ogs.tif
102
RTVSPost2010PropOp54
 70
     1
102
RTVSPost2010Prop55
280
     0
102
RTVSPost2010PropOp55
 70
     1
102
RTVSPost2010Prop56
140
1.0
102
RTVSPost2010PropOp56
 70
     1
102
RTVSPost2010Prop57
140
1.0
102
RTVSPost2010PropOp57
 70
     1
102
RTVSPropertyOp0
 70
     1
102
RTVSPropertyOp1
 70
     1
102
RTVSPropertyOp2
 70
     1
102
RTVSPropertyOp3
 70
     1
102
RTVSPropertyOp4
 70
     1
102
RTVSPropertyOp5
 70
     1
102
RTVSPropertyOp6
 70
     1
102
RTVSPropertyOp7
 70
     1
102
RTVSPropertyOp8
 70
     1
102
RTVSPropertyOp9
 70
     1
102
RTVSPropertyOp10
 70
     1
102
RTVSPropertyOp11
 70
     1
102
RTVSPropertyOp12
 70
     1
102
RTVSPropertyOp13
 70
     1
102
RTVSPropertyOp14
 70
     1
102
RTVSPropertyOp15
 70
     1
102
RTVSPropertyOp16
 70
     1
102
RTVSPropertyOp17
 70
     1
102
RTVSPropertyOp18
 70
     1
102
RTVSPropertyOp19
 70
     1
102
RTVSPropertyOp20
 70
     1
102
RTVSPropertyOp21
 70
     1
102
RTVSPropertyOp22
 70
     1
102
RTVSPropertyOp23
 70
     1
102
RTVSPropertyOp24
 70
     1
102
RTVSPropertyOp25
 70
     1
102
RTVSPropertyOp26
 70
     1
102
RTVSPropertyOp27
 70
     1
102
RTVSPropertyOp28
 70
     1
102
RTVSPropertyOp29
 70
     1
102
RTVSPropertyOp30
 70
     1
102
RTVSPropertyOp31
 70
     1
102
RTVSPropertyOp32
 70
     1
102
RTVSPropertyOp33
 70
     1
102
RTVSPropertyOp34
 70
     1
102
RTVSPropertyOp35
 70
     1
102
RTVSPropertyOp36
 70
     1
102
RTVSPropertyOp37
 70
     1
102
RTVSPropertyOp38
 70
     1
102
RTVSPropertyOp39
 70
     1
102
RTVSPropertyOp40
 70
     1
102
RTVSPropertyOp41
 70
     1
102
RTVSPropertyOp42
 70
     1
102
RTVSPropertyOp43
 70
     1
102
RTVSPropertyOp44
 70
     1
102
RTVSPropertyOp45
 70
     1
102
RTVSPropertyOp46
 70
     1
102
RTVSPropertyOp47
 70
     1
102
RTVSPropertyOp48
 70
     1
102
RTVSPropertyOp49
 70
     1
102
RTVSPropertyOp50
 70
     1
102
RTVSPropertyOp51
 70
     0
102
RTVSPropertyOp52
 70
     0
102
RTVSPropertyOp53
 70
     1
102
RTVSPropertyOp54
 70
     1
102
RTVSPropertyOp55
 70
     1
102
RTVSPropertyOp56
 70
     1
102
RTVSPropertyOp57
 70
     1
102
RTVSPropertyOp58
 70
     1
102
RTVSPropertyOp59
 70
     1
102
RTVSPropertyOp60
 70
     1
102
RTVSPropertyOp61
 70
     1
102
RTVSPropertyOp62
 70
     1
  0
XRECORD
  5
EAC3
102
{ACAD_REACTORS
330
EAC2
102
}
330
EAC2
100
AcDbXrecord
280
     1
102
RTVSPost2010Prop28
280
     0
102
RTVSPost2010PropOp28
 70
     1
102
RTVSPost2010Prop29
280
     1
102
RTVSPost2010PropOp29
 70
     1
102
RTVSPost2010Prop30
280
     1
102
RTVSPost2010PropOp30
 70
     1
102
RTVSPost2010Prop31
280
     0
102
RTVSPost2010PropOp31
 70
     1
102
RTVSPost2010Prop32
280
     0
102
RTVSPost2010PropOp32
 70
     1
102
RTVSPost2010Prop33
280
     0
102
RTVSPost2010PropOp33
 70
     1
102
RTVSPost2010Prop34
280
     0
102
RTVSPost2010PropOp34
 70
     1
102
RTVSPost2010Prop35
280
     0
102
RTVSPost2010PropOp35
 70
     1
102
RTVSPost2010Prop36
280
     0
102
RTVSPost2010PropOp36
 70
     1
102
RTVSPost2010Prop37
 90
       50
102
RTVSPost2010PropOp37
 70
     1
102
RTVSPost2010Prop38
140
0.0
102
RTVSPost2010PropOp38
 70
     1
102
RTVSPost2010Prop39
140
1.0
102
RTVSPost2010PropOp39
 70
     1
102
RTVSPost2010Prop40
 90
        0
102
RTVSPost2010PropOp40
 70
     1
102
RTVSPost2010Prop41ColorIndex
 90
       18
102
RTVSPost2010Prop41ColorRGB
 90
        0
102
RTVSPost2010PropOp41
 70
     1
102
RTVSPost2010Prop42
 90
       50
102
RTVSPost2010PropOp42
 70
     1
102
RTVSPost2010Prop43
 90
        3
102
RTVSPost2010PropOp43
 70
     1
102
RTVSPost2010Prop44ColorIndex
 90
        5
102
RTVSPost2010Prop44ColorRGB
 90
      255
102
RTVSPost2010PropOp44
 70
     1
102
RTVSPost2010Prop45
280
     0
102
RTVSPost2010PropOp45
 70
     1
102
RTVSPost2010Prop46
 90
       50
102
RTVSPost2010PropOp46
 70
     1
102
RTVSPost2010Prop47
 90
       50
102
RTVSPost2010PropOp47
 70
     1
102
RTVSPost2010Prop48
 90
       50
102
RTVSPost2010PropOp48
 70
     1
102
RTVSPost2010Prop49
280
     0
102
RTVSPost2010PropOp49
 70
     1
102
RTVSPost2010Prop50
 90
       50
102
RTVSPost2010PropOp50
 70
     1
102
RTVSPost2010Prop51ColorIndex
 90
      256
102
RTVSPost2010Prop51ColorRGB
 90
-16777216
102
RTVSPost2010PropOp51
 70
     0
102
RTVSPost2010Prop52
140
1.0
102
RTVSPost2010PropOp52
 70
     0
102
RTVSPost2010Prop53
 90
        2
102
RTVSPost2010PropOp53
 70
     1
102
RTVSPost2010Prop54
  1
strokes_ogs.tif
102
RTVSPost2010PropOp54
 70
     1
102
RTVSPost2010Prop55
280
     0
102
RTVSPost2010PropOp55
 70
     1
102
RTVSPost2010Prop56
140
1.0
102
RTVSPost2010PropOp56
 70
     1
102
RTVSPost2010Prop57
140
1.0
102
RTVSPost2010PropOp57
 70
     1
102
RTVSPropertyOp0
 70
     1
102
RTVSPropertyOp1
 70
     1
102
RTVSPropertyOp2
 70
     1
102
RTVSPropertyOp3
 70
     1
102
RTVSPropertyOp4
 70
     1
102
RTVSPropertyOp5
 70
     1
102
RTVSPropertyOp6
 70
     1
102
RTVSPropertyOp7
 70
     1
102
RTVSPropertyOp8
 70
     1
102
RTVSPropertyOp9
 70
     1
102
RTVSPropertyOp10
 70
     1
102
RTVSPropertyOp11
 70
     1
102
RTVSPropertyOp12
 70
     1
102
RTVSPropertyOp13
 70
     1
102
RTVSPropertyOp14
 70
     1
102
RTVSPropertyOp15
 70
     1
102
RTVSPropertyOp16
 70
     1
102
RTVSPropertyOp17
 70
     1
102
RTVSPropertyOp18
 70
     1
102
RTVSPropertyOp19
 70
     1
102
RTVSPropertyOp20
 70
     1
102
RTVSPropertyOp21
 70
     1
102
RTVSPropertyOp22
 70
     1
102
RTVSPropertyOp23
 70
     1
102
RTVSPropertyOp24
 70
     1
102
RTVSPropertyOp25
 70
     1
102
RTVSPropertyOp26
 70
     1
102
RTVSPropertyOp27
 70
     1
102
RTVSPropertyOp28
 70
     1
102
RTVSPropertyOp29
 70
     1
102
RTVSPropertyOp30
 70
     1
102
RTVSPropertyOp31
 70
     1
102
RTVSPropertyOp32
 70
     1
102
RTVSPropertyOp33
 70
     1
102
RTVSPropertyOp34
 70
     1
102
RTVSPropertyOp35
 70
     1
102
RTVSPropertyOp36
 70
     1
102
RTVSPropertyOp37
 70
     1
102
RTVSPropertyOp38
 70
     1
102
RTVSPropertyOp39
 70
     1
102
RTVSPropertyOp40
 70
     1
102
RTVSPropertyOp41
 70
     1
102
RTVSPropertyOp42
 70
     1
102
RTVSPropertyOp43
 70
     1
102
RTVSPropertyOp44
 70
     1
102
RTVSPropertyOp45
 70
     1
102
RTVSPropertyOp46
 70
     1
102
RTVSPropertyOp47
 70
     1
102
RTVSPropertyOp48
 70
     1
102
RTVSPropertyOp49
 70
     1
102
RTVSPropertyOp50
 70
     1
102
RTVSPropertyOp51
 70
     0
102
RTVSPropertyOp52
 70
     0
102
RTVSPropertyOp53
 70
     1
102
RTVSPropertyOp54
 70
     1
102
RTVSPropertyOp55
 70
     1
102
RTVSPropertyOp56
 70
     1
102
RTVSPropertyOp57
 70
     1
102
RTVSPropertyOp58
 70
     1
102
RTVSPropertyOp59
 70
     1
102
RTVSPropertyOp60
 70
     1
102
RTVSPropertyOp61
 70
     1
102
RTVSPropertyOp62
 70
     1
  0
XRECORD
  5
EAC5
102
{ACAD_REACTORS
330
EAC4
102
}
330
EAC4
100
AcDbXrecord
280
     1
102
RTVSPost2010Prop28
280
     0
102
RTVSPost2010PropOp28
 70
     1
102
RTVSPost2010Prop29
280
     1
102
RTVSPost2010PropOp29
 70
     1
102
RTVSPost2010Prop30
280
     1
102
RTVSPost2010PropOp30
 70
     1
102
RTVSPost2010Prop31
280
     0
102
RTVSPost2010PropOp31
 70
     1
102
RTVSPost2010Prop32
280
     0
102
RTVSPost2010PropOp32
 70
     1
102
RTVSPost2010Prop33
280
     0
102
RTVSPost2010PropOp33
 70
     1
102
RTVSPost2010Prop34
280
     0
102
RTVSPost2010PropOp34
 70
     1
102
RTVSPost2010Prop35
280
     0
102
RTVSPost2010PropOp35
 70
     1
102
RTVSPost2010Prop36
280
     0
102
RTVSPost2010PropOp36
 70
     1
102
RTVSPost2010Prop37
 90
       50
102
RTVSPost2010PropOp37
 70
     1
102
RTVSPost2010Prop38
140
0.0
102
RTVSPost2010PropOp38
 70
     1
102
RTVSPost2010Prop39
140
1.0
102
RTVSPost2010PropOp39
 70
     1
102
RTVSPost2010Prop40
 90
        0
102
RTVSPost2010PropOp40
 70
     1
102
RTVSPost2010Prop41ColorIndex
 90
       18
102
RTVSPost2010Prop41ColorRGB
 90
        0
102
RTVSPost2010PropOp41
 70
     1
102
RTVSPost2010Prop42
 90
       50
102
RTVSPost2010PropOp42
 70
     1
102
RTVSPost2010Prop43
 90
        3
102
RTVSPost2010PropOp43
 70
     1
102
RTVSPost2010Prop44ColorIndex
 90
        5
102
RTVSPost2010Prop44ColorRGB
 90
      255
102
RTVSPost2010PropOp44
 70
     1
102
RTVSPost2010Prop45
280
     0
102
RTVSPost2010PropOp45
 70
     1
102
RTVSPost2010Prop46
 90
       50
102
RTVSPost2010PropOp46
 70
     1
102
RTVSPost2010Prop47
 90
       50
102
RTVSPost2010PropOp47
 70
     1
102
RTVSPost2010Prop48
 90
       50
102
RTVSPost2010PropOp48
 70
     1
102
RTVSPost2010Prop49
280
     0
102
RTVSPost2010PropOp49
 70
     1
102
RTVSPost2010Prop50
 90
       50
102
RTVSPost2010PropOp50
 70
     1
102
RTVSPost2010Prop51ColorIndex
 90
      256
102
RTVSPost2010Prop51ColorRGB
 90
-16777216
102
RTVSPost2010PropOp51
 70
     0
102
RTVSPost2010Prop52
140
1.0
102
RTVSPost2010PropOp52
 70
     0
102
RTVSPost2010Prop53
 90
        2
102
RTVSPost2010PropOp53
 70
     1
102
RTVSPost2010Prop54
  1
strokes_ogs.tif
102
RTVSPost2010PropOp54
 70
     1
102
RTVSPost2010Prop55
280
     0
102
RTVSPost2010PropOp55
 70
     1
102
RTVSPost2010Prop56
140
1.0
102
RTVSPost2010PropOp56
 70
     1
102
RTVSPost2010Prop57
140
1.0
102
RTVSPost2010PropOp57
 70
     1
102
RTVSPropertyOp0
 70
     1
102
RTVSPropertyOp1
 70
     1
102
RTVSPropertyOp2
 70
     1
102
RTVSPropertyOp3
 70
     1
102
RTVSPropertyOp4
 70
     1
102
RTVSPropertyOp5
 70
     1
102
RTVSPropertyOp6
 70
     1
102
RTVSPropertyOp7
 70
     1
102
RTVSPropertyOp8
 70
     1
102
RTVSPropertyOp9
 70
     1
102
RTVSPropertyOp10
 70
     1
102
RTVSPropertyOp11
 70
     1
102
RTVSPropertyOp12
 70
     1
102
RTVSPropertyOp13
 70
     1
102
RTVSPropertyOp14
 70
     1
102
RTVSPropertyOp15
 70
     1
102
RTVSPropertyOp16
 70
     1
102
RTVSPropertyOp17
 70
     1
102
RTVSPropertyOp18
 70
     1
102
RTVSPropertyOp19
 70
     1
102
RTVSPropertyOp20
 70
     1
102
RTVSPropertyOp21
 70
     1
102
RTVSPropertyOp22
 70
     1
102
RTVSPropertyOp23
 70
     1
102
RTVSPropertyOp24
 70
     1
102
RTVSPropertyOp25
 70
     1
102
RTVSPropertyOp26
 70
     1
102
RTVSPropertyOp27
 70
     1
102
RTVSPropertyOp28
 70
     1
102
RTVSPropertyOp29
 70
     1
102
RTVSPropertyOp30
 70
     1
102
RTVSPropertyOp31
 70
     1
102
RTVSPropertyOp32
 70
     1
102
RTVSPropertyOp33
 70
     1
102
RTVSPropertyOp34
 70
     1
102
RTVSPropertyOp35
 70
     1
102
RTVSPropertyOp36
 70
     1
102
RTVSPropertyOp37
 70
     1
102
RTVSPropertyOp38
 70
     1
102
RTVSPropertyOp39
 70
     1
102
RTVSPropertyOp40
 70
     1
102
RTVSPropertyOp41
 70
     1
102
RTVSPropertyOp42
 70
     1
102
RTVSPropertyOp43
 70
     1
102
RTVSPropertyOp44
 70
     1
102
RTVSPropertyOp45
 70
     1
102
RTVSPropertyOp46
 70
     1
102
RTVSPropertyOp47
 70
     1
102
RTVSPropertyOp48
 70
     1
102
RTVSPropertyOp49
 70
     1
102
RTVSPropertyOp50
 70
     1
102
RTVSPropertyOp51
 70
     0
102
RTVSPropertyOp52
 70
     0
102
RTVSPropertyOp53
 70
     1
102
RTVSPropertyOp54
 70
     1
102
RTVSPropertyOp55
 70
     1
102
RTVSPropertyOp56
 70
     1
102
RTVSPropertyOp57
 70
     1
102
RTVSPropertyOp58
 70
     1
102
RTVSPropertyOp59
 70
     1
102
RTVSPropertyOp60
 70
     1
102
RTVSPropertyOp61
 70
     1
102
RTVSPropertyOp62
 70
     1
  0
XRECORD
  5
EAF0
102
{ACAD_REACTORS
330
EAEF
102
}
330
EAEF
100
AcDbXrecord
280
     1
102
RTVSPost2010Prop28
280
     0
102
RTVSPost2010PropOp28
 70
     1
102
RTVSPost2010Prop29
280
     1
102
RTVSPost2010PropOp29
 70
     1
102
RTVSPost2010Prop30
280
     1
102
RTVSPost2010PropOp30
 70
     1
102
RTVSPost2010Prop31
280
     0
102
RTVSPost2010PropOp31
 70
     1
102
RTVSPost2010Prop32
280
     0
102
RTVSPost2010PropOp32
 70
     1
102
RTVSPost2010Prop33
280
     0
102
RTVSPost2010PropOp33
 70
     1
102
RTVSPost2010Prop34
280
     0
102
RTVSPost2010PropOp34
 70
     1
102
RTVSPost2010Prop35
280
     0
102
RTVSPost2010PropOp35
 70
     1
102
RTVSPost2010Prop36
280
     0
102
RTVSPost2010PropOp36
 70
     1
102
RTVSPost2010Prop37
 90
       50
102
RTVSPost2010PropOp37
 70
     1
102
RTVSPost2010Prop38
140
0.0
102
RTVSPost2010PropOp38
 70
     1
102
RTVSPost2010Prop39
140
1.0
102
RTVSPost2010PropOp39
 70
     1
102
RTVSPost2010Prop40
 90
        0
102
RTVSPost2010PropOp40
 70
     1
102
RTVSPost2010Prop41ColorIndex
 90
       18
102
RTVSPost2010Prop41ColorRGB
 90
        0
102
RTVSPost2010PropOp41
 70
     1
102
RTVSPost2010Prop42
 90
       50
102
RTVSPost2010PropOp42
 70
     1
102
RTVSPost2010Prop43
 90
        3
102
RTVSPost2010PropOp43
 70
     1
102
RTVSPost2010Prop44ColorIndex
 90
        5
102
RTVSPost2010Prop44ColorRGB
 90
      255
102
RTVSPost2010PropOp44
 70
     1
102
RTVSPost2010Prop45
280
     0
102
RTVSPost2010PropOp45
 70
     1
102
RTVSPost2010Prop46
 90
       50
102
RTVSPost2010PropOp46
 70
     1
102
RTVSPost2010Prop47
 90
       50
102
RTVSPost2010PropOp47
 70
     1
102
RTVSPost2010Prop48
 90
       50
102
RTVSPost2010PropOp48
 70
     1
102
RTVSPost2010Prop49
280
     0
102
RTVSPost2010PropOp49
 70
     1
102
RTVSPost2010Prop50
 90
       50
102
RTVSPost2010PropOp50
 70
     1
102
RTVSPost2010Prop51ColorIndex
 90
      256
102
RTVSPost2010Prop51ColorRGB
 90
-16777216
102
RTVSPost2010PropOp51
 70
     0
102
RTVSPost2010Prop52
140
1.0
102
RTVSPost2010PropOp52
 70
     0
102
RTVSPost2010Prop53
 90
        2
102
RTVSPost2010PropOp53
 70
     1
102
RTVSPost2010Prop54
  1
strokes_ogs.tif
102
RTVSPost2010PropOp54
 70
     1
102
RTVSPost2010Prop55
280
     0
102
RTVSPost2010PropOp55
 70
     1
102
RTVSPost2010Prop56
140
1.0
102
RTVSPost2010PropOp56
 70
     1
102
RTVSPost2010Prop57
140
1.0
102
RTVSPost2010PropOp57
 70
     1
102
RTVSPropertyOp0
 70
     1
102
RTVSPropertyOp1
 70
     1
102
RTVSPropertyOp2
 70
     1
102
RTVSPropertyOp3
 70
     1
102
RTVSPropertyOp4
 70
     1
102
RTVSPropertyOp5
 70
     1
102
RTVSPropertyOp6
 70
     1
102
RTVSPropertyOp7
 70
     1
102
RTVSPropertyOp8
 70
     1
102
RTVSPropertyOp9
 70
     1
102
RTVSPropertyOp10
 70
     1
102
RTVSPropertyOp11
 70
     1
102
RTVSPropertyOp12
 70
     1
102
RTVSPropertyOp13
 70
     1
102
RTVSPropertyOp14
 70
     1
102
RTVSPropertyOp15
 70
     1
102
RTVSPropertyOp16
 70
     1
102
RTVSPropertyOp17
 70
     1
102
RTVSPropertyOp18
 70
     1
102
RTVSPropertyOp19
 70
     1
102
RTVSPropertyOp20
 70
     1
102
RTVSPropertyOp21
 70
     1
102
RTVSPropertyOp22
 70
     1
102
RTVSPropertyOp23
 70
     1
102
RTVSPropertyOp24
 70
     1
102
RTVSPropertyOp25
 70
     1
102
RTVSPropertyOp26
 70
     1
102
RTVSPropertyOp27
 70
     1
102
RTVSPropertyOp28
 70
     1
102
RTVSPropertyOp29
 70
     1
102
RTVSPropertyOp30
 70
     1
102
RTVSPropertyOp31
 70
     1
102
RTVSPropertyOp32
 70
     1
102
RTVSPropertyOp33
 70
     1
102
RTVSPropertyOp34
 70
     1
102
RTVSPropertyOp35
 70
     1
102
RTVSPropertyOp36
 70
     1
102
RTVSPropertyOp37
 70
     1
102
RTVSPropertyOp38
 70
     1
102
RTVSPropertyOp39
 70
     1
102
RTVSPropertyOp40
 70
     1
102
RTVSPropertyOp41
 70
     1
102
RTVSPropertyOp42
 70
     1
102
RTVSPropertyOp43
 70
     1
102
RTVSPropertyOp44
 70
     1
102
RTVSPropertyOp45
 70
     1
102
RTVSPropertyOp46
 70
     1
102
RTVSPropertyOp47
 70
     1
102
RTVSPropertyOp48
 70
     1
102
RTVSPropertyOp49
 70
     1
102
RTVSPropertyOp50
 70
     1
102
RTVSPropertyOp51
 70
     0
102
RTVSPropertyOp52
 70
     0
102
RTVSPropertyOp53
 70
     1
102
RTVSPropertyOp54
 70
     1
102
RTVSPropertyOp55
 70
     1
102
RTVSPropertyOp56
 70
     1
102
RTVSPropertyOp57
 70
     1
102
RTVSPropertyOp58
 70
     1
102
RTVSPropertyOp59
 70
     1
102
RTVSPropertyOp60
 70
     1
102
RTVSPropertyOp61
 70
     1
102
RTVSPropertyOp62
 70
     1
  0
XRECORD
  5
EAE4
102
{ACAD_REACTORS
330
EAE3
102
}
330
EAE3
100
AcDbXrecord
280
     1
102
RTVSPost2010Prop28
280
     0
102
RTVSPost2010PropOp28
 70
     1
102
RTVSPost2010Prop29
280
     1
102
RTVSPost2010PropOp29
 70
     1
102
RTVSPost2010Prop30
280
     1
102
RTVSPost2010PropOp30
 70
     1
102
RTVSPost2010Prop31
280
     0
102
RTVSPost2010PropOp31
 70
     1
102
RTVSPost2010Prop32
280
     0
102
RTVSPost2010PropOp32
 70
     1
102
RTVSPost2010Prop33
280
     0
102
RTVSPost2010PropOp33
 70
     1
102
RTVSPost2010Prop34
280
     0
102
RTVSPost2010PropOp34
 70
     1
102
RTVSPost2010Prop35
280
     0
102
RTVSPost2010PropOp35
 70
     1
102
RTVSPost2010Prop36
280
     0
102
RTVSPost2010PropOp36
 70
     1
102
RTVSPost2010Prop37
 90
       50
102
RTVSPost2010PropOp37
 70
     1
102
RTVSPost2010Prop38
140
0.0
102
RTVSPost2010PropOp38
 70
     1
102
RTVSPost2010Prop39
140
1.0
102
RTVSPost2010PropOp39
 70
     1
102
RTVSPost2010Prop40
 90
        0
102
RTVSPost2010PropOp40
 70
     1
102
RTVSPost2010Prop41ColorIndex
 90
       18
102
RTVSPost2010Prop41ColorRGB
 90
        0
102
RTVSPost2010PropOp41
 70
     1
102
RTVSPost2010Prop42
 90
       50
102
RTVSPost2010PropOp42
 70
     1
102
RTVSPost2010Prop43
 90
        3
102
RTVSPost2010PropOp43
 70
     1
102
RTVSPost2010Prop44ColorIndex
 90
        5
102
RTVSPost2010Prop44ColorRGB
 90
      255
102
RTVSPost2010PropOp44
 70
     1
102
RTVSPost2010Prop45
280
     0
102
RTVSPost2010PropOp45
 70
     1
102
RTVSPost2010Prop46
 90
       50
102
RTVSPost2010PropOp46
 70
     1
102
RTVSPost2010Prop47
 90
       50
102
RTVSPost2010PropOp47
 70
     1
102
RTVSPost2010Prop48
 90
       50
102
RTVSPost2010PropOp48
 70
     1
102
RTVSPost2010Prop49
280
     0
102
RTVSPost2010PropOp49
 70
     1
102
RTVSPost2010Prop50
 90
       50
102
RTVSPost2010PropOp50
 70
     1
102
RTVSPost2010Prop51ColorIndex
 90
      256
102
RTVSPost2010Prop51ColorRGB
 90
-16777216
102
RTVSPost2010PropOp51
 70
     0
102
RTVSPost2010Prop52
140
1.0
102
RTVSPost2010PropOp52
 70
     0
102
RTVSPost2010Prop53
 90
        2
102
RTVSPost2010PropOp53
 70
     1
102
RTVSPost2010Prop54
  1
strokes_ogs.tif
102
RTVSPost2010PropOp54
 70
     1
102
RTVSPost2010Prop55
280
     0
102
RTVSPost2010PropOp55
 70
     1
102
RTVSPost2010Prop56
140
1.0
102
RTVSPost2010PropOp56
 70
     1
102
RTVSPost2010Prop57
140
1.0
102
RTVSPost2010PropOp57
 70
     1
102
RTVSPropertyOp0
 70
     0
102
RTVSPropertyOp1
 70
     0
102
RTVSPropertyOp2
 70
     0
102
RTVSPropertyOp3
 70
     0
102
RTVSPropertyOp4
 70
     0
102
RTVSPropertyOp5
 70
     0
102
RTVSPropertyOp6
 70
     0
102
RTVSPropertyOp7
 70
     0
102
RTVSPropertyOp8
 70
     0
102
RTVSPropertyOp9
 70
     0
102
RTVSPropertyOp10
 70
     0
102
RTVSPropertyOp11
 70
     0
102
RTVSPropertyOp12
 70
     0
102
RTVSPropertyOp13
 70
     0
102
RTVSPropertyOp14
 70
     2
102
RTVSPropertyOp15
 70
     0
102
RTVSPropertyOp16
 70
     0
102
RTVSPropertyOp17
 70
     0
102
RTVSPropertyOp18
 70
     0
102
RTVSPropertyOp19
 70
     0
102
RTVSPropertyOp20
 70
     0
102
RTVSPropertyOp21
 70
     0
102
RTVSPropertyOp22
 70
     0
102
RTVSPropertyOp23
 70
     0
102
RTVSPropertyOp24
 70
     0
102
RTVSPropertyOp25
 70
     0
102
RTVSPropertyOp26
 70
     0
102
RTVSPropertyOp27
 70
     0
102
RTVSPropertyOp28
 70
     1
102
RTVSPropertyOp29
 70
     1
102
RTVSPropertyOp30
 70
     1
102
RTVSPropertyOp31
 70
     1
102
RTVSPropertyOp32
 70
     1
102
RTVSPropertyOp33
 70
     1
102
RTVSPropertyOp34
 70
     1
102
RTVSPropertyOp35
 70
     1
102
RTVSPropertyOp36
 70
     1
102
RTVSPropertyOp37
 70
     1
102
RTVSPropertyOp38
 70
     1
102
RTVSPropertyOp39
 70
     1
102
RTVSPropertyOp40
 70
     1
102
RTVSPropertyOp41
 70
     1
102
RTVSPropertyOp42
 70
     1
102
RTVSPropertyOp43
 70
     1
102
RTVSPropertyOp44
 70
     1
102
RTVSPropertyOp45
 70
     1
102
RTVSPropertyOp46
 70
     1
102
RTVSPropertyOp47
 70
     1
102
RTVSPropertyOp48
 70
     1
102
RTVSPropertyOp49
 70
     1
102
RTVSPropertyOp50
 70
     1
102
RTVSPropertyOp51
 70
     0
102
RTVSPropertyOp52
 70
     0
102
RTVSPropertyOp53
 70
     1
102
RTVSPropertyOp54
 70
     1
102
RTVSPropertyOp55
 70
     1
102
RTVSPropertyOp56
 70
     1
102
RTVSPropertyOp57
 70
     1
102
RTVSPropertyOp58
 70
     1
102
RTVSPropertyOp59
 70
     1
102
RTVSPropertyOp60
 70
     1
102
RTVSPropertyOp61
 70
     1
102
RTVSPropertyOp62
 70
     1
  0
XRECORD
  5
EAD9
102
{ACAD_REACTORS
330
EAD8
102
}
330
EAD8
100
AcDbXrecord
280
     1
102
RTVSPost2010Prop28
280
     0
102
RTVSPost2010PropOp28
 70
     1
102
RTVSPost2010Prop29
280
     1
102
RTVSPost2010PropOp29
 70
     1
102
RTVSPost2010Prop30
280
     1
102
RTVSPost2010PropOp30
 70
     1
102
RTVSPost2010Prop31
280
     0
102
RTVSPost2010PropOp31
 70
     1
102
RTVSPost2010Prop32
280
     0
102
RTVSPost2010PropOp32
 70
     1
102
RTVSPost2010Prop33
280
     0
102
RTVSPost2010PropOp33
 70
     1
102
RTVSPost2010Prop34
280
     0
102
RTVSPost2010PropOp34
 70
     1
102
RTVSPost2010Prop35
280
     0
102
RTVSPost2010PropOp35
 70
     1
102
RTVSPost2010Prop36
280
     0
102
RTVSPost2010PropOp36
 70
     1
102
RTVSPost2010Prop37
 90
       50
102
RTVSPost2010PropOp37
 70
     1
102
RTVSPost2010Prop38
140
0.0
102
RTVSPost2010PropOp38
 70
     1
102
RTVSPost2010Prop39
140
1.0
102
RTVSPost2010PropOp39
 70
     1
102
RTVSPost2010Prop40
 90
        0
102
RTVSPost2010PropOp40
 70
     1
102
RTVSPost2010Prop41ColorIndex
 90
       18
102
RTVSPost2010Prop41ColorRGB
 90
        0
102
RTVSPost2010PropOp41
 70
     1
102
RTVSPost2010Prop42
 90
       50
102
RTVSPost2010PropOp42
 70
     1
102
RTVSPost2010Prop43
 90
        3
102
RTVSPost2010PropOp43
 70
     1
102
RTVSPost2010Prop44ColorIndex
 90
        5
102
RTVSPost2010Prop44ColorRGB
 90
      255
102
RTVSPost2010PropOp44
 70
     1
102
RTVSPost2010Prop45
280
     0
102
RTVSPost2010PropOp45
 70
     1
102
RTVSPost2010Prop46
 90
       50
102
RTVSPost2010PropOp46
 70
     1
102
RTVSPost2010Prop47
 90
       50
102
RTVSPost2010PropOp47
 70
     1
102
RTVSPost2010Prop48
 90
       50
102
RTVSPost2010PropOp48
 70
     1
102
RTVSPost2010Prop49
280
     0
102
RTVSPost2010PropOp49
 70
     1
102
RTVSPost2010Prop50
 90
       50
102
RTVSPost2010PropOp50
 70
     1
102
RTVSPost2010Prop51ColorIndex
 90
      256
102
RTVSPost2010Prop51ColorRGB
 90
-16777216
102
RTVSPost2010PropOp51
 70
     0
102
RTVSPost2010Prop52
140
1.0
102
RTVSPost2010PropOp52
 70
     0
102
RTVSPost2010Prop53
 90
        2
102
RTVSPost2010PropOp53
 70
     1
102
RTVSPost2010Prop54
  1
strokes_ogs.tif
102
RTVSPost2010PropOp54
 70
     1
102
RTVSPost2010Prop55
280
     0
102
RTVSPost2010PropOp55
 70
     1
102
RTVSPost2010Prop56
140
1.0
102
RTVSPost2010PropOp56
 70
     1
102
RTVSPost2010Prop57
140
1.0
102
RTVSPost2010PropOp57
 70
     1
102
RTVSPropertyOp0
 70
     1
102
RTVSPropertyOp1
 70
     1
102
RTVSPropertyOp2
 70
     1
102
RTVSPropertyOp3
 70
     1
102
RTVSPropertyOp4
 70
     1
102
RTVSPropertyOp5
 70
     1
102
RTVSPropertyOp6
 70
     1
102
RTVSPropertyOp7
 70
     1
102
RTVSPropertyOp8
 70
     1
102
RTVSPropertyOp9
 70
     1
102
RTVSPropertyOp10
 70
     1
102
RTVSPropertyOp11
 70
     1
102
RTVSPropertyOp12
 70
     1
102
RTVSPropertyOp13
 70
     1
102
RTVSPropertyOp14
 70
     1
102
RTVSPropertyOp15
 70
     1
102
RTVSPropertyOp16
 70
     1
102
RTVSPropertyOp17
 70
     1
102
RTVSPropertyOp18
 70
     1
102
RTVSPropertyOp19
 70
     1
102
RTVSPropertyOp20
 70
     1
102
RTVSPropertyOp21
 70
     1
102
RTVSPropertyOp22
 70
     1
102
RTVSPropertyOp23
 70
     1
102
RTVSPropertyOp24
 70
     1
102
RTVSPropertyOp25
 70
     1
102
RTVSPropertyOp26
 70
     1
102
RTVSPropertyOp27
 70
     1
102
RTVSPropertyOp28
 70
     1
102
RTVSPropertyOp29
 70
     1
102
RTVSPropertyOp30
 70
     1
102
RTVSPropertyOp31
 70
     1
102
RTVSPropertyOp32
 70
     1
102
RTVSPropertyOp33
 70
     1
102
RTVSPropertyOp34
 70
     1
102
RTVSPropertyOp35
 70
     1
102
RTVSPropertyOp36
 70
     1
102
RTVSPropertyOp37
 70
     1
102
RTVSPropertyOp38
 70
     1
102
RTVSPropertyOp39
 70
     1
102
RTVSPropertyOp40
 70
     1
102
RTVSPropertyOp41
 70
     1
102
RTVSPropertyOp42
 70
     1
102
RTVSPropertyOp43
 70
     1
102
RTVSPropertyOp44
 70
     1
102
RTVSPropertyOp45
 70
     1
102
RTVSPropertyOp46
 70
     1
102
RTVSPropertyOp47
 70
     1
102
RTVSPropertyOp48
 70
     1
102
RTVSPropertyOp49
 70
     1
102
RTVSPropertyOp50
 70
     1
102
RTVSPropertyOp51
 70
     0
102
RTVSPropertyOp52
 70
     0
102
RTVSPropertyOp53
 70
     1
102
RTVSPropertyOp54
 70
     1
102
RTVSPropertyOp55
 70
     1
102
RTVSPropertyOp56
 70
     1
102
RTVSPropertyOp57
 70
     1
102
RTVSPropertyOp58
 70
     1
102
RTVSPropertyOp59
 70
     1
102
RTVSPropertyOp60
 70
     1
102
RTVSPropertyOp61
 70
     1
102
RTVSPropertyOp62
 70
     1
  0
XRECORD
  5
EAE6
102
{ACAD_REACTORS
330
EAE5
102
}
330
EAE5
100
AcDbXrecord
280
     1
102
RTVSPost2010Prop28
280
     0
102
RTVSPost2010PropOp28
 70
     1
102
RTVSPost2010Prop29
280
     1
102
RTVSPost2010PropOp29
 70
     1
102
RTVSPost2010Prop30
280
     1
102
RTVSPost2010PropOp30
 70
     1
102
RTVSPost2010Prop31
280
     0
102
RTVSPost2010PropOp31
 70
     1
102
RTVSPost2010Prop32
280
     0
102
RTVSPost2010PropOp32
 70
     1
102
RTVSPost2010Prop33
280
     0
102
RTVSPost2010PropOp33
 70
     1
102
RTVSPost2010Prop34
280
     0
102
RTVSPost2010PropOp34
 70
     1
102
RTVSPost2010Prop35
280
     0
102
RTVSPost2010PropOp35
 70
     1
102
RTVSPost2010Prop36
280
     0
102
RTVSPost2010PropOp36
 70
     1
102
RTVSPost2010Prop37
 90
       50
102
RTVSPost2010PropOp37
 70
     1
102
RTVSPost2010Prop38
140
0.0
102
RTVSPost2010PropOp38
 70
     1
102
RTVSPost2010Prop39
140
1.0
102
RTVSPost2010PropOp39
 70
     1
102
RTVSPost2010Prop40
 90
        0
102
RTVSPost2010PropOp40
 70
     1
102
RTVSPost2010Prop41ColorIndex
 90
       18
102
RTVSPost2010Prop41ColorRGB
 90
        0
102
RTVSPost2010PropOp41
 70
     1
102
RTVSPost2010Prop42
 90
       50
102
RTVSPost2010PropOp42
 70
     1
102
RTVSPost2010Prop43
 90
        3
102
RTVSPost2010PropOp43
 70
     1
102
RTVSPost2010Prop44ColorIndex
 90
        5
102
RTVSPost2010Prop44ColorRGB
 90
      255
102
RTVSPost2010PropOp44
 70
     1
102
RTVSPost2010Prop45
280
     0
102
RTVSPost2010PropOp45
 70
     1
102
RTVSPost2010Prop46
 90
       50
102
RTVSPost2010PropOp46
 70
     1
102
RTVSPost2010Prop47
 90
       50
102
RTVSPost2010PropOp47
 70
     1
102
RTVSPost2010Prop48
 90
       50
102
RTVSPost2010PropOp48
 70
     1
102
RTVSPost2010Prop49
280
     0
102
RTVSPost2010PropOp49
 70
     1
102
RTVSPost2010Prop50
 90
       50
102
RTVSPost2010PropOp50
 70
     1
102
RTVSPost2010Prop51ColorIndex
 90
      256
102
RTVSPost2010Prop51ColorRGB
 90
-16777216
102
RTVSPost2010PropOp51
 70
     0
102
RTVSPost2010Prop52
140
1.0
102
RTVSPost2010PropOp52
 70
     0
102
RTVSPost2010Prop53
 90
        2
102
RTVSPost2010PropOp53
 70
     1
102
RTVSPost2010Prop54
  1
strokes_ogs.tif
102
RTVSPost2010PropOp54
 70
     1
102
RTVSPost2010Prop55
280
     0
102
RTVSPost2010PropOp55
 70
     1
102
RTVSPost2010Prop56
140
1.0
102
RTVSPost2010PropOp56
 70
     1
102
RTVSPost2010Prop57
140
1.0
102
RTVSPost2010PropOp57
 70
     1
102
RTVSPropertyOp0
 70
     0
102
RTVSPropertyOp1
 70
     0
102
RTVSPropertyOp2
 70
     0
102
RTVSPropertyOp3
 70
     0
102
RTVSPropertyOp4
 70
     0
102
RTVSPropertyOp5
 70
     0
102
RTVSPropertyOp6
 70
     0
102
RTVSPropertyOp7
 70
     0
102
RTVSPropertyOp8
 70
     0
102
RTVSPropertyOp9
 70
     0
102
RTVSPropertyOp10
 70
     0
102
RTVSPropertyOp11
 70
     0
102
RTVSPropertyOp12
 70
     0
102
RTVSPropertyOp13
 70
     0
102
RTVSPropertyOp14
 70
     2
102
RTVSPropertyOp15
 70
     0
102
RTVSPropertyOp16
 70
     0
102
RTVSPropertyOp17
 70
     0
102
RTVSPropertyOp18
 70
     0
102
RTVSPropertyOp19
 70
     0
102
RTVSPropertyOp20
 70
     0
102
RTVSPropertyOp21
 70
     0
102
RTVSPropertyOp22
 70
     0
102
RTVSPropertyOp23
 70
     0
102
RTVSPropertyOp24
 70
     0
102
RTVSPropertyOp25
 70
     0
102
RTVSPropertyOp26
 70
     0
102
RTVSPropertyOp27
 70
     0
102
RTVSPropertyOp28
 70
     1
102
RTVSPropertyOp29
 70
     1
102
RTVSPropertyOp30
 70
     1
102
RTVSPropertyOp31
 70
     1
102
RTVSPropertyOp32
 70
     1
102
RTVSPropertyOp33
 70
     1
102
RTVSPropertyOp34
 70
     1
102
RTVSPropertyOp35
 70
     1
102
RTVSPropertyOp36
 70
     1
102
RTVSPropertyOp37
 70
     1
102
RTVSPropertyOp38
 70
     1
102
RTVSPropertyOp39
 70
     1
102
RTVSPropertyOp40
 70
     1
102
RTVSPropertyOp41
 70
     1
102
RTVSPropertyOp42
 70
     1
102
RTVSPropertyOp43
 70
     1
102
RTVSPropertyOp44
 70
     1
102
RTVSPropertyOp45
 70
     1
102
RTVSPropertyOp46
 70
     1
102
RTVSPropertyOp47
 70
     1
102
RTVSPropertyOp48
 70
     1
102
RTVSPropertyOp49
 70
     1
102
RTVSPropertyOp50
 70
     1
102
RTVSPropertyOp51
 70
     0
102
RTVSPropertyOp52
 70
     0
102
RTVSPropertyOp53
 70
     1
102
RTVSPropertyOp54
 70
     1
102
RTVSPropertyOp55
 70
     1
102
RTVSPropertyOp56
 70
     1
102
RTVSPropertyOp57
 70
     1
102
RTVSPropertyOp58
 70
     1
102
RTVSPropertyOp59
 70
     1
102
RTVSPropertyOp60
 70
     1
102
RTVSPropertyOp61
 70
     1
102
RTVSPropertyOp62
 70
     1
  0
XRECORD
  5
EAD1
102
{ACAD_REACTORS
330
EAD0
102
}
330
EAD0
100
AcDbXrecord
280
     1
102
RTVSPost2010Prop28
280
     0
102
RTVSPost2010PropOp28
 70
     1
102
RTVSPost2010Prop29
280
     1
102
RTVSPost2010PropOp29
 70
     1
102
RTVSPost2010Prop30
280
     1
102
RTVSPost2010PropOp30
 70
     1
102
RTVSPost2010Prop31
280
     0
102
RTVSPost2010PropOp31
 70
     1
102
RTVSPost2010Prop32
280
     0
102
RTVSPost2010PropOp32
 70
     1
102
RTVSPost2010Prop33
280
     0
102
RTVSPost2010PropOp33
 70
     1
102
RTVSPost2010Prop34
280
     0
102
RTVSPost2010PropOp34
 70
     1
102
RTVSPost2010Prop35
280
     0
102
RTVSPost2010PropOp35
 70
     1
102
RTVSPost2010Prop36
280
     0
102
RTVSPost2010PropOp36
 70
     1
102
RTVSPost2010Prop37
 90
       50
102
RTVSPost2010PropOp37
 70
     1
102
RTVSPost2010Prop38
140
0.0
102
RTVSPost2010PropOp38
 70
     1
102
RTVSPost2010Prop39
140
1.0
102
RTVSPost2010PropOp39
 70
     1
102
RTVSPost2010Prop40
 90
        0
102
RTVSPost2010PropOp40
 70
     1
102
RTVSPost2010Prop41ColorIndex
 90
       18
102
RTVSPost2010Prop41ColorRGB
 90
        0
102
RTVSPost2010PropOp41
 70
     1
102
RTVSPost2010Prop42
 90
       50
102
RTVSPost2010PropOp42
 70
     1
102
RTVSPost2010Prop43
 90
        3
102
RTVSPost2010PropOp43
 70
     1
102
RTVSPost2010Prop44ColorIndex
 90
        5
102
RTVSPost2010Prop44ColorRGB
 90
      255
102
RTVSPost2010PropOp44
 70
     1
102
RTVSPost2010Prop45
280
     0
102
RTVSPost2010PropOp45
 70
     1
102
RTVSPost2010Prop46
 90
       50
102
RTVSPost2010PropOp46
 70
     1
102
RTVSPost2010Prop47
 90
       50
102
RTVSPost2010PropOp47
 70
     1
102
RTVSPost2010Prop48
 90
       50
102
RTVSPost2010PropOp48
 70
     1
102
RTVSPost2010Prop49
280
     0
102
RTVSPost2010PropOp49
 70
     1
102
RTVSPost2010Prop50
 90
       50
102
RTVSPost2010PropOp50
 70
     1
102
RTVSPost2010Prop51ColorIndex
 90
      256
102
RTVSPost2010Prop51ColorRGB
 90
-16777216
102
RTVSPost2010PropOp51
 70
     0
102
RTVSPost2010Prop52
140
1.0
102
RTVSPost2010PropOp52
 70
     0
102
RTVSPost2010Prop53
 90
        2
102
RTVSPost2010PropOp53
 70
     1
102
RTVSPost2010Prop54
  1
strokes_ogs.tif
102
RTVSPost2010PropOp54
 70
     1
102
RTVSPost2010Prop55
280
     0
102
RTVSPost2010PropOp55
 70
     1
102
RTVSPost2010Prop56
140
1.0
102
RTVSPost2010PropOp56
 70
     1
102
RTVSPost2010Prop57
140
1.0
102
RTVSPost2010PropOp57
 70
     1
102
RTVSPropertyOp0
 70
     1
102
RTVSPropertyOp1
 70
     1
102
RTVSPropertyOp2
 70
     1
102
RTVSPropertyOp3
 70
     1
102
RTVSPropertyOp4
 70
     1
102
RTVSPropertyOp5
 70
     1
102
RTVSPropertyOp6
 70
     1
102
RTVSPropertyOp7
 70
     1
102
RTVSPropertyOp8
 70
     1
102
RTVSPropertyOp9
 70
     1
102
RTVSPropertyOp10
 70
     1
102
RTVSPropertyOp11
 70
     1
102
RTVSPropertyOp12
 70
     1
102
RTVSPropertyOp13
 70
     1
102
RTVSPropertyOp14
 70
     1
102
RTVSPropertyOp15
 70
     1
102
RTVSPropertyOp16
 70
     1
102
RTVSPropertyOp17
 70
     1
102
RTVSPropertyOp18
 70
     1
102
RTVSPropertyOp19
 70
     1
102
RTVSPropertyOp20
 70
     1
102
RTVSPropertyOp21
 70
     1
102
RTVSPropertyOp22
 70
     1
102
RTVSPropertyOp23
 70
     1
102
RTVSPropertyOp24
 70
     1
102
RTVSPropertyOp25
 70
     1
102
RTVSPropertyOp26
 70
     1
102
RTVSPropertyOp27
 70
     1
102
RTVSPropertyOp28
 70
     1
102
RTVSPropertyOp29
 70
     1
102
RTVSPropertyOp30
 70
     1
102
RTVSPropertyOp31
 70
     1
102
RTVSPropertyOp32
 70
     1
102
RTVSPropertyOp33
 70
     1
102
RTVSPropertyOp34
 70
     1
102
RTVSPropertyOp35
 70
     1
102
RTVSPropertyOp36
 70
     1
102
RTVSPropertyOp37
 70
     1
102
RTVSPropertyOp38
 70
     1
102
RTVSPropertyOp39
 70
     1
102
RTVSPropertyOp40
 70
     1
102
RTVSPropertyOp41
 70
     1
102
RTVSPropertyOp42
 70
     1
102
RTVSPropertyOp43
 70
     1
102
RTVSPropertyOp44
 70
     1
102
RTVSPropertyOp45
 70
     1
102
RTVSPropertyOp46
 70
     1
102
RTVSPropertyOp47
 70
     1
102
RTVSPropertyOp48
 70
     1
102
RTVSPropertyOp49
 70
     1
102
RTVSPropertyOp50
 70
     1
102
RTVSPropertyOp51
 70
     0
102
RTVSPropertyOp52
 70
     0
102
RTVSPropertyOp53
 70
     1
102
RTVSPropertyOp54
 70
     1
102
RTVSPropertyOp55
 70
     1
102
RTVSPropertyOp56
 70
     1
102
RTVSPropertyOp57
 70
     1
102
RTVSPropertyOp58
 70
     1
102
RTVSPropertyOp59
 70
     1
102
RTVSPropertyOp60
 70
     1
102
RTVSPropertyOp61
 70
     1
102
RTVSPropertyOp62
 70
     1
  0
XRECORD
  5
EAFA
102
{ACAD_REACTORS
330
EAF9
102
}
330
EAF9
100
AcDbXrecord
280
     1
102
RTVSPost2010Prop28
280
     0
102
RTVSPost2010PropOp28
 70
     1
102
RTVSPost2010Prop29
280
     1
102
RTVSPost2010PropOp29
 70
     1
102
RTVSPost2010Prop30
280
     1
102
RTVSPost2010PropOp30
 70
     1
102
RTVSPost2010Prop31
280
     0
102
RTVSPost2010PropOp31
 70
     1
102
RTVSPost2010Prop32
280
     0
102
RTVSPost2010PropOp32
 70
     1
102
RTVSPost2010Prop33
280
     0
102
RTVSPost2010PropOp33
 70
     1
102
RTVSPost2010Prop34
280
     0
102
RTVSPost2010PropOp34
 70
     1
102
RTVSPost2010Prop35
280
     0
102
RTVSPost2010PropOp35
 70
     1
102
RTVSPost2010Prop36
280
     0
102
RTVSPost2010PropOp36
 70
     1
102
RTVSPost2010Prop37
 90
       50
102
RTVSPost2010PropOp37
 70
     1
102
RTVSPost2010Prop38
140
0.0
102
RTVSPost2010PropOp38
 70
     1
102
RTVSPost2010Prop39
140
1.0
102
RTVSPost2010PropOp39
 70
     1
102
RTVSPost2010Prop40
 90
        0
102
RTVSPost2010PropOp40
 70
     1
102
RTVSPost2010Prop41ColorIndex
 90
       18
102
RTVSPost2010Prop41ColorRGB
 90
        0
102
RTVSPost2010PropOp41
 70
     1
102
RTVSPost2010Prop42
 90
       50
102
RTVSPost2010PropOp42
 70
     1
102
RTVSPost2010Prop43
 90
        3
102
RTVSPost2010PropOp43
 70
     1
102
RTVSPost2010Prop44ColorIndex
 90
        5
102
RTVSPost2010Prop44ColorRGB
 90
      255
102
RTVSPost2010PropOp44
 70
     1
102
RTVSPost2010Prop45
280
     0
102
RTVSPost2010PropOp45
 70
     1
102
RTVSPost2010Prop46
 90
       50
102
RTVSPost2010PropOp46
 70
     1
102
RTVSPost2010Prop47
 90
       50
102
RTVSPost2010PropOp47
 70
     1
102
RTVSPost2010Prop48
 90
       50
102
RTVSPost2010PropOp48
 70
     1
102
RTVSPost2010Prop49
280
     0
102
RTVSPost2010PropOp49
 70
     1
102
RTVSPost2010Prop50
 90
       50
102
RTVSPost2010PropOp50
 70
     1
102
RTVSPost2010Prop51ColorIndex
 90
      256
102
RTVSPost2010Prop51ColorRGB
 90
-16777216
102
RTVSPost2010PropOp51
 70
     0
102
RTVSPost2010Prop52
140
1.0
102
RTVSPost2010PropOp52
 70
     0
102
RTVSPost2010Prop53
 90
        2
102
RTVSPost2010PropOp53
 70
     1
102
RTVSPost2010Prop54
  1
strokes_ogs.tif
102
RTVSPost2010PropOp54
 70
     1
102
RTVSPost2010Prop55
280
     0
102
RTVSPost2010PropOp55
 70
     1
102
RTVSPost2010Prop56
140
1.0
102
RTVSPost2010PropOp56
 70
     1
102
RTVSPost2010Prop57
140
1.0
102
RTVSPost2010PropOp57
 70
     1
102
RTVSPropertyOp0
 70
     1
102
RTVSPropertyOp1
 70
     1
102
RTVSPropertyOp2
 70
     1
102
RTVSPropertyOp3
 70
     1
102
RTVSPropertyOp4
 70
     1
102
RTVSPropertyOp5
 70
     1
102
RTVSPropertyOp6
 70
     1
102
RTVSPropertyOp7
 70
     1
102
RTVSPropertyOp8
 70
     1
102
RTVSPropertyOp9
 70
     1
102
RTVSPropertyOp10
 70
     1
102
RTVSPropertyOp11
 70
     1
102
RTVSPropertyOp12
 70
     1
102
RTVSPropertyOp13
 70
     1
102
RTVSPropertyOp14
 70
     1
102
RTVSPropertyOp15
 70
     1
102
RTVSPropertyOp16
 70
     1
102
RTVSPropertyOp17
 70
     1
102
RTVSPropertyOp18
 70
     1
102
RTVSPropertyOp19
 70
     1
102
RTVSPropertyOp20
 70
     1
102
RTVSPropertyOp21
 70
     1
102
RTVSPropertyOp22
 70
     1
102
RTVSPropertyOp23
 70
     1
102
RTVSPropertyOp24
 70
     1
102
RTVSPropertyOp25
 70
     1
102
RTVSPropertyOp26
 70
     1
102
RTVSPropertyOp27
 70
     1
102
RTVSPropertyOp28
 70
     1
102
RTVSPropertyOp29
 70
     1
102
RTVSPropertyOp30
 70
     1
102
RTVSPropertyOp31
 70
     1
102
RTVSPropertyOp32
 70
     1
102
RTVSPropertyOp33
 70
     1
102
RTVSPropertyOp34
 70
     1
102
RTVSPropertyOp35
 70
     1
102
RTVSPropertyOp36
 70
     1
102
RTVSPropertyOp37
 70
     1
102
RTVSPropertyOp38
 70
     1
102
RTVSPropertyOp39
 70
     1
102
RTVSPropertyOp40
 70
     1
102
RTVSPropertyOp41
 70
     1
102
RTVSPropertyOp42
 70
     1
102
RTVSPropertyOp43
 70
     1
102
RTVSPropertyOp44
 70
     1
102
RTVSPropertyOp45
 70
     1
102
RTVSPropertyOp46
 70
     1
102
RTVSPropertyOp47
 70
     1
102
RTVSPropertyOp48
 70
     1
102
RTVSPropertyOp49
 70
     1
102
RTVSPropertyOp50
 70
     1
102
RTVSPropertyOp51
 70
     0
102
RTVSPropertyOp52
 70
     0
102
RTVSPropertyOp53
 70
     1
102
RTVSPropertyOp54
 70
     1
102
RTVSPropertyOp55
 70
     1
102
RTVSPropertyOp56
 70
     1
102
RTVSPropertyOp57
 70
     1
102
RTVSPropertyOp58
 70
     1
102
RTVSPropertyOp59
 70
     1
102
RTVSPropertyOp60
 70
     1
102
RTVSPropertyOp61
 70
     1
102
RTVSPropertyOp62
 70
     1
  0
XRECORD
  5
EAF8
102
{ACAD_REACTORS
330
EAF7
102
}
330
EAF7
100
AcDbXrecord
280
     1
102
RTVSPost2010Prop28
280
     0
102
RTVSPost2010PropOp28
 70
     1
102
RTVSPost2010Prop29
280
     1
102
RTVSPost2010PropOp29
 70
     1
102
RTVSPost2010Prop30
280
     1
102
RTVSPost2010PropOp30
 70
     1
102
RTVSPost2010Prop31
280
     0
102
RTVSPost2010PropOp31
 70
     1
102
RTVSPost2010Prop32
280
     0
102
RTVSPost2010PropOp32
 70
     1
102
RTVSPost2010Prop33
280
     0
102
RTVSPost2010PropOp33
 70
     1
102
RTVSPost2010Prop34
280
     0
102
RTVSPost2010PropOp34
 70
     1
102
RTVSPost2010Prop35
280
     0
102
RTVSPost2010PropOp35
 70
     1
102
RTVSPost2010Prop36
280
     0
102
RTVSPost2010PropOp36
 70
     1
102
RTVSPost2010Prop37
 90
       50
102
RTVSPost2010PropOp37
 70
     1
102
RTVSPost2010Prop38
140
0.0
102
RTVSPost2010PropOp38
 70
     1
102
RTVSPost2010Prop39
140
1.0
102
RTVSPost2010PropOp39
 70
     1
102
RTVSPost2010Prop40
 90
        0
102
RTVSPost2010PropOp40
 70
     1
102
RTVSPost2010Prop41ColorIndex
 90
       18
102
RTVSPost2010Prop41ColorRGB
 90
        0
102
RTVSPost2010PropOp41
 70
     1
102
RTVSPost2010Prop42
 90
       50
102
RTVSPost2010PropOp42
 70
     1
102
RTVSPost2010Prop43
 90
        3
102
RTVSPost2010PropOp43
 70
     1
102
RTVSPost2010Prop44ColorIndex
 90
        5
102
RTVSPost2010Prop44ColorRGB
 90
      255
102
RTVSPost2010PropOp44
 70
     1
102
RTVSPost2010Prop45
280
     0
102
RTVSPost2010PropOp45
 70
     1
102
RTVSPost2010Prop46
 90
       50
102
RTVSPost2010PropOp46
 70
     1
102
RTVSPost2010Prop47
 90
       50
102
RTVSPost2010PropOp47
 70
     1
102
RTVSPost2010Prop48
 90
       50
102
RTVSPost2010PropOp48
 70
     1
102
RTVSPost2010Prop49
280
     0
102
RTVSPost2010PropOp49
 70
     1
102
RTVSPost2010Prop50
 90
       50
102
RTVSPost2010PropOp50
 70
     1
102
RTVSPost2010Prop51ColorIndex
 90
      256
102
RTVSPost2010Prop51ColorRGB
 90
-16777216
102
RTVSPost2010PropOp51
 70
     0
102
RTVSPost2010Prop52
140
1.0
102
RTVSPost2010PropOp52
 70
     0
102
RTVSPost2010Prop53
 90
        2
102
RTVSPost2010PropOp53
 70
     1
102
RTVSPost2010Prop54
  1
strokes_ogs.tif
102
RTVSPost2010PropOp54
 70
     1
102
RTVSPost2010Prop55
280
     0
102
RTVSPost2010PropOp55
 70
     1
102
RTVSPost2010Prop56
140
1.0
102
RTVSPost2010PropOp56
 70
     1
102
RTVSPost2010Prop57
140
1.0
102
RTVSPost2010PropOp57
 70
     1
102
RTVSPropertyOp0
 70
     1
102
RTVSPropertyOp1
 70
     1
102
RTVSPropertyOp2
 70
     1
102
RTVSPropertyOp3
 70
     1
102
RTVSPropertyOp4
 70
     1
102
RTVSPropertyOp5
 70
     1
102
RTVSPropertyOp6
 70
     1
102
RTVSPropertyOp7
 70
     1
102
RTVSPropertyOp8
 70
     1
102
RTVSPropertyOp9
 70
     1
102
RTVSPropertyOp10
 70
     1
102
RTVSPropertyOp11
 70
     1
102
RTVSPropertyOp12
 70
     1
102
RTVSPropertyOp13
 70
     1
102
RTVSPropertyOp14
 70
     1
102
RTVSPropertyOp15
 70
     1
102
RTVSPropertyOp16
 70
     1
102
RTVSPropertyOp17
 70
     1
102
RTVSPropertyOp18
 70
     1
102
RTVSPropertyOp19
 70
     1
102
RTVSPropertyOp20
 70
     1
102
RTVSPropertyOp21
 70
     1
102
RTVSPropertyOp22
 70
     1
102
RTVSPropertyOp23
 70
     1
102
RTVSPropertyOp24
 70
     1
102
RTVSPropertyOp25
 70
     1
102
RTVSPropertyOp26
 70
     1
102
RTVSPropertyOp27
 70
     1
102
RTVSPropertyOp28
 70
     1
102
RTVSPropertyOp29
 70
     1
102
RTVSPropertyOp30
 70
     1
102
RTVSPropertyOp31
 70
     1
102
RTVSPropertyOp32
 70
     1
102
RTVSPropertyOp33
 70
     1
102
RTVSPropertyOp34
 70
     1
102
RTVSPropertyOp35
 70
     1
102
RTVSPropertyOp36
 70
     1
102
RTVSPropertyOp37
 70
     1
102
RTVSPropertyOp38
 70
     1
102
RTVSPropertyOp39
 70
     1
102
RTVSPropertyOp40
 70
     1
102
RTVSPropertyOp41
 70
     1
102
RTVSPropertyOp42
 70
     1
102
RTVSPropertyOp43
 70
     1
102
RTVSPropertyOp44
 70
     1
102
RTVSPropertyOp45
 70
     1
102
RTVSPropertyOp46
 70
     1
102
RTVSPropertyOp47
 70
     1
102
RTVSPropertyOp48
 70
     1
102
RTVSPropertyOp49
 70
     1
102
RTVSPropertyOp50
 70
     1
102
RTVSPropertyOp51
 70
     0
102
RTVSPropertyOp52
 70
     0
102
RTVSPropertyOp53
 70
     1
102
RTVSPropertyOp54
 70
     1
102
RTVSPropertyOp55
 70
     1
102
RTVSPropertyOp56
 70
     1
102
RTVSPropertyOp57
 70
     1
102
RTVSPropertyOp58
 70
     1
102
RTVSPropertyOp59
 70
     1
102
RTVSPropertyOp60
 70
     1
102
RTVSPropertyOp61
 70
     1
102
RTVSPropertyOp62
 70
     1
  0
XRECORD
  5
EAF2
102
{ACAD_REACTORS
330
EAF1
102
}
330
EAF1
100
AcDbXrecord
280
     1
102
RTVSPost2010Prop28
280
     0
102
RTVSPost2010PropOp28
 70
     1
102
RTVSPost2010Prop29
280
     1
102
RTVSPost2010PropOp29
 70
     1
102
RTVSPost2010Prop30
280
     1
102
RTVSPost2010PropOp30
 70
     1
102
RTVSPost2010Prop31
280
     0
102
RTVSPost2010PropOp31
 70
     1
102
RTVSPost2010Prop32
280
     0
102
RTVSPost2010PropOp32
 70
     1
102
RTVSPost2010Prop33
280
     0
102
RTVSPost2010PropOp33
 70
     1
102
RTVSPost2010Prop34
280
     0
102
RTVSPost2010PropOp34
 70
     1
102
RTVSPost2010Prop35
280
     0
102
RTVSPost2010PropOp35
 70
     1
102
RTVSPost2010Prop36
280
     0
102
RTVSPost2010PropOp36
 70
     1
102
RTVSPost2010Prop37
 90
       50
102
RTVSPost2010PropOp37
 70
     1
102
RTVSPost2010Prop38
140
0.0
102
RTVSPost2010PropOp38
 70
     1
102
RTVSPost2010Prop39
140
1.0
102
RTVSPost2010PropOp39
 70
     1
102
RTVSPost2010Prop40
 90
        0
102
RTVSPost2010PropOp40
 70
     1
102
RTVSPost2010Prop41ColorIndex
 90
       18
102
RTVSPost2010Prop41ColorRGB
 90
        0
102
RTVSPost2010PropOp41
 70
     1
102
RTVSPost2010Prop42
 90
       50
102
RTVSPost2010PropOp42
 70
     1
102
RTVSPost2010Prop43
 90
        3
102
RTVSPost2010PropOp43
 70
     1
102
RTVSPost2010Prop44ColorIndex
 90
        5
102
RTVSPost2010Prop44ColorRGB
 90
      255
102
RTVSPost2010PropOp44
 70
     1
102
RTVSPost2010Prop45
280
     0
102
RTVSPost2010PropOp45
 70
     1
102
RTVSPost2010Prop46
 90
       50
102
RTVSPost2010PropOp46
 70
     1
102
RTVSPost2010Prop47
 90
       50
102
RTVSPost2010PropOp47
 70
     1
102
RTVSPost2010Prop48
 90
       50
102
RTVSPost2010PropOp48
 70
     1
102
RTVSPost2010Prop49
280
     0
102
RTVSPost2010PropOp49
 70
     1
102
RTVSPost2010Prop50
 90
       50
102
RTVSPost2010PropOp50
 70
     1
102
RTVSPost2010Prop51ColorIndex
 90
      256
102
RTVSPost2010Prop51ColorRGB
 90
-16777216
102
RTVSPost2010PropOp51
 70
     0
102
RTVSPost2010Prop52
140
1.0
102
RTVSPost2010PropOp52
 70
     0
102
RTVSPost2010Prop53
 90
        2
102
RTVSPost2010PropOp53
 70
     1
102
RTVSPost2010Prop54
  1
strokes_ogs.tif
102
RTVSPost2010PropOp54
 70
     1
102
RTVSPost2010Prop55
280
     0
102
RTVSPost2010PropOp55
 70
     1
102
RTVSPost2010Prop56
140
1.0
102
RTVSPost2010PropOp56
 70
     1
102
RTVSPost2010Prop57
140
1.0
102
RTVSPost2010PropOp57
 70
     1
102
RTVSPropertyOp0
 70
     1
102
RTVSPropertyOp1
 70
     1
102
RTVSPropertyOp2
 70
     1
102
RTVSPropertyOp3
 70
     1
102
RTVSPropertyOp4
 70
     1
102
RTVSPropertyOp5
 70
     1
102
RTVSPropertyOp6
 70
     1
102
RTVSPropertyOp7
 70
     1
102
RTVSPropertyOp8
 70
     1
102
RTVSPropertyOp9
 70
     1
102
RTVSPropertyOp10
 70
     1
102
RTVSPropertyOp11
 70
     1
102
RTVSPropertyOp12
 70
     1
102
RTVSPropertyOp13
 70
     1
102
RTVSPropertyOp14
 70
     1
102
RTVSPropertyOp15
 70
     1
102
RTVSPropertyOp16
 70
     1
102
RTVSPropertyOp17
 70
     1
102
RTVSPropertyOp18
 70
     1
102
RTVSPropertyOp19
 70
     1
102
RTVSPropertyOp20
 70
     1
102
RTVSPropertyOp21
 70
     1
102
RTVSPropertyOp22
 70
     1
102
RTVSPropertyOp23
 70
     1
102
RTVSPropertyOp24
 70
     1
102
RTVSPropertyOp25
 70
     1
102
RTVSPropertyOp26
 70
     1
102
RTVSPropertyOp27
 70
     1
102
RTVSPropertyOp28
 70
     1
102
RTVSPropertyOp29
 70
     1
102
RTVSPropertyOp30
 70
     1
102
RTVSPropertyOp31
 70
     1
102
RTVSPropertyOp32
 70
     1
102
RTVSPropertyOp33
 70
     1
102
RTVSPropertyOp34
 70
     1
102
RTVSPropertyOp35
 70
     1
102
RTVSPropertyOp36
 70
     1
102
RTVSPropertyOp37
 70
     1
102
RTVSPropertyOp38
 70
     1
102
RTVSPropertyOp39
 70
     1
102
RTVSPropertyOp40
 70
     1
102
RTVSPropertyOp41
 70
     1
102
RTVSPropertyOp42
 70
     1
102
RTVSPropertyOp43
 70
     1
102
RTVSPropertyOp44
 70
     1
102
RTVSPropertyOp45
 70
     1
102
RTVSPropertyOp46
 70
     1
102
RTVSPropertyOp47
 70
     1
102
RTVSPropertyOp48
 70
     1
102
RTVSPropertyOp49
 70
     1
102
RTVSPropertyOp50
 70
     1
102
RTVSPropertyOp51
 70
     0
102
RTVSPropertyOp52
 70
     0
102
RTVSPropertyOp53
 70
     1
102
RTVSPropertyOp54
 70
     1
102
RTVSPropertyOp55
 70
     1
102
RTVSPropertyOp56
 70
     1
102
RTVSPropertyOp57
 70
     1
102
RTVSPropertyOp58
 70
     1
102
RTVSPropertyOp59
 70
     1
102
RTVSPropertyOp60
 70
     1
102
RTVSPropertyOp61
 70
     1
102
RTVSPropertyOp62
 70
     1
  0
XRECORD
  5
EAF4
102
{ACAD_REACTORS
330
EAF3
102
}
330
EAF3
100
AcDbXrecord
280
     1
102
RTVSPost2010Prop28
280
     0
102
RTVSPost2010PropOp28
 70
     1
102
RTVSPost2010Prop29
280
     1
102
RTVSPost2010PropOp29
 70
     1
102
RTVSPost2010Prop30
280
     1
102
RTVSPost2010PropOp30
 70
     1
102
RTVSPost2010Prop31
280
     0
102
RTVSPost2010PropOp31
 70
     1
102
RTVSPost2010Prop32
280
     0
102
RTVSPost2010PropOp32
 70
     1
102
RTVSPost2010Prop33
280
     0
102
RTVSPost2010PropOp33
 70
     1
102
RTVSPost2010Prop34
280
     0
102
RTVSPost2010PropOp34
 70
     1
102
RTVSPost2010Prop35
280
     0
102
RTVSPost2010PropOp35
 70
     1
102
RTVSPost2010Prop36
280
     0
102
RTVSPost2010PropOp36
 70
     1
102
RTVSPost2010Prop37
 90
       50
102
RTVSPost2010PropOp37
 70
     1
102
RTVSPost2010Prop38
140
0.0
102
RTVSPost2010PropOp38
 70
     1
102
RTVSPost2010Prop39
140
1.0
102
RTVSPost2010PropOp39
 70
     1
102
RTVSPost2010Prop40
 90
        0
102
RTVSPost2010PropOp40
 70
     1
102
RTVSPost2010Prop41ColorIndex
 90
       18
102
RTVSPost2010Prop41ColorRGB
 90
        0
102
RTVSPost2010PropOp41
 70
     1
102
RTVSPost2010Prop42
 90
       50
102
RTVSPost2010PropOp42
 70
     1
102
RTVSPost2010Prop43
 90
        3
102
RTVSPost2010PropOp43
 70
     1
102
RTVSPost2010Prop44ColorIndex
 90
        5
102
RTVSPost2010Prop44ColorRGB
 90
      255
102
RTVSPost2010PropOp44
 70
     1
102
RTVSPost2010Prop45
280
     0
102
RTVSPost2010PropOp45
 70
     1
102
RTVSPost2010Prop46
 90
       50
102
RTVSPost2010PropOp46
 70
     1
102
RTVSPost2010Prop47
 90
       50
102
RTVSPost2010PropOp47
 70
     1
102
RTVSPost2010Prop48
 90
       50
102
RTVSPost2010PropOp48
 70
     1
102
RTVSPost2010Prop49
280
     0
102
RTVSPost2010PropOp49
 70
     1
102
RTVSPost2010Prop50
 90
       50
102
RTVSPost2010PropOp50
 70
     1
102
RTVSPost2010Prop51ColorIndex
 90
      256
102
RTVSPost2010Prop51ColorRGB
 90
-16777216
102
RTVSPost2010PropOp51
 70
     0
102
RTVSPost2010Prop52
140
1.0
102
RTVSPost2010PropOp52
 70
     0
102
RTVSPost2010Prop53
 90
        2
102
RTVSPost2010PropOp53
 70
     1
102
RTVSPost2010Prop54
  1
strokes_ogs.tif
102
RTVSPost2010PropOp54
 70
     1
102
RTVSPost2010Prop55
280
     0
102
RTVSPost2010PropOp55
 70
     1
102
RTVSPost2010Prop56
140
1.0
102
RTVSPost2010PropOp56
 70
     1
102
RTVSPost2010Prop57
140
1.0
102
RTVSPost2010PropOp57
 70
     1
102
RTVSPropertyOp0
 70
     1
102
RTVSPropertyOp1
 70
     1
102
RTVSPropertyOp2
 70
     1
102
RTVSPropertyOp3
 70
     1
102
RTVSPropertyOp4
 70
     1
102
RTVSPropertyOp5
 70
     1
102
RTVSPropertyOp6
 70
     1
102
RTVSPropertyOp7
 70
     1
102
RTVSPropertyOp8
 70
     1
102
RTVSPropertyOp9
 70
     1
102
RTVSPropertyOp10
 70
     1
102
RTVSPropertyOp11
 70
     1
102
RTVSPropertyOp12
 70
     1
102
RTVSPropertyOp13
 70
     1
102
RTVSPropertyOp14
 70
     1
102
RTVSPropertyOp15
 70
     1
102
RTVSPropertyOp16
 70
     1
102
RTVSPropertyOp17
 70
     1
102
RTVSPropertyOp18
 70
     1
102
RTVSPropertyOp19
 70
     1
102
RTVSPropertyOp20
 70
     1
102
RTVSPropertyOp21
 70
     1
102
RTVSPropertyOp22
 70
     1
102
RTVSPropertyOp23
 70
     1
102
RTVSPropertyOp24
 70
     1
102
RTVSPropertyOp25
 70
     1
102
RTVSPropertyOp26
 70
     1
102
RTVSPropertyOp27
 70
     1
102
RTVSPropertyOp28
 70
     1
102
RTVSPropertyOp29
 70
     1
102
RTVSPropertyOp30
 70
     1
102
RTVSPropertyOp31
 70
     1
102
RTVSPropertyOp32
 70
     1
102
RTVSPropertyOp33
 70
     1
102
RTVSPropertyOp34
 70
     1
102
RTVSPropertyOp35
 70
     1
102
RTVSPropertyOp36
 70
     1
102
RTVSPropertyOp37
 70
     1
102
RTVSPropertyOp38
 70
     1
102
RTVSPropertyOp39
 70
     1
102
RTVSPropertyOp40
 70
     1
102
RTVSPropertyOp41
 70
     1
102
RTVSPropertyOp42
 70
     1
102
RTVSPropertyOp43
 70
     1
102
RTVSPropertyOp44
 70
     1
102
RTVSPropertyOp45
 70
     1
102
RTVSPropertyOp46
 70
     1
102
RTVSPropertyOp47
 70
     1
102
RTVSPropertyOp48
 70
     1
102
RTVSPropertyOp49
 70
     1
102
RTVSPropertyOp50
 70
     1
102
RTVSPropertyOp51
 70
     0
102
RTVSPropertyOp52
 70
     0
102
RTVSPropertyOp53
 70
     1
102
RTVSPropertyOp54
 70
     1
102
RTVSPropertyOp55
 70
     1
102
RTVSPropertyOp56
 70
     1
102
RTVSPropertyOp57
 70
     1
102
RTVSPropertyOp58
 70
     1
102
RTVSPropertyOp59
 70
     1
102
RTVSPropertyOp60
 70
     1
102
RTVSPropertyOp61
 70
     1
102
RTVSPropertyOp62
 70
     1
  0
XRECORD
  5
EAD7
102
{ACAD_REACTORS
330
EAD6
102
}
330
EAD6
100
AcDbXrecord
280
     1
102
RTVSPost2010Prop28
280
     0
102
RTVSPost2010PropOp28
 70
     1
102
RTVSPost2010Prop29
280
     1
102
RTVSPost2010PropOp29
 70
     1
102
RTVSPost2010Prop30
280
     1
102
RTVSPost2010PropOp30
 70
     1
102
RTVSPost2010Prop31
280
     0
102
RTVSPost2010PropOp31
 70
     1
102
RTVSPost2010Prop32
280
     0
102
RTVSPost2010PropOp32
 70
     1
102
RTVSPost2010Prop33
280
     0
102
RTVSPost2010PropOp33
 70
     1
102
RTVSPost2010Prop34
280
     0
102
RTVSPost2010PropOp34
 70
     1
102
RTVSPost2010Prop35
280
     0
102
RTVSPost2010PropOp35
 70
     1
102
RTVSPost2010Prop36
280
     0
102
RTVSPost2010PropOp36
 70
     1
102
RTVSPost2010Prop37
 90
       50
102
RTVSPost2010PropOp37
 70
     1
102
RTVSPost2010Prop38
140
0.0
102
RTVSPost2010PropOp38
 70
     1
102
RTVSPost2010Prop39
140
1.0
102
RTVSPost2010PropOp39
 70
     1
102
RTVSPost2010Prop40
 90
        0
102
RTVSPost2010PropOp40
 70
     1
102
RTVSPost2010Prop41ColorIndex
 90
       18
102
RTVSPost2010Prop41ColorRGB
 90
        0
102
RTVSPost2010PropOp41
 70
     1
102
RTVSPost2010Prop42
 90
       50
102
RTVSPost2010PropOp42
 70
     1
102
RTVSPost2010Prop43
 90
        3
102
RTVSPost2010PropOp43
 70
     1
102
RTVSPost2010Prop44ColorIndex
 90
        5
102
RTVSPost2010Prop44ColorRGB
 90
      255
102
RTVSPost2010PropOp44
 70
     1
102
RTVSPost2010Prop45
280
     0
102
RTVSPost2010PropOp45
 70
     1
102
RTVSPost2010Prop46
 90
       50
102
RTVSPost2010PropOp46
 70
     1
102
RTVSPost2010Prop47
 90
       50
102
RTVSPost2010PropOp47
 70
     1
102
RTVSPost2010Prop48
 90
       50
102
RTVSPost2010PropOp48
 70
     1
102
RTVSPost2010Prop49
280
     0
102
RTVSPost2010PropOp49
 70
     1
102
RTVSPost2010Prop50
 90
       50
102
RTVSPost2010PropOp50
 70
     1
102
RTVSPost2010Prop51ColorIndex
 90
      256
102
RTVSPost2010Prop51ColorRGB
 90
-16777216
102
RTVSPost2010PropOp51
 70
     0
102
RTVSPost2010Prop52
140
1.0
102
RTVSPost2010PropOp52
 70
     0
102
RTVSPost2010Prop53
 90
        2
102
RTVSPost2010PropOp53
 70
     1
102
RTVSPost2010Prop54
  1
strokes_ogs.tif
102
RTVSPost2010PropOp54
 70
     1
102
RTVSPost2010Prop55
280
     0
102
RTVSPost2010PropOp55
 70
     1
102
RTVSPost2010Prop56
140
1.0
102
RTVSPost2010PropOp56
 70
     1
102
RTVSPost2010Prop57
140
1.0
102
RTVSPost2010PropOp57
 70
     1
102
RTVSPropertyOp0
 70
     1
102
RTVSPropertyOp1
 70
     1
102
RTVSPropertyOp2
 70
     1
102
RTVSPropertyOp3
 70
     1
102
RTVSPropertyOp4
 70
     1
102
RTVSPropertyOp5
 70
     1
102
RTVSPropertyOp6
 70
     1
102
RTVSPropertyOp7
 70
     1
102
RTVSPropertyOp8
 70
     1
102
RTVSPropertyOp9
 70
     1
102
RTVSPropertyOp10
 70
     1
102
RTVSPropertyOp11
 70
     1
102
RTVSPropertyOp12
 70
     1
102
RTVSPropertyOp13
 70
     1
102
RTVSPropertyOp14
 70
     1
102
RTVSPropertyOp15
 70
     1
102
RTVSPropertyOp16
 70
     1
102
RTVSPropertyOp17
 70
     1
102
RTVSPropertyOp18
 70
     1
102
RTVSPropertyOp19
 70
     1
102
RTVSPropertyOp20
 70
     1
102
RTVSPropertyOp21
 70
     1
102
RTVSPropertyOp22
 70
     1
102
RTVSPropertyOp23
 70
     1
102
RTVSPropertyOp24
 70
     1
102
RTVSPropertyOp25
 70
     1
102
RTVSPropertyOp26
 70
     1
102
RTVSPropertyOp27
 70
     1
102
RTVSPropertyOp28
 70
     1
102
RTVSPropertyOp29
 70
     1
102
RTVSPropertyOp30
 70
     1
102
RTVSPropertyOp31
 70
     1
102
RTVSPropertyOp32
 70
     1
102
RTVSPropertyOp33
 70
     1
102
RTVSPropertyOp34
 70
     1
102
RTVSPropertyOp35
 70
     1
102
RTVSPropertyOp36
 70
     1
102
RTVSPropertyOp37
 70
     1
102
RTVSPropertyOp38
 70
     1
102
RTVSPropertyOp39
 70
     1
102
RTVSPropertyOp40
 70
     1
102
RTVSPropertyOp41
 70
     1
102
RTVSPropertyOp42
 70
     1
102
RTVSPropertyOp43
 70
     1
102
RTVSPropertyOp44
 70
     1
102
RTVSPropertyOp45
 70
     1
102
RTVSPropertyOp46
 70
     1
102
RTVSPropertyOp47
 70
     1
102
RTVSPropertyOp48
 70
     1
102
RTVSPropertyOp49
 70
     1
102
RTVSPropertyOp50
 70
     1
102
RTVSPropertyOp51
 70
     0
102
RTVSPropertyOp52
 70
     0
102
RTVSPropertyOp53
 70
     1
102
RTVSPropertyOp54
 70
     1
102
RTVSPropertyOp55
 70
     1
102
RTVSPropertyOp56
 70
     1
102
RTVSPropertyOp57
 70
     1
102
RTVSPropertyOp58
 70
     1
102
RTVSPropertyOp59
 70
     1
102
RTVSPropertyOp60
 70
     1
102
RTVSPropertyOp61
 70
     1
102
RTVSPropertyOp62
 70
     1
  0
XRECORD
  5
EAEE
102
{ACAD_REACTORS
330
EAED
102
}
330
EAED
100
AcDbXrecord
280
     1
102
RTVSPost2010Prop28
280
     0
102
RTVSPost2010PropOp28
 70
     1
102
RTVSPost2010Prop29
280
     1
102
RTVSPost2010PropOp29
 70
     1
102
RTVSPost2010Prop30
280
     1
102
RTVSPost2010PropOp30
 70
     1
102
RTVSPost2010Prop31
280
     0
102
RTVSPost2010PropOp31
 70
     1
102
RTVSPost2010Prop32
280
     0
102
RTVSPost2010PropOp32
 70
     1
102
RTVSPost2010Prop33
280
     0
102
RTVSPost2010PropOp33
 70
     1
102
RTVSPost2010Prop34
280
     0
102
RTVSPost2010PropOp34
 70
     1
102
RTVSPost2010Prop35
280
     0
102
RTVSPost2010PropOp35
 70
     1
102
RTVSPost2010Prop36
280
     0
102
RTVSPost2010PropOp36
 70
     1
102
RTVSPost2010Prop37
 90
       50
102
RTVSPost2010PropOp37
 70
     1
102
RTVSPost2010Prop38
140
0.0
102
RTVSPost2010PropOp38
 70
     1
102
RTVSPost2010Prop39
140
1.0
102
RTVSPost2010PropOp39
 70
     1
102
RTVSPost2010Prop40
 90
        0
102
RTVSPost2010PropOp40
 70
     1
102
RTVSPost2010Prop41ColorIndex
 90
       18
102
RTVSPost2010Prop41ColorRGB
 90
        0
102
RTVSPost2010PropOp41
 70
     1
102
RTVSPost2010Prop42
 90
       50
102
RTVSPost2010PropOp42
 70
     1
102
RTVSPost2010Prop43
 90
        3
102
RTVSPost2010PropOp43
 70
     1
102
RTVSPost2010Prop44ColorIndex
 90
        5
102
RTVSPost2010Prop44ColorRGB
 90
      255
102
RTVSPost2010PropOp44
 70
     1
102
RTVSPost2010Prop45
280
     0
102
RTVSPost2010PropOp45
 70
     1
102
RTVSPost2010Prop46
 90
       50
102
RTVSPost2010PropOp46
 70
     1
102
RTVSPost2010Prop47
 90
       50
102
RTVSPost2010PropOp47
 70
     1
102
RTVSPost2010Prop48
 90
       50
102
RTVSPost2010PropOp48
 70
     1
102
RTVSPost2010Prop49
280
     0
102
RTVSPost2010PropOp49
 70
     1
102
RTVSPost2010Prop50
 90
       50
102
RTVSPost2010PropOp50
 70
     1
102
RTVSPost2010Prop51ColorIndex
 90
      256
102
RTVSPost2010Prop51ColorRGB
 90
-16777216
102
RTVSPost2010PropOp51
 70
     0
102
RTVSPost2010Prop52
140
1.0
102
RTVSPost2010PropOp52
 70
     0
102
RTVSPost2010Prop53
 90
        2
102
RTVSPost2010PropOp53
 70
     1
102
RTVSPost2010Prop54
  1
strokes_ogs.tif
102
RTVSPost2010PropOp54
 70
     1
102
RTVSPost2010Prop55
280
     0
102
RTVSPost2010PropOp55
 70
     1
102
RTVSPost2010Prop56
140
1.0
102
RTVSPost2010PropOp56
 70
     1
102
RTVSPost2010Prop57
140
1.0
102
RTVSPost2010PropOp57
 70
     1
102
RTVSPropertyOp0
 70
     1
102
RTVSPropertyOp1
 70
     1
102
RTVSPropertyOp2
 70
     1
102
RTVSPropertyOp3
 70
     1
102
RTVSPropertyOp4
 70
     1
102
RTVSPropertyOp5
 70
     1
102
RTVSPropertyOp6
 70
     1
102
RTVSPropertyOp7
 70
     1
102
RTVSPropertyOp8
 70
     1
102
RTVSPropertyOp9
 70
     1
102
RTVSPropertyOp10
 70
     1
102
RTVSPropertyOp11
 70
     1
102
RTVSPropertyOp12
 70
     1
102
RTVSPropertyOp13
 70
     1
102
RTVSPropertyOp14
 70
     1
102
RTVSPropertyOp15
 70
     1
102
RTVSPropertyOp16
 70
     1
102
RTVSPropertyOp17
 70
     1
102
RTVSPropertyOp18
 70
     1
102
RTVSPropertyOp19
 70
     1
102
RTVSPropertyOp20
 70
     1
102
RTVSPropertyOp21
 70
     1
102
RTVSPropertyOp22
 70
     1
102
RTVSPropertyOp23
 70
     1
102
RTVSPropertyOp24
 70
     1
102
RTVSPropertyOp25
 70
     1
102
RTVSPropertyOp26
 70
     1
102
RTVSPropertyOp27
 70
     1
102
RTVSPropertyOp28
 70
     1
102
RTVSPropertyOp29
 70
     1
102
RTVSPropertyOp30
 70
     1
102
RTVSPropertyOp31
 70
     1
102
RTVSPropertyOp32
 70
     1
102
RTVSPropertyOp33
 70
     1
102
RTVSPropertyOp34
 70
     1
102
RTVSPropertyOp35
 70
     1
102
RTVSPropertyOp36
 70
     1
102
RTVSPropertyOp37
 70
     1
102
RTVSPropertyOp38
 70
     1
102
RTVSPropertyOp39
 70
     1
102
RTVSPropertyOp40
 70
     1
102
RTVSPropertyOp41
 70
     1
102
RTVSPropertyOp42
 70
     1
102
RTVSPropertyOp43
 70
     1
102
RTVSPropertyOp44
 70
     1
102
RTVSPropertyOp45
 70
     1
102
RTVSPropertyOp46
 70
     1
102
RTVSPropertyOp47
 70
     1
102
RTVSPropertyOp48
 70
     1
102
RTVSPropertyOp49
 70
     1
102
RTVSPropertyOp50
 70
     1
102
RTVSPropertyOp51
 70
     0
102
RTVSPropertyOp52
 70
     0
102
RTVSPropertyOp53
 70
     1
102
RTVSPropertyOp54
 70
     1
102
RTVSPropertyOp55
 70
     1
102
RTVSPropertyOp56
 70
     1
102
RTVSPropertyOp57
 70
     1
102
RTVSPropertyOp58
 70
     1
102
RTVSPropertyOp59
 70
     1
102
RTVSPropertyOp60
 70
     1
102
RTVSPropertyOp61
 70
     1
102
RTVSPropertyOp62
 70
     1
  0
XRECORD
  5
EAF6
102
{ACAD_REACTORS
330
EAF5
102
}
330
EAF5
100
AcDbXrecord
280
     1
102
RTVSPost2010Prop28
280
     0
102
RTVSPost2010PropOp28
 70
     1
102
RTVSPost2010Prop29
280
     1
102
RTVSPost2010PropOp29
 70
     1
102
RTVSPost2010Prop30
280
     1
102
RTVSPost2010PropOp30
 70
     1
102
RTVSPost2010Prop31
280
     0
102
RTVSPost2010PropOp31
 70
     1
102
RTVSPost2010Prop32
280
     0
102
RTVSPost2010PropOp32
 70
     1
102
RTVSPost2010Prop33
280
     0
102
RTVSPost2010PropOp33
 70
     1
102
RTVSPost2010Prop34
280
     0
102
RTVSPost2010PropOp34
 70
     1
102
RTVSPost2010Prop35
280
     0
102
RTVSPost2010PropOp35
 70
     1
102
RTVSPost2010Prop36
280
     0
102
RTVSPost2010PropOp36
 70
     1
102
RTVSPost2010Prop37
 90
       50
102
RTVSPost2010PropOp37
 70
     1
102
RTVSPost2010Prop38
140
0.0
102
RTVSPost2010PropOp38
 70
     1
102
RTVSPost2010Prop39
140
1.0
102
RTVSPost2010PropOp39
 70
     1
102
RTVSPost2010Prop40
 90
        0
102
RTVSPost2010PropOp40
 70
     1
102
RTVSPost2010Prop41ColorIndex
 90
       18
102
RTVSPost2010Prop41ColorRGB
 90
        0
102
RTVSPost2010PropOp41
 70
     1
102
RTVSPost2010Prop42
 90
       50
102
RTVSPost2010PropOp42
 70
     1
102
RTVSPost2010Prop43
 90
        3
102
RTVSPost2010PropOp43
 70
     1
102
RTVSPost2010Prop44ColorIndex
 90
        5
102
RTVSPost2010Prop44ColorRGB
 90
      255
102
RTVSPost2010PropOp44
 70
     1
102
RTVSPost2010Prop45
280
     0
102
RTVSPost2010PropOp45
 70
     1
102
RTVSPost2010Prop46
 90
       50
102
RTVSPost2010PropOp46
 70
     1
102
RTVSPost2010Prop47
 90
       50
102
RTVSPost2010PropOp47
 70
     1
102
RTVSPost2010Prop48
 90
       50
102
RTVSPost2010PropOp48
 70
     1
102
RTVSPost2010Prop49
280
     0
102
RTVSPost2010PropOp49
 70
     1
102
RTVSPost2010Prop50
 90
       50
102
RTVSPost2010PropOp50
 70
     1
102
RTVSPost2010Prop51ColorIndex
 90
      256
102
RTVSPost2010Prop51ColorRGB
 90
-16777216
102
RTVSPost2010PropOp51
 70
     0
102
RTVSPost2010Prop52
140
1.0
102
RTVSPost2010PropOp52
 70
     0
102
RTVSPost2010Prop53
 90
        2
102
RTVSPost2010PropOp53
 70
     1
102
RTVSPost2010Prop54
  1
strokes_ogs.tif
102
RTVSPost2010PropOp54
 70
     1
102
RTVSPost2010Prop55
280
     0
102
RTVSPost2010PropOp55
 70
     1
102
RTVSPost2010Prop56
140
1.0
102
RTVSPost2010PropOp56
 70
     1
102
RTVSPost2010Prop57
140
1.0
102
RTVSPost2010PropOp57
 70
     1
102
RTVSPropertyOp0
 70
     1
102
RTVSPropertyOp1
 70
     1
102
RTVSPropertyOp2
 70
     1
102
RTVSPropertyOp3
 70
     1
102
RTVSPropertyOp4
 70
     1
102
RTVSPropertyOp5
 70
     1
102
RTVSPropertyOp6
 70
     1
102
RTVSPropertyOp7
 70
     1
102
RTVSPropertyOp8
 70
     1
102
RTVSPropertyOp9
 70
     1
102
RTVSPropertyOp10
 70
     1
102
RTVSPropertyOp11
 70
     1
102
RTVSPropertyOp12
 70
     1
102
RTVSPropertyOp13
 70
     1
102
RTVSPropertyOp14
 70
     1
102
RTVSPropertyOp15
 70
     1
102
RTVSPropertyOp16
 70
     1
102
RTVSPropertyOp17
 70
     1
102
RTVSPropertyOp18
 70
     1
102
RTVSPropertyOp19
 70
     1
102
RTVSPropertyOp20
 70
     1
102
RTVSPropertyOp21
 70
     1
102
RTVSPropertyOp22
 70
     1
102
RTVSPropertyOp23
 70
     1
102
RTVSPropertyOp24
 70
     1
102
RTVSPropertyOp25
 70
     1
102
RTVSPropertyOp26
 70
     1
102
RTVSPropertyOp27
 70
     1
102
RTVSPropertyOp28
 70
     1
102
RTVSPropertyOp29
 70
     1
102
RTVSPropertyOp30
 70
     1
102
RTVSPropertyOp31
 70
     1
102
RTVSPropertyOp32
 70
     1
102
RTVSPropertyOp33
 70
     1
102
RTVSPropertyOp34
 70
     1
102
RTVSPropertyOp35
 70
     1
102
RTVSPropertyOp36
 70
     1
102
RTVSPropertyOp37
 70
     1
102
RTVSPropertyOp38
 70
     1
102
RTVSPropertyOp39
 70
     1
102
RTVSPropertyOp40
 70
     1
102
RTVSPropertyOp41
 70
     1
102
RTVSPropertyOp42
 70
     1
102
RTVSPropertyOp43
 70
     1
102
RTVSPropertyOp44
 70
     1
102
RTVSPropertyOp45
 70
     1
102
RTVSPropertyOp46
 70
     1
102
RTVSPropertyOp47
 70
     1
102
RTVSPropertyOp48
 70
     1
102
RTVSPropertyOp49
 70
     1
102
RTVSPropertyOp50
 70
     1
102
RTVSPropertyOp51
 70
     0
102
RTVSPropertyOp52
 70
     0
102
RTVSPropertyOp53
 70
     1
102
RTVSPropertyOp54
 70
     1
102
RTVSPropertyOp55
 70
     1
102
RTVSPropertyOp56
 70
     1
102
RTVSPropertyOp57
 70
     1
102
RTVSPropertyOp58
 70
     1
102
RTVSPropertyOp59
 70
     1
102
RTVSPropertyOp60
 70
     1
102
RTVSPropertyOp61
 70
     1
102
RTVSPropertyOp62
 70
     1
  0
ENDSEC
  0
EOF

