  0
SECTION
  2
HEADER
  9
$ACADVER
  1
AC1024
  9
$ACADMAINTVER
 70
   205
  9
$DWGCODEPAGE
  3
ANSI_932
  9
$LASTSAVEDBY
  1
it150
  9
$INSBASE
 10
0.0
 20
0.0
 30
0.0
  9
$EXTMIN
 10
410.4544658841341
 20
89.77327626917178
 30
-0.0015258207003583
  9
$EXTMAX
 10
575.6965431964763
 20
345.9290295269022
 30
0.0000000349246037
  9
$LIMMIN
 10
0.0
 20
0.0
  9
$LIMMAX
 10
297.0
 20
210.0
  9
$ORTHOMODE
 70
     0
  9
$REGENMODE
 70
     1
  9
$FILLMODE
 70
     1
  9
$QTEXTMODE
 70
     0
  9
$MIRRTEXT
 70
     0
  9
$LTSCALE
 40
0.4
  9
$ATTMODE
 70
     1
  9
$TEXTSIZE
 40
5.0
  9
$TRACEWID
 40
1.0
  9
$TEXTSTYLE
  7
Standard
  9
$CLAYER
  8
01_表面形状
  9
$CELTYPE
  6
ByLayer
  9
$CECOLOR
 62
   256
  9
$CELTSCALE
 40
1.0
  9
$DISPSILH
 70
     0
  9
$DIMSCALE
 40
1.0
  9
$DIMASZ
 40
2.5
  9
$DIMEXO
 40
1.0
  9
$DIMDLI
 40
10.0
  9
$DIMRND
 40
0.0
  9
$DIMDLE
 40
0.0
  9
$DIMEXE
 40
1.0
  9
$DIMTP
 40
0.1
  9
$DIMTM
 40
0.1
  9
$DIMTXT
 40
2.5
  9
$DIMCEN
 40
0.0
  9
$DIMTSZ
 40
0.0
  9
$DIMTOL
 70
     0
  9
$DIMLIM
 70
     0
  9
$DIMTIH
 70
     0
  9
$DIMTOH
 70
     0
  9
$DIMSE1
 70
     0
  9
$DIMSE2
 70
     0
  9
$DIMTAD
 70
     3
  9
$DIMZIN
 70
     8
  9
$DIMBLK
  1

  9
$DIMASO
 70
     1
  9
$DIMSHO
 70
     1
  9
$DIMPOST
  1

  9
$DIMAPOST
  1

  9
$DIMALT
 70
     0
  9
$DIMALTD
 70
     2
  9
$DIMALTF
 40
25.4
  9
$DIMLFAC
 40
1.0
  9
$DIMTOFL
 70
     1
  9
$DIMTVP
 40
0.0
  9
$DIMTIX
 70
     0
  9
$DIMSOXD
 70
     0
  9
$DIMSAH
 70
     0
  9
$DIMBLK1
  1

  9
$DIMBLK2
  1

  9
$DIMSTYLE
  2
部品図用_1：1
  9
$DIMCLRD
 70
   256
  9
$DIMCLRE
 70
   256
  9
$DIMCLRT
 70
   256
  9
$DIMTFAC
 40
0.7
  9
$DIMGAP
 40
1.0
  9
$DIMJUST
 70
     0
  9
$DIMSD1
 70
     0
  9
$DIMSD2
 70
     0
  9
$DIMTOLJ
 70
     0
  9
$DIMTZIN
 70
     0
  9
$DIMALTZ
 70
     0
  9
$DIMALTTZ
 70
     0
  9
$DIMUPT
 70
     0
  9
$DIMDEC
 70
     2
  9
$DIMTDEC
 70
     2
  9
$DIMALTU
 70
     2
  9
$DIMALTTD
 70
     2
  9
$DIMTXSTY
  7
Standard
  9
$DIMAUNIT
 70
     0
  9
$DIMADEC
 70
     2
  9
$DIMALTRND
 40
0.0
  9
$DIMAZIN
 70
     2
  9
$DIMDSEP
 70
    46
  9
$DIMATFIT
 70
     3
  9
$DIMFRAC
 70
     0
  9
$DIMLDRBLK
  1

  9
$DIMLUNIT
 70
     2
  9
$DIMLWD
 70
    -1
  9
$DIMLWE
 70
    -1
  9
$DIMTMOVE
 70
     0
  9
$DIMFXL
 40
1.0
  9
$DIMFXLON
 70
     0
  9
$DIMJOGANG
 40
0.7853981633974483
  9
$DIMTFILL
 70
     0
  9
$DIMTFILLCLR
 70
     0
  9
$DIMARCSYM
 70
     1
  9
$DIMLTYPE
  6
ByLayer
  9
$DIMLTEX1
  6
ByLayer
  9
$DIMLTEX2
  6
ByLayer
  9
$DIMTXTDIRECTION
 70
     0
  9
$LUNITS
 70
     2
  9
$LUPREC
 70
     2
  9
$SKETCHINC
 40
1.0
  9
$FILLETRAD
 40
0.0
  9
$AUNITS
 70
     1
  9
$AUPREC
 70
     3
  9
$MENU
  1
.
  9
$ELEVATION
 40
0.0
  9
$PELEVATION
 40
0.0
  9
$THICKNESS
 40
0.0
  9
$LIMCHECK
 70
     0
  9
$CHAMFERA
 40
0.0
  9
$CHAMFERB
 40
0.0
  9
$CHAMFERC
 40
0.0
  9
$CHAMFERD
 40
0.0
  9
$SKPOLY
 70
     0
  9
$TDCREATE
 40
2457987.640277778
  9
$TDUCREATE
 40
2457987.265277778
  9
$TDUPDATE
 40
2457998.419005937
  9
$TDUUPDATE
 40
2457998.044005937
  9
$TDINDWG
 40
0.0115823958
  9
$TDUSRTIMER
 40
0.0115823958
  9
$USRTIMER
 70
     1
  9
$ANGBASE
 50
0.0
  9
$ANGDIR
 70
     0
  9
$PDMODE
 70
     3
  9
$PDSIZE
 40
0.0
  9
$PLINEWID
 40
0.0
  9
$SPLFRAME
 70
     0
  9
$SPLINETYPE
 70
     6
  9
$SPLINESEGS
 70
     8
  9
$HANDSEED
  5
F16C
  9
$SURFTAB1
 70
     6
  9
$SURFTAB2
 70
     6
  9
$SURFTYPE
 70
     6
  9
$SURFU
 70
     6
  9
$SURFV
 70
     6
  9
$UCSBASE
  2

  9
$UCSNAME
  2

  9
$UCSORG
 10
0.0
 20
0.0
 30
0.0
  9
$UCSXDIR
 10
1.0
 20
0.0
 30
0.0
  9
$UCSYDIR
 10
0.0
 20
1.0
 30
0.0
  9
$UCSORTHOREF
  2

  9
$UCSORTHOVIEW
 70
     0
  9
$UCSORGTOP
 10
0.0
 20
0.0
 30
0.0
  9
$UCSORGBOTTOM
 10
0.0
 20
0.0
 30
0.0
  9
$UCSORGLEFT
 10
0.0
 20
0.0
 30
0.0
  9
$UCSORGRIGHT
 10
0.0
 20
0.0
 30
0.0
  9
$UCSORGFRONT
 10
0.0
 20
0.0
 30
0.0
  9
$UCSORGBACK
 10
0.0
 20
0.0
 30
0.0
  9
$PUCSBASE
  2

  9
$PUCSNAME
  2

  9
$PUCSORG
 10
0.0
 20
0.0
 30
0.0
  9
$PUCSXDIR
 10
1.0
 20
0.0
 30
0.0
  9
$PUCSYDIR
 10
0.0
 20
1.0
 30
0.0
  9
$PUCSORTHOREF
  2

  9
$PUCSORTHOVIEW
 70
     0
  9
$PUCSORGTOP
 10
0.0
 20
0.0
 30
0.0
  9
$PUCSORGBOTTOM
 10
0.0
 20
0.0
 30
0.0
  9
$PUCSORGLEFT
 10
0.0
 20
0.0
 30
0.0
  9
$PUCSORGRIGHT
 10
0.0
 20
0.0
 30
0.0
  9
$PUCSORGFRONT
 10
0.0
 20
0.0
 30
0.0
  9
$PUCSORGBACK
 10
0.0
 20
0.0
 30
0.0
  9
$USERI1
 70
     0
  9
$USERI2
 70
     0
  9
$USERI3
 70
     0
  9
$USERI4
 70
     0
  9
$USERI5
 70
     0
  9
$USERR1
 40
0.0
  9
$USERR2
 40
0.0
  9
$USERR3
 40
0.0
  9
$USERR4
 40
0.0
  9
$USERR5
 40
0.0
  9
$WORLDVIEW
 70
     1
  9
$SHADEDGE
 70
     3
  9
$SHADEDIF
 70
    70
  9
$TILEMODE
 70
     1
  9
$MAXACTVP
 70
    64
  9
$PINSBASE
 10
0.0
 20
0.0
 30
0.0
  9
$PLIMCHECK
 70
     0
  9
$PEXTMIN
 10
1.000000000000000E+20
 20
1.000000000000000E+20
 30
1.000000000000000E+20
  9
$PEXTMAX
 10
-1.000000000000000E+20
 20
-1.000000000000000E+20
 30
-1.000000000000000E+20
  9
$PLIMMIN
 10
-5.873748779296875
 20
-5.873749732971191
  9
$PLIMMAX
 10
291.1369018554688
 20
204.0995779037475
  9
$UNITMODE
 70
     0
  9
$VISRETAIN
 70
     1
  9
$PLINEGEN
 70
     0
  9
$PSLTSCALE
 70
     1
  9
$TREEDEPTH
 70
  3020
  9
$CMLSTYLE
  2
Standard
  9
$CMLJUST
 70
     0
  9
$CMLSCALE
 40
20.0
  9
$PROXYGRAPHICS
 70
     1
  9
$MEASUREMENT
 70
     1
  9
$CELWEIGHT
370
    -1
  9
$ENDCAPS
280
     0
  9
$JOINSTYLE
280
     0
  9
$LWDISPLAY
290
     0
  9
$INSUNITS
 70
     4
  9
$HYPERLINKBASE
  1

  9
$STYLESHEET
  1
monochrome.ctb
  9
$XEDIT
290
     1
  9
$CEPSNTYPE
380
     0
  9
$PSTYLEMODE
290
     1
  9
$FINGERPRINTGUID
  2
{57003DB5-EE24-A341-9700-AF92287ACF74}
  9
$VERSIONGUID
  2
{F902EAC0-BA74-4FF9-9DEE-AF5211519547}
  9
$EXTNAMES
290
     1
  9
$PSVPSCALE
 40
0.0
  9
$OLESTARTUP
290
     0
  9
$SORTENTS
280
   127
  9
$INDEXCTL
280
     0
  9
$HIDETEXT
280
     1
  9
$XCLIPFRAME
280
     2
  9
$HALOGAP
280
     0
  9
$OBSCOLOR
 70
   257
  9
$OBSLTYPE
280
     0
  9
$INTERSECTIONDISPLAY
280
     0
  9
$INTERSECTIONCOLOR
 70
   257
  9
$DIMASSOC
280
     2
  9
$PROJECTNAME
  1

  9
$CAMERADISPLAY
290
     0
  9
$LENSLENGTH
 40
50.0
  9
$CAMERAHEIGHT
 40
0.0
  9
$STEPSPERSEC
 40
2.0
  9
$STEPSIZE
 40
6.0
  9
$3DDWFPREC
 40
2.0
  9
$PSOLWIDTH
 40
0.25
  9
$PSOLHEIGHT
 40
4.0
  9
$LOFTANG1
 40
1.570796326794896
  9
$LOFTANG2
 40
1.570796326794896
  9
$LOFTMAG1
 40
0.0
  9
$LOFTMAG2
 40
0.0
  9
$LOFTPARAM
 70
     7
  9
$LOFTNORMALS
280
     1
  9
$LATITUDE
 40
37.795
  9
$LONGITUDE
 40
-122.394
  9
$NORTHDIRECTION
 40
0.0
  9
$TIMEZONE
 70
 -8000
  9
$LIGHTGLYPHDISPLAY
280
     1
  9
$TILEMODELIGHTSYNCH
280
     1
  9
$CMATERIAL
347
11
  9
$SOLIDHIST
280
     1
  9
$SHOWHIST
280
     1
  9
$DWFFRAME
280
     2
  9
$DGNFRAME
280
     0
  9
$REALWORLDSCALE
290
     1
  9
$INTERFERECOLOR
 62
     1
  9
$INTERFEREOBJVS
345
1E
  9
$INTERFEREVPVS
346
1B
  9
$CSHADOW
280
     0
  9
$SHADOWPLANELOCATION
 40
0.0
  0
ENDSEC
  0
SECTION
  2
CLASSES
  0
CLASS
  1
ACDBDICTIONARYWDFLT
  2
AcDbDictionaryWithDefault
  3
ObjectDBX Classes
 90
        0
 91
        1
280
     0
281
     0
  0
CLASS
  1
MATERIAL
  2
AcDbMaterial
  3
ObjectDBX Classes
 90
     1153
 91
        3
280
     0
281
     0
  0
CLASS
  1
VISUALSTYLE
  2
AcDbVisualStyle
  3
ObjectDBX Classes
 90
     4095
 91
       26
280
     0
281
     0
  0
CLASS
  1
TABLESTYLE
  2
AcDbTableStyle
  3
ObjectDBX Classes
 90
     4095
 91
        1
280
     0
281
     0
  0
CLASS
  1
DICTIONARYVAR
  2
AcDbDictionaryVar
  3
ObjectDBX Classes
 90
        0
 91
       14
280
     0
281
     0
  0
CLASS
  1
SORTENTSTABLE
  2
AcDbSortentsTable
  3
ObjectDBX Classes
 90
        0
 91
        2
280
     0
281
     0
  0
CLASS
  1
DIMASSOC
  2
AcDbDimAssoc
  3
"AcDbDimAssoc|Product Desc:     AcDim ARX App For Dimension|Company:          Autodesk, Inc.|WEB Address:      www.autodesk.com"
 90
        0
 91
        2
280
     0
281
     0
  0
CLASS
  1
SCALE
  2
AcDbScale
  3
ObjectDBX Classes
 90
     1153
 91
       17
280
     0
281
     0
  0
CLASS
  1
MLEADERSTYLE
  2
AcDbMLeaderStyle
  3
ACDB_MLEADERSTYLE_CLASS
 90
     4095
 91
        5
280
     0
281
     0
  0
CLASS
  1
CELLSTYLEMAP
  2
AcDbCellStyleMap
  3
ObjectDBX Classes
 90
     1152
 91
        1
280
     0
281
     0
  0
CLASS
  1
MULTILEADER
  2
AcDbMLeader
  3
ACDB_MLEADER_CLASS
 90
     1025
 91
        0
280
     0
281
     1
  0
CLASS
  1
ACAD_EVALUATION_GRAPH
  2
AcDbEvalGraph
  3
ObjectDBX Classes
 90
     1153
 91
        0
280
     0
281
     0
  0
CLASS
  1
ACAECUSTOBJ
  2
AcAeEditorObj
  3
AcAeEditorObj
 90
     1024
 91
        0
280
     0
281
     0
  0
CLASS
  1
PLOTSETTINGS
  2
AcDbPlotSettings
  3
ObjectDBX Classes
 90
        0
 91
        2
280
     0
281
     0
  0
CLASS
  1
ACDBSECTIONVIEWSTYLE
  2
AcDbSectionViewStyle
  3
ObjectDBX Classes
 90
     1025
 91
        1
280
     0
281
     0
  0
CLASS
  1
ACDBDETAILVIEWSTYLE
  2
AcDbDetailViewStyle
  3
ObjectDBX Classes
 90
     1025
 91
        1
280
     0
281
     0
  0
ENDSEC
  0
SECTION
  2
TABLES
  0
TABLE
  2
VPORT
  5
8
102
{ACAD_XDICTIONARY
360
366A
102
}
330
0
100
AcDbSymbolTable
 70
     1
  0
VPORT
  5
28
330
8
100
AcDbSymbolTableRecord
100
AcDbViewportTableRecord
  2
*Active
 70
     0
 10
0.0
 20
0.0
 11
1.0
 21
1.0
 12
493.0755045403052
 22
217.851152898037
 13
0.0
 23
0.0
 14
10.0
 24
10.0
 15
10.0
 25
10.0
 16
0.0
 26
0.0
 36
1.0
 17
0.0
 27
0.0
 37
0.0
 40
258.1388945732742
 41
1.996124031007752
 42
50.0
 43
0.0
 44
0.0
 50
0.0
 51
0.0
 71
     0
 72
  1000
 73
     1
 74
     3
 75
     0
 76
     0
 77
     0
 78
     0
281
     0
 65
     1
110
0.0
120
0.0
130
0.0
111
1.0
121
0.0
131
0.0
112
0.0
122
1.0
132
0.0
 79
     0
146
0.0
348
1A
 60
     3
 61
     5
292
     1
282
     1
141
0.0
142
0.0
 63
   250
421
  3355443
1001
ACAD_NAV_VCDISPLAY
1070
     3
  0
ENDTAB
  0
TABLE
  2
LTYPE
  5
5
330
0
100
AcDbSymbolTable
 70
     4
  0
LTYPE
  5
29
330
5
100
AcDbSymbolTableRecord
100
AcDbLinetypeTableRecord
  2
ByBlock
 70
     0
  3

 72
    65
 73
     0
 40
0.0
  0
LTYPE
  5
2A
330
5
100
AcDbSymbolTableRecord
100
AcDbLinetypeTableRecord
  2
ByLayer
 70
     0
  3

 72
    65
 73
     0
 40
0.0
  0
LTYPE
  5
2B
330
5
100
AcDbSymbolTableRecord
100
AcDbLinetypeTableRecord
  2
Continuous
 70
     0
  3
Solid line
 72
    65
 73
     0
 40
0.0
  0
LTYPE
  5
1829
330
5
100
AcDbSymbolTableRecord
100
AcDbLinetypeTableRecord
  2
CENTER
 70
     0
  3
Center ____ _ ____ _ ____ _ ____ _ ____ _ ____
 72
    65
 73
     4
 40
50.8
 49
31.75
 74
     0
 49
-6.349999999999999
 74
     0
 49
6.349999999999999
 74
     0
 49
-6.349999999999999
 74
     0
  0
ENDTAB
  0
TABLE
  2
LAYER
  5
2
102
{ACAD_XDICTIONARY
360
81
102
}
330
0
100
AcDbSymbolTable
 70
    19
  0
LAYER
  5
25
102
{ACAD_XDICTIONARY
360
3620
102
}
330
2
100
AcDbSymbolTableRecord
100
AcDbLayerTableRecord
  2
0
 70
     0
 62
     7
  6
Continuous
370
    13
390
F
347
13
  0
LAYER
  5
75
102
{ACAD_XDICTIONARY
360
3622
102
}
330
2
100
AcDbSymbolTableRecord
100
AcDbLayerTableRecord
  2
01_表面形状
 70
     0
 62
     7
  6
Continuous
370
    35
390
F
347
13
1001
AcAecLayerStandard
1000

1000

  0
LAYER
  5
77
102
{ACAD_XDICTIONARY
360
3624
102
}
330
2
100
AcDbSymbolTableRecord
100
AcDbLayerTableRecord
  2
04_中心線
 70
     0
 62
     4
  6
CENTER
370
    18
390
F
347
13
1001
AcAecLayerStandard
1000

1000

  0
LAYER
  5
7C
102
{ACAD_XDICTIONARY
360
362E
102
}
330
2
100
AcDbSymbolTableRecord
100
AcDbLayerTableRecord
  2
12_文字
 70
     0
 62
     2
  6
Continuous
370
    25
390
F
347
13
1001
AcAecLayerStandard
1000

1000

  0
LAYER
  5
1EA
102
{ACAD_XDICTIONARY
360
93D8
102
}
330
2
100
AcDbSymbolTableRecord
100
AcDbLayerTableRecord
  2
Defpoints
 70
     0
 62
     7
  6
Continuous
290
     0
370
    -3
390
F
347
13
  0
LAYER
  5
ECFE
102
{ACAD_XDICTIONARY
360
ECFF
102
}
330
2
100
AcDbSymbolTableRecord
100
AcDbLayerTableRecord
  2
CENTER
 70
     0
 62
     2
  6
CENTER
370
    -3
390
F
347
13
  0
ENDTAB
  0
TABLE
  2
STYLE
  5
3
330
0
100
AcDbSymbolTable
 70
     2
  0
STYLE
  5
26
330
3
100
AcDbSymbolTableRecord
100
AcDbTextStyleTableRecord
  2
Standard
 70
     0
 40
0.0
 41
1.0
 50
0.0
 71
     0
 42
5.0
  3
isocp.shx
  4
extfont2.shx
  0
STYLE
  5
E28E
330
3
100
AcDbSymbolTableRecord
100
AcDbTextStyleTableRecord
  2
MX_NOTE_STANDARD
 70
     0
 40
0.0
 41
1.0
 50
0.0
 71
     0
 42
3.299999999999999
  3
txt.shx
  4
extfont.shx
  0
ENDTAB
  0
TABLE
  2
VIEW
  5
6
330
0
100
AcDbSymbolTable
 70
     0
  0
ENDTAB
  0
TABLE
  2
UCS
  5
7
330
0
100
AcDbSymbolTable
 70
     0
  0
ENDTAB
  0
TABLE
  2
APPID
  5
9
330
0
100
AcDbSymbolTable
 70
    38
  0
APPID
  5
27
330
9
100
AcDbSymbolTableRecord
100
AcDbRegAppTableRecord
  2
ACAD
 70
     0
  0
APPID
  5
76
330
9
100
AcDbSymbolTableRecord
100
AcDbRegAppTableRecord
  2
AcAecLayerStandard
 70
     0
  0
APPID
  5
117
330
9
100
AcDbSymbolTableRecord
100
AcDbRegAppTableRecord
  2
ACAD_PSEXT
 70
     0
  0
APPID
  5
2A4
330
9
100
AcDbSymbolTableRecord
100
AcDbRegAppTableRecord
  2
ACAD_EXEMPT_FROM_CAD_STANDARDS
 70
     0
  0
APPID
  5
185C
330
9
100
AcDbSymbolTableRecord
100
AcDbRegAppTableRecord
  2
GENIUS_GENODEF_13
 70
     0
  0
APPID
  5
185D
330
9
100
AcDbSymbolTableRecord
100
AcDbRegAppTableRecord
  2
GENIUS_GENOBJ-N-CEN_13
 70
     0
  0
APPID
  5
185E
330
9
100
AcDbSymbolTableRecord
100
AcDbRegAppTableRecord
  2
GENIUS_GENCEN_19
 70
     0
  0
APPID
  5
185F
330
9
100
AcDbSymbolTableRecord
100
AcDbRegAppTableRecord
  2
GENIUS_GENTRA_14
 70
     0
  0
APPID
  5
1860
330
9
100
AcDbSymbolTableRecord
100
AcDbRegAppTableRecord
  2
GENIUS_GENOREF_13
 70
     0
  0
APPID
  5
1861
330
9
100
AcDbSymbolTableRecord
100
AcDbRegAppTableRecord
  2
GENIUS_GENSCREG_15
 70
     0
  0
APPID
  5
1862
330
9
100
AcDbSymbolTableRecord
100
AcDbRegAppTableRecord
  2
GENIUS_GENOBJ-N-SDF_13
 70
     0
  0
APPID
  5
1863
330
9
100
AcDbSymbolTableRecord
100
AcDbRegAppTableRecord
  2
GENIUS_GENOBJ-N-LIB_13
 70
     0
  0
APPID
  5
1864
330
9
100
AcDbSymbolTableRecord
100
AcDbRegAppTableRecord
  2
GENIUS_GENOBJ-N-RSBK_13
 70
     0
  0
APPID
  5
1865
330
9
100
AcDbSymbolTableRecord
100
AcDbRegAppTableRecord
  2
GENIUS_GENSCALE_13
 70
     0
  0
APPID
  5
1866
330
9
100
AcDbSymbolTableRecord
100
AcDbRegAppTableRecord
  2
GENIUS_AMGTXT_16
 70
     0
  0
APPID
  5
1867
330
9
100
AcDbSymbolTableRecord
100
AcDbRegAppTableRecord
  2
GENIUS_GENFIL_13
 70
     0
  0
APPID
  5
1868
330
9
100
AcDbSymbolTableRecord
100
AcDbRegAppTableRecord
  2
GENIUS_GENOBJ-N-CHA_13
 70
     0
  0
APPID
  5
1869
330
9
100
AcDbSymbolTableRecord
100
AcDbRegAppTableRecord
  2
GENIUS_GENOBJ-N-FIL_13
 70
     0
  0
APPID
  5
186A
330
9
100
AcDbSymbolTableRecord
100
AcDbRegAppTableRecord
  2
GENIUS_GENDTOL_13
 70
     0
  0
APPID
  5
186B
330
9
100
AcDbSymbolTableRecord
100
AcDbRegAppTableRecord
  2
ACAD_DIMASSOC_DIMLFAC
 70
     0
  0
APPID
  5
186C
330
9
100
AcDbSymbolTableRecord
100
AcDbRegAppTableRecord
  2
ACAD_DIMASSOC_CALC_DIMLFAC
 70
     0
  0
APPID
  5
186D
330
9
100
AcDbSymbolTableRecord
100
AcDbRegAppTableRecord
  2
ACAD_DIMASSOC_OVERRIDDEN_DIMLFAC
 70
     0
  0
APPID
  5
186E
330
9
100
AcDbSymbolTableRecord
100
AcDbRegAppTableRecord
  2
GENIUS_GENOBJ-N-ZOO_13
 70
     0
  0
APPID
  5
186F
330
9
100
AcDbSymbolTableRecord
100
AcDbRegAppTableRecord
  2
GENIUS_GENZOO_16
 70
     0
  0
APPID
  5
1870
330
9
100
AcDbSymbolTableRecord
100
AcDbRegAppTableRecord
  2
ACAD_DSTYLE_DIMJAG
 70
     0
  0
APPID
  5
1871
330
9
100
AcDbSymbolTableRecord
100
AcDbRegAppTableRecord
  2
ACAD_DSTYLE_DIMTALN
 70
     0
  0
APPID
  5
1872
330
9
100
AcDbSymbolTableRecord
100
AcDbRegAppTableRecord
  2
ACAD_DSTYLE_DIMBREAK
 70
     0
  0
APPID
  5
3696
330
9
100
AcDbSymbolTableRecord
100
AcDbRegAppTableRecord
  2
ACAD_DSTYLE_DIMARC_LENGTH_SYMBOL
 70
     0
  0
APPID
  5
3697
330
9
100
AcDbSymbolTableRecord
100
AcDbRegAppTableRecord
  2
ACAD_DSTYLE_DIMJOGGED_JOGANGLE_SYMBOL
 70
     0
  0
APPID
  5
3698
330
9
100
AcDbSymbolTableRecord
100
AcDbRegAppTableRecord
  2
ACAD_DSTYLE_DIM_LINETYPE
 70
     0
  0
APPID
  5
3699
330
9
100
AcDbSymbolTableRecord
100
AcDbRegAppTableRecord
  2
ACAD_DSTYLE_DIM_EXT1_LINETYPE
 70
     0
  0
APPID
  5
369A
330
9
100
AcDbSymbolTableRecord
100
AcDbRegAppTableRecord
  2
ACAD_DSTYLE_DIM_EXT2_LINETYPE
 70
     0
  0
APPID
  5
369D
330
9
100
AcDbSymbolTableRecord
100
AcDbRegAppTableRecord
  2
AcDbAttr
 70
     0
  0
APPID
  5
36A6
330
9
100
AcDbSymbolTableRecord
100
AcDbRegAppTableRecord
  2
ACAD_MLEADERVER
 70
     0
  0
APPID
  5
3D75
330
9
100
AcDbSymbolTableRecord
100
AcDbRegAppTableRecord
  2
ACAD_DSTYLE_DIMRADIAL_EXTENSION
 70
     0
  0
APPID
  5
75B4
330
9
100
AcDbSymbolTableRecord
100
AcDbRegAppTableRecord
  2
AcadAnnoPO
 70
     0
  0
APPID
  5
7838
330
9
100
AcDbSymbolTableRecord
100
AcDbRegAppTableRecord
  2
ACAUTHENVIRON
 70
     0
  0
APPID
  5
DBA2
330
9
100
AcDbSymbolTableRecord
100
AcDbRegAppTableRecord
  2
ACAD_NAV_VCDISPLAY
 70
     0
  0
ENDTAB
  0
TABLE
  2
DIMSTYLE
  5
A
330
0
100
AcDbSymbolTable
 70
     5
100
AcDbDimStyleTable
 71
     1
340
185B
  0
DIMSTYLE
105
185B
330
A
100
AcDbSymbolTableRecord
100
AcDbDimStyleTableRecord
  2
部品図用_1：1
 70
     0
 41
2.5
 42
1.0
 43
10.0
 44
1.0
 47
0.1
 48
0.1
 73
     0
 74
     0
 77
     3
 78
     8
 79
     2
 90
     1
140
2.5
141
0.0
146
0.7
147
1.0
172
     1
176
   256
177
   256
178
   256
179
     2
271
     2
272
     2
283
     0
340
26
345
2A
346
2A
347
2A
371
    -1
372
    -1
1001
ACAD_DSTYLE_DIMBREAK
1070
   391
1040
3.5
1001
ACAD_DSTYLE_DIMJAG
1070
   388
1040
1.5
1001
ACAD_DSTYLE_DIMTALN
1070
   392
1070
     0
  0
DIMSTYLE
105
94C8
330
A
100
AcDbSymbolTableRecord
100
AcDbDimStyleTableRecord
  2
STANDARD
 70
     0
 73
     0
 74
     0
 77
     1
172
     1
271
     0
272
     0
289
     0
340
26
341
93E9
342
93E9
  0
ENDTAB
  0
TABLE
  2
BLOCK_RECORD
  5
1
330
0
100
AcDbSymbolTable
 70
    89
  0
BLOCK_RECORD
  5
37
102
{ACAD_XDICTIONARY
360
48
102
}
330
1
100
AcDbSymbolTableRecord
100
AcDbBlockTableRecord
  2
*Model_Space
340
3A
 70
     0
280
     1
281
     0
  0
BLOCK_RECORD
  5
33
102
{ACAD_XDICTIONARY
360
B96
102
}
330
1
100
AcDbSymbolTableRecord
100
AcDbBlockTableRecord
  2
*Paper_Space
340
36
 70
     0
280
     1
281
     0
  0
BLOCK_RECORD
  5
93E9
330
1
100
AcDbSymbolTableRecord
100
AcDbBlockTableRecord
  2
_Open30
340
0
 70
     0
280
     1
281
     0
  0
BLOCK_RECORD
  5
B85F
330
1
100
AcDbSymbolTableRecord
100
AcDbBlockTableRecord
  2
寸法表--単位文字
340
0
310
2800000020000000200000000100080000000000000400000000000000000000000000000000000000000000000080000080000000808000800000008000800080800000C0C0C000C0DCC000F0CAA6000020400000206000002080000020A0000020C0000020E00000400000004020000040400000406000004080000040A0
310
000040C0000040E00000600000006020000060400000606000006080000060A0000060C0000060E00000800000008020000080400000806000008080000080A0000080C0000080E00000A0000000A0200000A0400000A0600000A0800000A0A00000A0C00000A0E00000C0000000C0200000C0400000C0600000C0800000C0
310
A00000C0C00000C0E00000E0000000E0200000E0400000E0600000E0800000E0A00000E0C00000E0E00040000000400020004000400040006000400080004000A0004000C0004000E00040200000402020004020400040206000402080004020A0004020C0004020E000404000004040200040404000404060004040800040
310
40A0004040C0004040E00040600000406020004060400040606000406080004060A0004060C0004060E00040800000408020004080400040806000408080004080A0004080C0004080E00040A0000040A0200040A0400040A0600040A0800040A0A00040A0C00040A0E00040C0000040C0200040C0400040C0600040C08000
310
40C0A00040C0C00040C0E00040E0000040E0200040E0400040E0600040E0800040E0A00040E0C00040E0E00080000000800020008000400080006000800080008000A0008000C0008000E00080200000802020008020400080206000802080008020A0008020C0008020E00080400000804020008040400080406000804080
310
008040A0008040C0008040E00080600000806020008060400080606000806080008060A0008060C0008060E00080800000808020008080400080806000808080008080A0008080C0008080E00080A0000080A0200080A0400080A0600080A0800080A0A00080A0C00080A0E00080C0000080C0200080C0400080C0600080C0
310
800080C0A00080C0C00080C0E00080E0000080E0200080E0400080E0600080E0800080E0A00080E0C00080E0E000C0000000C0002000C0004000C0006000C0008000C000A000C000C000C000E000C0200000C0202000C0204000C0206000C0208000C020A000C020C000C020E000C0400000C0402000C0404000C0406000C0
310
408000C040A000C040C000C040E000C0600000C0602000C0604000C0606000C0608000C060A000C060C000C060E000C0800000C0802000C0804000C0806000C0808000C080A000C080C000C080E000C0A00000C0A02000C0A04000C0A06000C0A08000C0A0A000C0A0C000C0A0E000C0C00000C0C02000C0C04000C0C06000
310
C0C08000C0C0A000F0FBFF00A4A0A000808080000000FF0000FF000000FFFF00FF000000FF00FF00FFFF0000FFFFFF0000000000000000000000000000000000000000000000000000000000000000000000000000000000000000000000000000000000000000000000000000000000000000000000000000000000000000
310
00000000000000000000000000000000000000000000000000000000000000000000000000000000000000000000000000000000000000000000000000000000000000000000000000000000000000000000000000000000000000000000000000000000000000000000000000000000000000000000000000000000000000
310
000000000000000000000000000000000000000000000000000000000000000000000000000000000000000000000000000000000000000000000000000000000000000000000000000000000000000000000000000000000000FB00000000000000000000FB0000FBFBFBFBFBFBFBFBFB000000000000000000FB00000000
310
000000000000FB00000000FB0000FB0000000000FBFBFBFBFBFBFBFBFBFBFBFBFBFB00000000FB00000000FB0000FB000000000000000000000000FB00000000000000000000FB00000000FB0000FB00000000000000FBFBFBFBFBFBFBFBFBFB000000000000FB00000000FB0000FB00000000000000FB00000000FB000000
310
FB000000000000FB00000000FB0000FB00000000000000FB00000000FB000000FB000000000000FB000000FB00000000FB000000000000FBFBFBFBFBFBFBFBFBFB00000000FB00FB000000FB00000000FB000000000000FB00000000FB000000FB0000000000FBFB000000FB00000000FB000000000000FB00000000FB0000
310
00FB0000000000FBFB000000FB00000000FB000000000000FBFBFBFBFBFBFBFBFBFB000000000000FB0000FBFBFBFBFBFBFBFB00000000000000FB00FB0000FB000000000000000000FB0000000000FB000000000000000000FB0000FB000000FB000000000000000000FB00000000FB0000000000000000FB0000FB000000
310
00FB00000000000000000000FB000000FB0000000000000000000000000000000000000000000000000000000000000000000000000000000000000000000000000000000000000000000000000000000000000000000000000000000000000000000000000000000000000000000000000000000000000000000000000000
310
00000000000000000000000000000000000000000000000000000000000000000000000000000000000000000000000000000000000000000000000000000000000000000000000000000000000000000000000000000000000000000000000000000000000000000000000000000000000000000000000000000000000000
310
0000000000000000000000000000000000000000000000000000000000000000000000000000000000000000000000000000000000000000
102
{BLKREFS
331
BD3D
102
}
 70
     4
280
     1
281
     0
  0
ENDTAB
  0
ENDSEC
  0
SECTION
  2
BLOCKS
  0
BLOCK
  5
38
330
37
100
AcDbEntity
  8
0
100
AcDbBlockBegin
  2
*Model_Space
 70
     2
 10
0.0
 20
0.0
 30
0.0
  3
*Model_Space
  1

  0
ENDBLK
  5
39
330
37
100
AcDbEntity
  8
0
100
AcDbBlockEnd
  0
BLOCK
  5
34
330
33
100
AcDbEntity
 67
     1
  8
0
100
AcDbBlockBegin
  2
*Paper_Space
 70
     0
 10
0.0
 20
0.0
 30
0.0
  3
*Paper_Space
  1

  0
ENDBLK
  5
35
330
33
100
AcDbEntity
 67
     1
  8
0
100
AcDbBlockEnd
  0
BLOCK
  5
93EA
330
93E9
100
AcDbEntity
  8
0
100
AcDbBlockBegin
  2
_Open30
 70
     0
 10
0.0
 20
0.0
 30
0.0
  3
_Open30
  1

  0
LINE
  5
93EB
330
93E9
100
AcDbEntity
  8
0
  6
ByBlock
 62
     0
370
    -2
100
AcDbLine
 10
-1.0
 20
0.26794919
 30
0.0
 11
0.0
 21
0.0
 31
0.0
  0
LINE
  5
93EC
330
93E9
100
AcDbEntity
  8
0
  6
ByBlock
 62
     0
370
    -2
100
AcDbLine
 10
0.0
 20
0.0
 30
0.0
 11
-1.0
 21
-0.26794919
 31
0.0
  0
LINE
  5
93ED
330
93E9
100
AcDbEntity
  8
0
  6
ByBlock
 62
     0
370
    -2
100
AcDbLine
 10
0.0
 20
0.0
 30
0.0
 11
-1.0
 21
0.0
 31
0.0
  0
ENDBLK
  5
93EE
330
93E9
100
AcDbEntity
  8
0
100
AcDbBlockEnd
  0
BLOCK
  5
B860
330
B85F
100
AcDbEntity
  8
0
100
AcDbBlockBegin
  2
寸法表--単位文字
 70
     2
 10
0.0
 20
0.0
 30
0.0
  3
寸法表--単位文字
  1

  4
寸法表　単位文字
  0
ATTDEF
  5
CB81
330
B85F
100
AcDbEntity
  8
12_文字
100
AcDbText
 10
-11.64
 20
1.0
 30
0.0
 40
1.8
  1
単位（mm）
 72
     2
 11
0.0
 21
1.0
 31
0.0
100
AcDbAttributeDefinition
280
     0
  3
単位を入力
  2
単位
 70
     0
 74
     1
280
     1
  0
ENDBLK
  5
B861
330
B85F
100
AcDbEntity
  8
0
100
AcDbBlockEnd
  0
ENDSEC
  0
SECTION
  2
ENTITIES
  0
INSERT
  5
BD3D
330
37
100
AcDbEntity
  8
01_表面形状
100
AcDbBlockReference
  2
寸法表--単位文字
 10
1495.0
 20
-81.00000000000017
 30
0.0
  0
LINE
  5
EED7
330
37
100
AcDbEntity
  8
04_中心線
 62
   110
100
AcDbLine
 10
413.2083103366426
 20
154.5763315021993
 30
0.0
 11
476.7083103366426
 21
154.5763315021993
 31
0.0
  0
LINE
  5
EED8
330
37
100
AcDbEntity
  8
04_中心線
 62
   110
100
AcDbLine
 10
455.4691070048622
 20
135.5763315021993
 30
0.0
 11
459.0922849328582
 21
135.5763315021994
 31
0.0
  0
LINE
  5
EED9
330
37
100
AcDbEntity
  8
01_表面形状
 62
     3
100
AcDbLine
 10
455.4691070048622
 20
135.5763315021993
 30
0.0
 11
459.0922849328585
 21
135.5763315021993
 31
0.0
  0
LINE
  5
EEDA
330
37
100
AcDbEntity
  8
04_中心線
 62
   110
100
AcDbLine
 10
520.8742416195358
 20
154.5763315021993
 30
0.0
 11
569.4742416195358
 21
154.5763315021993
 31
0.0
  0
LINE
  5
EEDB
330
37
100
AcDbEntity
  8
04_中心線
 62
   110
100
AcDbLine
 10
444.9583103366426
 20
127.6370212729936
 30
0.0
 11
444.9583103366426
 21
257.5763315021994
 31
0.0
  0
LINE
  5
EEDC
330
37
100
AcDbEntity
  8
01_表面形状
 62
     3
100
AcDbLine
 10
434.2083103366426
 20
156.16824080763
 30
0.0
 11
434.2083103366426
 21
183.8764767376798
 31
0.0
  0
LINE
  5
EEDD
330
37
100
AcDbEntity
  8
01_表面形状
 62
     3
100
AcDbLine
 10
455.7083103366426
 20
156.16824080763
 30
0.0
 11
455.7083103366426
 21
183.6735112581617
 31
0.0
  0
LINE
  5
EEDE
330
37
100
AcDbEntity
  8
01_表面形状
 62
     3
100
AcDbLine
 10
462.9583103366425
 20
177.682979407901
 30
0.0
 11
462.9583103366426
 21
183.6895801562511
 31
0.0
  0
ARC
  5
EEDF
330
37
100
AcDbEntity
  8
01_表面形状
 62
     3
100
AcDbCircle
 10
464.9583103366425
 20
177.682979407901
 30
0.0
 40
2.0
100
AcDbArc
 50
180.0
 51
270.0
  0
ARC
  5
EEE0
330
37
100
AcDbEntity
  8
01_表面形状
 62
     3
100
AcDbCircle
 10
464.9583103366426
 20
183.6895801562511
 30
0.0
 40
2.0
100
AcDbArc
 50
120.0000000000001
 51
180.0
  0
LINE
  5
EEE1
330
37
100
AcDbEntity
  8
01_表面形状
 62
     3
100
AcDbLine
 10
440.8083103366425
 20
221.0577425694816
 30
0.0
 11
440.8083103366425
 21
229.5763315021996
 31
0.0
  0
LINE
  5
EEE2
330
37
100
AcDbEntity
  8
01_表面形状
 62
     3
100
AcDbLine
 10
449.1083103366426
 20
221.0577425694816
 30
0.0
 11
449.1083103366426
 21
229.5763315021996
 31
0.0
  0
LINE
  5
EEE3
330
37
100
AcDbEntity
  8
04_中心線
 62
   110
100
AcDbLine
 10
545.1742416195359
 20
257.5763315021993
 30
0.0
 11
545.1742416195359
 21
126.8635185810973
 31
0.0
  0
LINE
  5
EEE4
330
37
100
AcDbEntity
  8
01_表面形状
 62
     3
100
AcDbLine
 10
543.6742416195358
 20
182.0763315021993
 30
0.0
 11
543.6742416195358
 21
175.0616590643414
 31
0.0
  0
LINE
  5
EEE5
330
37
100
AcDbEntity
  8
01_表面形状
 62
     3
100
AcDbLine
 10
546.6742416195359
 20
182.0763315021993
 30
0.0
 11
546.6742416195359
 21
175.0616590643413
 31
0.0
  0
LINE
  5
EEE6
330
37
100
AcDbEntity
  8
01_表面形状
 62
     3
100
AcDbLine
 10
526.3186863125128
 20
186.7009141209093
 30
0.0
 11
526.8202220690909
 21
161.221764209633
 31
0.0
  0
LINE
  5
EEE7
330
37
100
AcDbEntity
  8
01_表面形状
 62
     3
100
AcDbLine
 10
469.9583103366426
 20
133.4696835964976
 30
0.0
 11
460.9583103366426
 21
133.4696835964977
 31
0.0
  0
LINE
  5
EEE8
330
37
100
AcDbEntity
  8
01_表面形状
 62
     3
100
AcDbLine
 10
469.9583103366426
 20
175.682979407901
 30
0.0
 11
460.9583103366426
 21
175.6829794079011
 31
0.0
  0
LINE
  5
EEE9
330
37
100
AcDbEntity
  8
01_表面形状
 62
     3
100
AcDbLine
 10
465.9583103366426
 20
188.3083823097682
 30
0.0
 11
465.9583103366426
 21
196.0763315021994
 31
0.0
  0
LINE
  5
EEEA
330
37
100
AcDbEntity
  8
01_表面形状
 62
     3
100
AcDbLine
 10
465.9583103366426
 20
196.0763315021994
 30
0.0
 11
465.9583103366426
 21
199.0763315021993
 31
0.0
  0
LINE
  5
EEEB
330
37
100
AcDbEntity
  8
01_表面形状
 62
     3
100
AcDbLine
 10
423.9583103366426
 20
199.0763315021993
 30
0.0
 11
423.9583103366426
 21
196.0763315021993
 31
0.0
  0
LINE
  5
EEEC
330
37
100
AcDbEntity
  8
01_表面形状
 62
     3
100
AcDbLine
 10
423.9583103366426
 20
196.0763315021993
 30
0.0
 11
423.9583103366426
 21
188.3083823097682
 31
0.0
  0
LINE
  5
EEED
330
37
100
AcDbEntity
  8
01_表面形状
 62
     3
100
AcDbLine
 10
566.1742416195359
 20
189.5763315021993
 30
0.0
 11
566.1742416195359
 21
196.0763315021993
 31
0.0
  0
LINE
  5
EEEE
330
37
100
AcDbEntity
  8
01_表面形状
 62
     3
100
AcDbLine
 10
566.1742416195359
 20
196.0763315021993
 30
0.0
 11
566.1742416195359
 21
199.0763315021993
 31
0.0
  0
LINE
  5
EEEF
330
37
100
AcDbEntity
  8
01_表面形状
 62
     3
100
AcDbLine
 10
524.1742416195359
 20
199.0763315021993
 30
0.0
 11
524.1742416195359
 21
196.0763315021993
 31
0.0
  0
LINE
  5
EEF0
330
37
100
AcDbEntity
  8
01_表面形状
 62
     3
100
AcDbLine
 10
524.1742416195359
 20
196.0763315021993
 30
0.0
 11
524.1742416195359
 21
189.5763315021993
 31
0.0
  0
ARC
  5
EEF1
330
37
100
AcDbEntity
  8
01_表面形状
 62
     3
100
AcDbCircle
 10
541.6742416195359
 20
182.0763315021993
 30
0.0
 40
2.0
100
AcDbArc
 50
0.0
 51
75.04930159501464
  0
ARC
  5
EEF2
330
37
100
AcDbEntity
  8
01_表面形状
 62
     3
100
AcDbCircle
 10
548.6742416195359
 20
182.0763315021993
 30
0.0
 40
2.0
100
AcDbArc
 50
104.9506984059495
 51
180.0
  0
LINE
  5
EEF3
330
37
100
AcDbEntity
  8
01_表面形状
 62
     3
100
AcDbLine
 10
469.9583103366426
 20
175.682979407901
 30
0.0
 11
469.9583103366426
 21
133.4696835964976
 31
0.0
  0
LINE
  5
EEF4
330
37
100
AcDbEntity
  8
01_表面形状
 62
     3
100
AcDbLine
 10
460.9583103366425
 20
175.682979407901
 30
0.0
 11
460.9583103366426
 21
133.4696835964976
 31
0.0
  0
CIRCLE
  5
EEF5
330
37
100
AcDbEntity
  8
01_表面形状
 62
     3
100
AcDbCircle
 10
545.1742416195359
 20
154.5763315021993
 30
0.0
 40
15.15
  0
CIRCLE
  5
EEF6
330
37
100
AcDbEntity
  8
01_表面形状
 62
     3
100
AcDbCircle
 10
545.1742416195359
 20
154.5763315021993
 30
0.0
 40
16.599991
  0
LINE
  5
EEF7
330
37
100
AcDbEntity
  8
01_表面形状
 62
     3
100
AcDbLine
 10
436.4583103366424
 20
229.5763315021996
 30
0.0
 11
453.4583103366424
 21
229.5763315021996
 31
0.0
  0
LINE
  5
EEF8
330
37
100
AcDbEntity
  8
01_表面形状
 62
     3
100
AcDbLine
 10
435.9583103366424
 20
234.5763315021996
 30
0.0
 11
435.9583103366424
 21
230.0763315021996
 31
0.0
  0
ARC
  5
EEF9
330
37
100
AcDbEntity
  8
01_表面形状
 62
     3
100
AcDbCircle
 10
436.4583103366424
 20
230.0763315021996
 30
0.0
 40
0.5
100
AcDbArc
 50
180.0
 51
270.0
  0
LINE
  5
EEFA
330
37
100
AcDbEntity
  8
01_表面形状
 62
     3
100
AcDbLine
 10
444.9583103366424
 20
234.5763315021996
 30
0.0
 11
415.4583103366424
 21
234.5763315021996
 31
0.0
  0
ARC
  5
EEFB
330
37
100
AcDbEntity
  8
01_表面形状
 62
     3
100
AcDbCircle
 10
415.4583103366424
 20
235.5763315021996
 30
0.0
 40
1.0
100
AcDbArc
 50
180.0
 51
270.0
  0
LINE
  5
EEFC
330
37
100
AcDbEntity
  8
01_表面形状
 62
     3
100
AcDbLine
 10
440.9583103366425
 20
239.5763315021996
 30
0.0
 11
430.4653875488914
 21
239.5763315021996
 31
0.0
  0
LINE
  5
EEFD
330
37
100
AcDbEntity
  8
01_表面形状
 62
     3
100
AcDbLine
 10
425.3938562428174
 20
239.5763315021996
 30
0.0
 11
419.8893811166644
 21
239.5763315021996
 31
0.0
  0
LINE
  5
EEFE
330
37
100
AcDbEntity
  8
01_表面形状
 62
     3
100
AcDbLine
 10
414.4583103366423
 20
236.5763315021996
 30
0.0
 11
414.9872912787675
 21
239.5763315021987
 31
0.0
  0
ARC
  5
EEFF
330
37
100
AcDbEntity
  8
01_表面形状
 62
     3
100
AcDbCircle
 10
423.0849131642376
 20
242.5763315022
 30
0.0
 40
6.0
100
AcDbArc
 50
42.05615844780313
 51
141.225980553312
  0
ARC
  5
EF00
330
37
100
AcDbEntity
  8
01_表面形状
 62
     3
100
AcDbCircle
 10
432.4244465374378
 20
234.9957323764825
 30
0.0
 40
18.02876234979772
100
AcDbArc
 50
141.0317527678343
 51
165.2814112963929
  0
LINE
  5
EF01
330
37
100
AcDbEntity
  8
01_表面形状
 62
     3
100
AcDbLine
 10
414.4583103366423
 20
236.5763315021996
 30
0.0
 11
414.4583103366423
 21
235.5763315021996
 31
0.0
  0
LINE
  5
EF02
330
37
100
AcDbEntity
  8
01_表面形状
 62
     3
100
AcDbLine
 10
441.9583103366425
 20
246.0763315021996
 30
0.0
 11
434.3517086188447
 21
246.0763315021996
 31
0.0
  0
LINE
  5
EF03
330
37
100
AcDbEntity
  8
01_表面形状
 62
     3
100
AcDbLine
 10
441.9583103366425
 20
247.5763315021993
 30
0.0
 11
441.9583103366425
 21
240.5763315021996
 31
0.0
  0
ARC
  5
EF04
330
37
100
AcDbEntity
  8
01_表面形状
 62
     3
100
AcDbCircle
 10
440.9583103366425
 20
240.5763315021996
 30
0.0
 40
1.0
100
AcDbArc
 50
270.0
 51
0.0
  0
ARC
  5
EF05
330
37
100
AcDbEntity
  8
01_表面形状
 62
     3
100
AcDbCircle
 10
444.9583103366425
 20
243.5763315021993
 30
0.0
 40
5.0
100
AcDbArc
 50
53.13010235415841
 51
126.8698976458411
  0
LINE
  5
EF06
330
37
100
AcDbEntity
  8
01_表面形状
 62
     3
100
AcDbLine
 10
441.9583103366425
 20
244.588089266684
 30
0.0
 11
433.9807130577569
 21
244.5880892666835
 31
0.0
  0
ARC
  5
EF07
330
37
100
AcDbEntity
  8
01_表面形状
 62
     3
100
AcDbCircle
 10
423.6799260179834
 20
239.9020720941197
 30
0.0
 40
4.850046285234429
100
AcDbArc
 50
128.4575207407514
 51
169.9137644844193
  0
ARC
  5
EF08
330
37
100
AcDbEntity
  8
01_表面形状
 62
     3
100
AcDbCircle
 10
419.8893811166644
 20
240.5763315021996
 30
0.0
 40
1.0
100
AcDbArc
 50
169.9137644844322
 51
270.0
  0
ARC
  5
EF09
330
37
100
AcDbEntity
  8
01_表面形状
 62
     3
100
AcDbCircle
 10
424.0849287965597
 20
238.6154114293159
 30
0.0
 40
6.128544476759803
100
AcDbArc
 50
77.05028190331562
 51
123.9365800469602
  0
ARC
  5
EF0A
330
37
100
AcDbEntity
  8
01_表面形状
 62
     3
100
AcDbCircle
 10
434.3577049310599
 20
240.6625620107505
 30
0.0
 40
9.029423017192899
100
AcDbArc
 50
126.558193640135
 51
186.9093587005263
  0
ARC
  5
EF0B
330
37
100
AcDbEntity
  8
01_表面形状
 62
     3
100
AcDbCircle
 10
430.0205025723365
 20
244.197854312494
 30
0.0
 40
4.721019208767681
100
AcDbArc
 50
23.44674648173564
 51
59.270908993953
  0
ARC
  5
EF0C
330
37
100
AcDbEntity
  8
01_表面形状
 62
     3
100
AcDbCircle
 10
431.0056202555886
 20
245.0487040885858
 30
0.0
 40
3.510524108191588
100
AcDbArc
 50
66.01130455086914
 51
125.2521808281401
  0
ARC
  5
EF0D
330
37
100
AcDbEntity
  8
01_表面形状
 62
     3
100
AcDbCircle
 10
433.4649115520833
 20
240.751137728903
 30
0.0
 40
4.004613363280179
100
AcDbArc
 50
116.2155007789539
 51
183.3353102874404
  0
ARC
  5
EF0E
330
37
100
AcDbEntity
  8
01_表面形状
 62
     3
100
AcDbCircle
 10
430.4653875488914
 20
240.5763315021996
 30
0.0
 40
1.0
100
AcDbArc
 50
183.3353102874404
 51
270.0
  0
ARC
  5
EF0F
330
37
100
AcDbEntity
  8
01_表面形状
 62
     3
100
AcDbCircle
 10
433.1874210570955
 20
241.2001715124421
 30
0.0
 40
3.479554412251477
100
AcDbArc
 50
76.82143287090953
 51
115.3824771216556
  0
LINE
  5
EF10
330
37
100
AcDbEntity
  8
01_表面形状
 62
     3
100
AcDbLine
 10
425.4583103366424
 20
244.5880892666838
 30
0.0
 11
426.2272700731577
 21
244.5880892666838
 31
0.0
  0
LINE
  5
EF11
330
37
100
AcDbEntity
  8
01_表面形状
 62
     3
100
AcDbLine
 10
435.9583103366424
 20
233.5763315021996
 30
0.0
 11
432.2262595290734
 21
234.5763315021996
 31
0.0
  0
LINE
  5
EF12
330
37
100
AcDbEntity
  8
01_表面形状
 62
     3
100
AcDbLine
 10
453.9583103366424
 20
234.5763315021996
 30
0.0
 11
453.9583103366424
 21
230.0763315021996
 31
0.0
  0
ARC
  5
EF13
330
37
100
AcDbEntity
  8
01_表面形状
 62
     3
100
AcDbCircle
 10
453.4583103366424
 20
230.0763315021996
 30
0.0
 40
0.5
100
AcDbArc
 50
270.0
 51
0.0
  0
LINE
  5
EF14
330
37
100
AcDbEntity
  8
01_表面形状
 62
     3
100
AcDbLine
 10
444.9583103366424
 20
234.5763315021996
 30
0.0
 11
474.4583103366424
 21
234.5763315021996
 31
0.0
  0
ARC
  5
EF15
330
37
100
AcDbEntity
  8
01_表面形状
 62
     3
100
AcDbCircle
 10
474.4583103366424
 20
235.5763315021996
 30
0.0
 40
1.0
100
AcDbArc
 50
270.0
 51
0.0
  0
LINE
  5
EF16
330
37
100
AcDbEntity
  8
01_表面形状
 62
     3
100
AcDbLine
 10
448.9583103366422
 20
239.5763315021996
 30
0.0
 11
459.4512331243934
 21
239.5763315021996
 31
0.0
  0
LINE
  5
EF17
330
37
100
AcDbEntity
  8
01_表面形状
 62
     3
100
AcDbLine
 10
464.5227644304672
 20
239.5763315021996
 30
0.0
 11
470.0272395566202
 21
239.5763315021996
 31
0.0
  0
LINE
  5
EF18
330
37
100
AcDbEntity
  8
01_表面形状
 62
     3
100
AcDbLine
 10
475.4583103366424
 20
236.5763315021996
 30
0.0
 11
474.9293293945172
 21
239.5763315021987
 31
0.0
  0
ARC
  5
EF19
330
37
100
AcDbEntity
  8
01_表面形状
 62
     3
100
AcDbCircle
 10
466.8317075090471
 20
242.5763315022
 30
0.0
 40
6.0
100
AcDbArc
 50
38.77401944668667
 51
137.9438415521969
  0
ARC
  5
EF1A
330
37
100
AcDbEntity
  8
01_表面形状
 62
     3
100
AcDbCircle
 10
457.492174135847
 20
234.9957323764825
 30
0.0
 40
18.02876234979772
100
AcDbArc
 50
14.71858870360702
 51
38.96824723216568
  0
LINE
  5
EF1B
330
37
100
AcDbEntity
  8
01_表面形状
 62
     3
100
AcDbLine
 10
475.4583103366424
 20
236.5763315021996
 30
0.0
 11
475.4583103366424
 21
235.5763315021996
 31
0.0
  0
LINE
  5
EF1C
330
37
100
AcDbEntity
  8
01_表面形状
 62
     3
100
AcDbLine
 10
447.9583103366422
 20
246.0763315021996
 30
0.0
 11
455.56491205444
 21
246.0763315021996
 31
0.0
  0
LINE
  5
EF1D
330
37
100
AcDbEntity
  8
01_表面形状
 62
     3
100
AcDbLine
 10
447.9583103366422
 20
247.5763315021993
 30
0.0
 11
447.9583103366422
 21
240.5763315021996
 31
0.0
  0
ARC
  5
EF1E
330
37
100
AcDbEntity
  8
01_表面形状
 62
     3
100
AcDbCircle
 10
448.9583103366422
 20
240.5763315021996
 30
0.0
 40
1.0
100
AcDbArc
 50
180.0
 51
270.0
  0
LINE
  5
EF1F
330
37
100
AcDbEntity
  8
01_表面形状
 62
     3
100
AcDbLine
 10
447.9583103366422
 20
244.588089266684
 30
0.0
 11
455.9359076155279
 21
244.5880892666835
 31
0.0
  0
ARC
  5
EF20
330
37
100
AcDbEntity
  8
01_表面形状
 62
     3
100
AcDbCircle
 10
466.2366946553013
 20
239.9020720941197
 30
0.0
 40
4.850046285234429
100
AcDbArc
 50
10.08623551558066
 51
51.5424792592516
  0
ARC
  5
EF21
330
37
100
AcDbEntity
  8
01_表面形状
 62
     3
100
AcDbCircle
 10
470.0272395566202
 20
240.5763315021996
 30
0.0
 40
1.0
100
AcDbArc
 50
270.0
 51
10.08623551556783
  0
ARC
  5
EF22
330
37
100
AcDbEntity
  8
01_表面形状
 62
     3
100
AcDbCircle
 10
465.8316918767251
 20
238.6154114293159
 30
0.0
 40
6.128544476759803
100
AcDbArc
 50
56.06341995304028
 51
102.9497180966844
  0
ARC
  5
EF23
330
37
100
AcDbEntity
  8
01_表面形状
 62
     3
100
AcDbCircle
 10
455.5589157422248
 20
240.6625620107505
 30
0.0
 40
9.029423017192899
100
AcDbArc
 50
353.0906412994737
 51
53.44180635986452
  0
ARC
  5
EF24
330
37
100
AcDbEntity
  8
01_表面形状
 62
     3
100
AcDbCircle
 10
459.8961181009482
 20
244.197854312494
 30
0.0
 40
4.721019208767681
100
AcDbArc
 50
120.729091006047
 51
156.5532535182629
  0
ARC
  5
EF25
330
37
100
AcDbEntity
  8
01_表面形状
 62
     3
100
AcDbCircle
 10
458.9110004176961
 20
245.0487040885858
 30
0.0
 40
3.510524108191588
100
AcDbArc
 50
54.74781917185991
 51
113.9886954491275
  0
ARC
  5
EF26
330
37
100
AcDbEntity
  8
01_表面形状
 62
     3
100
AcDbCircle
 10
456.4517091212015
 20
240.751137728903
 30
0.0
 40
4.004613363280179
100
AcDbArc
 50
356.6646897125595
 51
63.78449922104568
  0
ARC
  5
EF27
330
37
100
AcDbEntity
  8
01_表面形状
 62
     3
100
AcDbCircle
 10
459.4512331243934
 20
240.5763315021996
 30
0.0
 40
1.0
100
AcDbArc
 50
270.0
 51
356.6646897125595
  0
ARC
  5
EF28
330
37
100
AcDbEntity
  8
01_表面形状
 62
     3
100
AcDbCircle
 10
456.7291996161892
 20
241.2001715124421
 30
0.0
 40
3.479554412251477
100
AcDbArc
 50
64.61752287834442
 51
103.1785671290873
  0
LINE
  5
EF29
330
37
100
AcDbEntity
  8
01_表面形状
 62
     3
100
AcDbLine
 10
464.4583103366423
 20
244.5880892666838
 30
0.0
 11
463.6893506001269
 21
244.5880892666838
 31
0.0
  0
LINE
  5
EF2A
330
37
100
AcDbEntity
  8
01_表面形状
 62
     3
100
AcDbLine
 10
453.9583103366424
 20
233.5763315021996
 30
0.0
 11
457.6903611442113
 21
234.5763315021996
 31
0.0
  0
LINE
  5
EF2B
330
37
100
AcDbEntity
  8
01_表面形状
 62
     3
100
AcDbLine
 10
432.2566044144708
 20
199.0763315021993
 30
0.0
 11
432.2566044144708
 21
206.0763315021994
 31
0.0
  0
LINE
  5
EF2C
330
37
100
AcDbEntity
  8
01_表面形状
 62
     3
100
AcDbLine
 10
457.6600162588143
 20
199.0763315021994
 30
0.0
 11
457.6600162588143
 21
206.0763315021994
 31
0.0
  0
LINE
  5
EF2D
330
37
100
AcDbEntity
  8
01_表面形状
 62
     3
100
AcDbLine
 10
423.9583103366426
 20
196.0763315021993
 30
0.0
 11
465.9583103366426
 21
196.0763315021993
 31
0.0
  0
LINE
  5
EF2E
330
37
100
AcDbEntity
  8
01_表面形状
 62
     3
100
AcDbLine
 10
423.9583103366426
 20
196.0763315021993
 30
0.0
 11
465.9583103366426
 21
196.0763315021993
 31
0.0
  0
LINE
  5
EF2F
330
37
100
AcDbEntity
  8
01_表面形状
 62
     3
100
AcDbLine
 10
426.2404658441644
 20
186.5763315021993
 30
0.0
 11
464.1678836578819
 21
186.5763315021993
 31
0.0
  0
LINE
  5
EF30
330
37
100
AcDbEntity
  8
01_表面形状
 62
     3
100
AcDbLine
 10
423.9583103366426
 20
199.0763315021993
 30
0.0
 11
465.9583103366426
 21
199.0763315021994
 31
0.0
  0
LINE
  5
EF31
330
37
100
AcDbEntity
  8
01_表面形状
 62
     3
100
AcDbLine
 10
432.2566044144708
 20
206.0763315021994
 30
0.0
 11
457.6600162588142
 21
206.0763315021994
 31
0.0
  0
LINE
  5
EF32
330
37
100
AcDbEntity
  8
01_表面形状
 62
     3
100
AcDbLine
 10
436.9839275471879
 20
212.0577425694816
 30
0.0
 11
436.9839275471879
 21
209.4779609744357
 31
0.0
  0
LINE
  5
EF33
330
37
100
AcDbEntity
  8
01_表面形状
 62
     3
100
AcDbLine
 10
436.9839275471879
 20
212.0577425694816
 30
0.0
 11
436.9839275471879
 21
209.4779609744357
 31
0.0
  0
ARC
  5
EF34
330
37
100
AcDbEntity
  8
01_表面形状
 62
     3
100
AcDbCircle
 10
433.9833103366427
 20
210.3698747782824
 30
0.0
 40
3.0
100
AcDbArc
 50
297.6809834673812
 51
342.7042170651084
  0
LINE
  5
EF35
330
37
100
AcDbEntity
  8
01_表面形状
 62
     3
100
AcDbLine
 10
534.1742416195359
 20
199.0763315021993
 30
0.0
 11
534.1742416195359
 21
206.4403017364654
 31
0.0
  0
LINE
  5
EF36
330
37
100
AcDbEntity
  8
01_表面形状
 62
     3
100
AcDbLine
 10
556.1742416195358
 20
199.0763315021993
 30
0.0
 11
556.1742416195358
 21
206.4403017364654
 31
0.0
  0
LINE
  5
EF37
330
37
100
AcDbEntity
  8
01_表面形状
 62
     3
100
AcDbLine
 10
524.1742416195359
 20
196.0763315021993
 30
0.0
 11
566.1742416195359
 21
196.0763315021993
 31
0.0
  0
LINE
  5
EF38
330
37
100
AcDbEntity
  8
01_表面形状
 62
     3
100
AcDbLine
 10
524.1742416195359
 20
196.0763315021993
 30
0.0
 11
566.1742416195359
 21
196.0763315021993
 31
0.0
  0
LINE
  5
EF39
330
37
100
AcDbEntity
  8
01_表面形状
 62
     3
100
AcDbLine
 10
524.1742416195359
 20
199.0763315021993
 30
0.0
 11
566.1742416195359
 21
199.0763315021993
 31
0.0
  0
LINE
  5
EF3A
330
37
100
AcDbEntity
  8
01_表面形状
 62
     3
100
AcDbLine
 10
534.1742416195359
 20
206.0763315021994
 30
0.0
 11
556.1742416195358
 21
206.0763315021994
 31
0.0
  0
LINE
  5
EF3B
330
37
100
AcDbEntity
  8
01_表面形状
 62
     3
100
AcDbLine
 10
536.6742416195356
 20
229.5763315021996
 30
0.0
 11
553.6742416195356
 21
229.5763315021996
 31
0.0
  0
LINE
  5
EF3C
330
37
100
AcDbEntity
  8
01_表面形状
 62
     3
100
AcDbLine
 10
536.1742416195356
 20
234.5763315021995
 30
0.0
 11
536.1742416195356
 21
230.0763315021995
 31
0.0
  0
ARC
  5
EF3D
330
37
100
AcDbEntity
  8
01_表面形状
 62
     3
100
AcDbCircle
 10
536.6742416195356
 20
230.0763315021995
 30
0.0
 40
0.5
100
AcDbArc
 50
180.0
 51
270.0
  0
LINE
  5
EF3E
330
37
100
AcDbEntity
  8
01_表面形状
 62
     3
100
AcDbLine
 10
545.1742416195356
 20
234.5763315021995
 30
0.0
 11
515.6742416195356
 21
234.5763315021995
 31
0.0
  0
ARC
  5
EF3F
330
37
100
AcDbEntity
  8
01_表面形状
 62
     3
100
AcDbCircle
 10
515.6742416195356
 20
235.5763315021995
 30
0.0
 40
1.0
100
AcDbArc
 50
180.0
 51
270.0
  0
LINE
  5
EF40
330
37
100
AcDbEntity
  8
01_表面形状
 62
     3
100
AcDbLine
 10
541.1742416195356
 20
239.5763315021995
 30
0.0
 11
530.6813188317846
 21
239.5763315021995
 31
0.0
  0
LINE
  5
EF41
330
37
100
AcDbEntity
  8
01_表面形状
 62
     3
100
AcDbLine
 10
525.6097875257108
 20
239.5763315021995
 30
0.0
 11
520.1053123995577
 21
239.5763315021995
 31
0.0
  0
LINE
  5
EF42
330
37
100
AcDbEntity
  8
01_表面形状
 62
     3
100
AcDbLine
 10
514.6742416195356
 20
236.5763315021995
 30
0.0
 11
515.2032225616608
 21
239.5763315021986
 31
0.0
  0
ARC
  5
EF43
330
37
100
AcDbEntity
  8
01_表面形状
 62
     3
100
AcDbCircle
 10
523.3008444471308
 20
242.5763315022
 30
0.0
 40
6.0
100
AcDbArc
 50
42.05615844780313
 51
141.225980553312
  0
ARC
  5
EF44
330
37
100
AcDbEntity
  8
01_表面形状
 62
     3
100
AcDbCircle
 10
532.6403778203309
 20
234.9957323764825
 30
0.0
 40
18.02876234979772
100
AcDbArc
 50
141.0317527678343
 51
165.2814112963929
  0
LINE
  5
EF45
330
37
100
AcDbEntity
  8
01_表面形状
 62
     3
100
AcDbLine
 10
514.6742416195356
 20
236.5763315021995
 30
0.0
 11
514.6742416195356
 21
235.5763315021995
 31
0.0
  0
LINE
  5
EF46
330
37
100
AcDbEntity
  8
01_表面形状
 62
     3
100
AcDbLine
 10
542.1742416195356
 20
246.0763315021996
 30
0.0
 11
534.5676399017379
 21
246.0763315021996
 31
0.0
  0
LINE
  5
EF47
330
37
100
AcDbEntity
  8
01_表面形状
 62
     3
100
AcDbLine
 10
542.1742416195356
 20
247.5763315021993
 30
0.0
 11
542.1742416195356
 21
240.5763315021995
 31
0.0
  0
ARC
  5
EF48
330
37
100
AcDbEntity
  8
01_表面形状
 62
     3
100
AcDbCircle
 10
541.1742416195356
 20
240.5763315021995
 30
0.0
 40
1.0
100
AcDbArc
 50
270.0
 51
0.0
  0
ARC
  5
EF49
330
37
100
AcDbEntity
  8
01_表面形状
 62
     3
100
AcDbCircle
 10
545.1742416195356
 20
243.5763315021993
 30
0.0
 40
5.0
100
AcDbArc
 50
53.13010235415841
 51
126.8698976458411
  0
LINE
  5
EF4A
330
37
100
AcDbEntity
  8
01_表面形状
 62
     3
100
AcDbLine
 10
542.1742416195356
 20
244.5880892666839
 30
0.0
 11
534.1966443406501
 21
244.5880892666835
 31
0.0
  0
ARC
  5
EF4B
330
37
100
AcDbEntity
  8
01_表面形状
 62
     3
100
AcDbCircle
 10
523.8958573008767
 20
239.9020720941196
 30
0.0
 40
4.850046285234429
100
AcDbArc
 50
128.4575207407514
 51
169.9137644844193
  0
ARC
  5
EF4C
330
37
100
AcDbEntity
  8
01_表面形状
 62
     3
100
AcDbCircle
 10
520.1053123995577
 20
240.5763315021995
 30
0.0
 40
1.0
100
AcDbArc
 50
169.9137644844322
 51
270.0
  0
ARC
  5
EF4D
330
37
100
AcDbEntity
  8
01_表面形状
 62
     3
100
AcDbCircle
 10
524.3008600794528
 20
238.6154114293158
 30
0.0
 40
6.128544476759803
100
AcDbArc
 50
77.05028190331562
 51
123.9365800469602
  0
ARC
  5
EF4E
330
37
100
AcDbEntity
  8
01_表面形状
 62
     3
100
AcDbCircle
 10
534.5736362139532
 20
240.6625620107504
 30
0.0
 40
9.029423017192899
100
AcDbArc
 50
126.558193640135
 51
186.9093587005263
  0
ARC
  5
EF4F
330
37
100
AcDbEntity
  8
01_表面形状
 62
     3
100
AcDbCircle
 10
530.2364338552297
 20
244.197854312494
 30
0.0
 40
4.721019208767681
100
AcDbArc
 50
23.44674648173564
 51
59.270908993953
  0
ARC
  5
EF50
330
37
100
AcDbEntity
  8
01_表面形状
 62
     3
100
AcDbCircle
 10
531.2215515384819
 20
245.0487040885857
 30
0.0
 40
3.510524108191588
100
AcDbArc
 50
66.01130455086914
 51
125.2521808281401
  0
ARC
  5
EF51
330
37
100
AcDbEntity
  8
01_表面形状
 62
     3
100
AcDbCircle
 10
533.6808428349765
 20
240.7511377289029
 30
0.0
 40
4.004613363280179
100
AcDbArc
 50
116.2155007789539
 51
183.3353102874404
  0
ARC
  5
EF52
330
37
100
AcDbEntity
  8
01_表面形状
 62
     3
100
AcDbCircle
 10
530.6813188317846
 20
240.5763315021995
 30
0.0
 40
1.0
100
AcDbArc
 50
183.3353102874404
 51
270.0
  0
ARC
  5
EF53
330
37
100
AcDbEntity
  8
01_表面形状
 62
     3
100
AcDbCircle
 10
533.4033523399887
 20
241.200171512442
 30
0.0
 40
3.479554412251477
100
AcDbArc
 50
76.82143287090953
 51
115.3824771216556
  0
LINE
  5
EF54
330
37
100
AcDbEntity
  8
01_表面形状
 62
     3
100
AcDbLine
 10
525.6742416195357
 20
244.5880892666837
 30
0.0
 11
526.4432013560511
 21
244.5880892666837
 31
0.0
  0
LINE
  5
EF55
330
37
100
AcDbEntity
  8
01_表面形状
 62
     3
100
AcDbLine
 10
554.1742416195356
 20
234.5763315021995
 30
0.0
 11
554.1742416195356
 21
230.0763315021995
 31
0.0
  0
LINE
  5
EF56
330
37
100
AcDbEntity
  8
01_表面形状
 62
     3
100
AcDbLine
 10
536.1742416195356
 20
233.5763315021996
 30
0.0
 11
532.4421908119666
 21
234.5763315021995
 31
0.0
  0
ARC
  5
EF57
330
37
100
AcDbEntity
  8
01_表面形状
 62
     3
100
AcDbCircle
 10
553.6742416195356
 20
230.0763315021995
 30
0.0
 40
0.5
100
AcDbArc
 50
270.0
 51
0.0
  0
ARC
  5
EF58
330
37
100
AcDbEntity
  8
01_表面形状
 62
     3
100
AcDbCircle
 10
574.6742416195356
 20
235.5763315021995
 30
0.0
 40
1.0
100
AcDbArc
 50
270.0
 51
0.0
  0
ARC
  5
EF59
330
37
100
AcDbEntity
  8
01_表面形状
 62
     3
100
AcDbCircle
 10
567.0476387919404
 20
242.5763315022
 30
0.0
 40
6.0
100
AcDbArc
 50
38.77401944668667
 51
137.9438415521969
  0
LINE
  5
EF5A
330
37
100
AcDbEntity
  8
01_表面形状
 62
     3
100
AcDbLine
 10
545.1742416195356
 20
234.5763315021995
 30
0.0
 11
574.6742416195356
 21
234.5763315021995
 31
0.0
  0
LINE
  5
EF5B
330
37
100
AcDbEntity
  8
01_表面形状
 62
     3
100
AcDbLine
 10
549.1742416195354
 20
239.5763315021995
 30
0.0
 11
559.6671644072866
 21
239.5763315021995
 31
0.0
  0
LINE
  5
EF5C
330
37
100
AcDbEntity
  8
01_表面形状
 62
     3
100
AcDbLine
 10
564.7386957133606
 20
239.5763315021995
 30
0.0
 11
570.2431708395136
 21
239.5763315021995
 31
0.0
  0
LINE
  5
EF5D
330
37
100
AcDbEntity
  8
01_表面形状
 62
     3
100
AcDbLine
 10
575.6742416195357
 20
236.5763315021995
 30
0.0
 11
575.1452606774105
 21
239.5763315021986
 31
0.0
  0
LINE
  5
EF5E
330
37
100
AcDbEntity
  8
01_表面形状
 62
     3
100
AcDbLine
 10
548.1742416195354
 20
246.0763315021996
 30
0.0
 11
555.7808433373331
 21
246.0763315021996
 31
0.0
  0
ARC
  5
EF5F
330
37
100
AcDbEntity
  8
01_表面形状
 62
     3
100
AcDbCircle
 10
557.7081054187401
 20
234.9957323764825
 30
0.0
 40
18.02876234979772
100
AcDbArc
 50
14.71858870360702
 51
38.96824723216568
  0
LINE
  5
EF60
330
37
100
AcDbEntity
  8
01_表面形状
 62
     3
100
AcDbLine
 10
575.6742416195357
 20
236.5763315021995
 30
0.0
 11
575.6742416195357
 21
235.5763315021995
 31
0.0
  0
ARC
  5
EF61
330
37
100
AcDbEntity
  8
01_表面形状
 62
     3
100
AcDbCircle
 10
566.4526259381946
 20
239.9020720941196
 30
0.0
 40
4.850046285234429
100
AcDbArc
 50
10.08623551558066
 51
51.5424792592516
  0
LINE
  5
EF62
330
37
100
AcDbEntity
  8
01_表面形状
 62
     3
100
AcDbLine
 10
548.1742416195354
 20
247.5763315021993
 30
0.0
 11
548.1742416195354
 21
240.5763315021995
 31
0.0
  0
ARC
  5
EF63
330
37
100
AcDbEntity
  8
01_表面形状
 62
     3
100
AcDbCircle
 10
549.1742416195354
 20
240.5763315021995
 30
0.0
 40
1.0
100
AcDbArc
 50
180.0
 51
270.0
  0
ARC
  5
EF64
330
37
100
AcDbEntity
  8
01_表面形状
 62
     3
100
AcDbCircle
 10
559.1269317005894
 20
245.0487040885857
 30
0.0
 40
3.510524108191588
100
AcDbArc
 50
54.74781917185991
 51
113.9886954491275
  0
LINE
  5
EF65
330
37
100
AcDbEntity
  8
01_表面形状
 62
     3
100
AcDbLine
 10
548.1742416195354
 20
244.5880892666839
 30
0.0
 11
556.1518388984211
 21
244.5880892666835
 31
0.0
  0
ARC
  5
EF66
330
37
100
AcDbEntity
  8
01_表面形状
 62
     3
100
AcDbCircle
 10
566.0476231596183
 20
238.6154114293158
 30
0.0
 40
6.128544476759803
100
AcDbArc
 50
56.06341995304028
 51
102.9497180966844
  0
ARC
  5
EF67
330
37
100
AcDbEntity
  8
01_表面形状
 62
     3
100
AcDbCircle
 10
570.2431708395136
 20
240.5763315021995
 30
0.0
 40
1.0
100
AcDbArc
 50
270.0
 51
10.08623551556783
  0
ARC
  5
EF68
330
37
100
AcDbEntity
  8
01_表面形状
 62
     3
100
AcDbCircle
 10
555.7748470251181
 20
240.6625620107504
 30
0.0
 40
9.029423017192899
100
AcDbArc
 50
353.0906412994737
 51
53.44180635986452
  0
ARC
  5
EF69
330
37
100
AcDbEntity
  8
01_表面形状
 62
     3
100
AcDbCircle
 10
559.6671644072866
 20
240.5763315021995
 30
0.0
 40
1.0
100
AcDbArc
 50
270.0
 51
356.6646897125595
  0
ARC
  5
EF6A
330
37
100
AcDbEntity
  8
01_表面形状
 62
     3
100
AcDbCircle
 10
560.1120493838414
 20
244.197854312494
 30
0.0
 40
4.721019208767681
100
AcDbArc
 50
120.729091006047
 51
156.5532535182629
  0
ARC
  5
EF6B
330
37
100
AcDbEntity
  8
01_表面形状
 62
     3
100
AcDbCircle
 10
556.6676404040947
 20
240.7511377289029
 30
0.0
 40
4.004613363280179
100
AcDbArc
 50
356.6646897125595
 51
63.78449922104568
  0
ARC
  5
EF6C
330
37
100
AcDbEntity
  8
01_表面形状
 62
     3
100
AcDbCircle
 10
556.9451308990823
 20
241.200171512442
 30
0.0
 40
3.479554412251477
100
AcDbArc
 50
64.61752287834442
 51
103.1785671290873
  0
LINE
  5
EF6D
330
37
100
AcDbEntity
  8
01_表面形状
 62
     3
100
AcDbLine
 10
564.6742416195356
 20
244.5880892666837
 30
0.0
 11
563.9052818830203
 21
244.5880892666837
 31
0.0
  0
LINE
  5
EF6E
330
37
100
AcDbEntity
  8
01_表面形状
 62
     3
100
AcDbLine
 10
554.1742416195356
 20
233.5763315021996
 30
0.0
 11
557.9062924271044
 21
234.5763315021995
 31
0.0
  0
LINE
  5
EF6F
330
37
100
AcDbEntity
  8
04_中心線
 62
   110
100
AcDbLine
 10
410.4583103366425
 20
310.4184721274882
 30
0.0
 11
479.4583103366425
 21
310.4184721274882
 31
0.0
  0
LINE
  5
EF70
330
37
100
AcDbEntity
  8
04_中心線
 62
   110
100
AcDbLine
 10
444.9583103366423
 20
345.9184721274877
 30
0.0
 11
444.9583103366426
 21
274.9184721274879
 31
0.0
  0
LINE
  5
EF71
330
37
100
AcDbEntity
  8
01_表面形状
 62
     3
100
AcDbLine
 10
448.8583103366425
 20
322.6345923601745
 30
0.0
 11
448.8583103366425
 21
319.282927316071
 31
0.0
  0
LINE
  5
EF72
330
37
100
AcDbEntity
  8
01_表面形状
 62
     3
100
AcDbLine
 10
441.0583103366426
 20
322.6345923601745
 30
0.0
 11
441.0583103366426
 21
319.2829273160711
 31
0.0
  0
LINE
  5
EF73
330
37
100
AcDbEntity
  8
01_表面形状
 62
     3
100
AcDbLine
 10
464.2414636057529
 20
307.5184721274882
 30
0.0
 11
469.5019982473438
 21
307.5184721274881
 31
0.0
  0
LINE
  5
EF74
330
37
100
AcDbEntity
  8
01_表面形状
 62
     3
100
AcDbLine
 10
464.2414636057529
 20
313.3184721274881
 30
0.0
 11
469.5019982473436
 21
313.3184721274882
 31
0.0
  0
ARC
  5
EF75
330
37
100
AcDbEntity
  8
01_表面形状
 62
     3
100
AcDbCircle
 10
469.4583103366425
 20
310.4184721274882
 30
0.0
 40
6.0
100
AcDbArc
 50
317.180808582179
 51
42.81919141781975
  0
ARC
  5
EF76
330
37
100
AcDbEntity
  8
01_表面形状
 62
     3
100
AcDbCircle
 10
489.2628708747571
 20
328.7700219773552
 30
0.0
 40
21.0
100
AcDbArc
 50
182.1808085821719
 51
222.8191914178197
  0
ARC
  5
EF77
330
37
100
AcDbEntity
  8
01_表面形状
 62
     3
100
AcDbCircle
 10
489.2628708747571
 20
328.7700219773552
 30
0.0
 40
23.8
100
AcDbArc
 50
188.2716035484641
 51
216.5548072426115
  0
ARC
  5
EF78
330
37
100
AcDbEntity
  8
01_表面形状
 62
     3
100
AcDbCircle
 10
469.5019982473436
 20
314.1184721274882
 30
0.0
 40
0.8
100
AcDbArc
 50
270.0
 51
36.55480724261152
  0
ARC
  5
EF79
330
37
100
AcDbEntity
  8
01_表面形状
 62
     3
100
AcDbCircle
 10
462.2824264757126
 20
327.7425882665583
 30
0.0
 40
6.0
100
AcDbArc
 50
2.180808582171956
 51
87.81919141782148
  0
ARC
  5
EF7A
330
37
100
AcDbEntity
  8
01_表面形状
 62
     3
100
AcDbCircle
 10
463.3098601865092
 20
354.7230326656028
 30
0.0
 40
21.0
100
AcDbArc
 50
227.1808085821733
 51
267.8191914178215
  0
ARC
  5
EF7B
330
37
100
AcDbEntity
  8
01_表面形状
 62
     3
100
AcDbCircle
 10
444.9583103366423
 20
334.9184721274877
 30
0.0
 40
6.0
100
AcDbArc
 50
47.18080858218715
 51
132.8191914178128
  0
ARC
  5
EF7C
330
37
100
AcDbEntity
  8
01_表面形状
 62
     3
100
AcDbCircle
 10
426.6067604867752
 20
354.7230326656026
 30
0.0
 40
21.0
100
AcDbArc
 50
272.1808085821785
 51
312.8191914178128
  0
ARC
  5
EF7D
330
37
100
AcDbEntity
  8
01_表面形状
 62
     3
100
AcDbCircle
 10
427.634194197572
 20
327.7425882665581
 30
0.0
 40
6.0
100
AcDbArc
 50
92.18080858217852
 51
177.819191417828
  0
ARC
  5
EF7E
330
37
100
AcDbEntity
  8
01_表面形状
 62
     3
100
AcDbCircle
 10
400.6537497985276
 20
328.7700219773545
 30
0.0
 40
21.0
100
AcDbArc
 50
317.180808582179
 51
357.819191417828
  0
ARC
  5
EF7F
330
37
100
AcDbEntity
  8
01_表面形状
 62
     3
100
AcDbCircle
 10
420.4583103366424
 20
310.4184721274877
 30
0.0
 40
6.0
100
AcDbArc
 50
137.1808085821756
 51
222.8191914178244
  0
ARC
  5
EF80
330
37
100
AcDbEntity
  8
01_表面形状
 62
     3
100
AcDbCircle
 10
400.6537497985278
 20
292.0669222776206
 30
0.0
 40
21.0
100
AcDbArc
 50
2.180808582171956
 51
42.81919141782435
  0
ARC
  5
EF81
330
37
100
AcDbEntity
  8
01_表面形状
 62
     3
100
AcDbCircle
 10
427.6341941975726
 20
293.0943559884175
 30
0.0
 40
6.0
100
AcDbArc
 50
182.1808085821719
 51
267.819191417828
  0
ARC
  5
EF82
330
37
100
AcDbEntity
  8
01_表面形状
 62
     3
100
AcDbCircle
 10
426.6067604867761
 20
266.113911589373
 30
0.0
 40
21.0
100
AcDbArc
 50
47.18080858217335
 51
87.81919141782799
  0
ARC
  5
EF83
330
37
100
AcDbEntity
  8
01_表面形状
 62
     3
100
AcDbCircle
 10
444.9583103366426
 20
285.9184721274879
 30
0.0
 40
6.0
100
AcDbArc
 50
227.1808085821733
 51
312.8191914178267
  0
ARC
  5
EF84
330
37
100
AcDbEntity
  8
01_表面形状
 62
     3
100
AcDbCircle
 10
463.3098601865096
 20
266.1139115893733
 30
0.0
 40
21.0
100
AcDbArc
 50
92.18080858217202
 51
132.8191914178266
  0
ARC
  5
EF85
330
37
100
AcDbEntity
  8
01_表面形状
 62
     3
100
AcDbCircle
 10
462.2824264757132
 20
293.0943559884175
 30
0.0
 40
6.0
100
AcDbArc
 50
272.180808582172
 51
357.819191417828
  0
ARC
  5
EF86
330
37
100
AcDbEntity
  8
01_表面形状
 62
     3
100
AcDbCircle
 10
489.2628708747575
 20
292.0669222776211
 30
0.0
 40
21.0
100
AcDbArc
 50
137.1808085821756
 51
177.819191417828
  0
ARC
  5
EF87
330
37
100
AcDbEntity
  8
01_表面形状
 62
     3
100
AcDbCircle
 10
463.3098601865092
 20
354.7230326656028
 30
0.0
 40
23.8
100
AcDbArc
 50
233.2716035484623
 51
261.7283964515426
  0
ARC
  5
EF88
330
37
100
AcDbEntity
  8
01_表面形状
 62
     3
100
AcDbCircle
 10
426.6067604867752
 20
354.7230326656026
 30
0.0
 40
23.8
100
AcDbArc
 50
278.2716035484574
 51
306.7283964515377
  0
ARC
  5
EF89
330
37
100
AcDbEntity
  8
01_表面形状
 62
     3
100
AcDbCircle
 10
400.6537497985276
 20
328.7700219773545
 30
0.0
 40
23.8
100
AcDbArc
 50
323.2716035484596
 51
351.7283964515359
  0
ARC
  5
EF8A
330
37
100
AcDbEntity
  8
01_表面形状
 62
     3
100
AcDbCircle
 10
400.6537497985278
 20
292.0669222776206
 30
0.0
 40
23.8
100
AcDbArc
 50
8.271603548464103
 51
36.72839645154048
  0
ARC
  5
EF8B
330
37
100
AcDbEntity
  8
01_表面形状
 62
     3
100
AcDbCircle
 10
426.6067604867761
 20
266.113911589373
 30
0.0
 40
23.8
100
AcDbArc
 50
53.27160354846229
 51
81.72839645153601
  0
ARC
  5
EF8C
330
37
100
AcDbEntity
  8
01_表面形状
 62
     3
100
AcDbCircle
 10
463.3098601865096
 20
266.1139115893733
 30
0.0
 40
23.8
100
AcDbArc
 50
98.271603548464
 51
126.7283964515377
  0
ARC
  5
EF8D
330
37
100
AcDbEntity
  8
01_表面形状
 62
     3
100
AcDbCircle
 10
489.2628708747575
 20
292.0669222776211
 30
0.0
 40
23.8
100
AcDbArc
 50
143.4451927573885
 51
171.7283964515359
  0
ARC
  5
EF8E
330
37
100
AcDbEntity
  8
01_表面形状
 62
     3
100
AcDbCircle
 10
469.5019982473438
 20
306.7184721274881
 30
0.0
 40
0.8
100
AcDbArc
 50
323.4451927573885
 51
90.0
  0
ARC
  5
EF8F
330
37
100
AcDbEntity
  8
01_表面形状
 62
     3
100
AcDbCircle
 10
444.9583103366426
 20
310.4184721274882
 30
0.0
 40
14.85640646055105
100
AcDbArc
 50
23.84729180845897
 51
66.15270819154286
  0
ARC
  5
EF90
330
37
100
AcDbEntity
  8
01_表面形状
 62
     3
100
AcDbCircle
 10
450.3583103366425
 20
322.6345923601745
 30
0.0
 40
1.5
100
AcDbArc
 50
66.15270819154286
 51
180.0
  0
ARC
  5
EF91
330
37
100
AcDbEntity
  8
01_表面形状
 62
     3
100
AcDbCircle
 10
457.1744305693289
 20
315.8184721274881
 30
0.0
 40
1.5
100
AcDbArc
 50
270.0
 51
23.84729180845897
  0
ARC
  5
EF92
330
37
100
AcDbEntity
  8
01_表面形状
 62
     3
100
AcDbCircle
 10
444.9583103366426
 20
310.4184721274882
 30
0.0
 40
14.85640646055105
100
AcDbArc
 50
113.8472918084572
 51
156.152708191541
  0
ARC
  5
EF93
330
37
100
AcDbEntity
  8
01_表面形状
 62
     3
100
AcDbCircle
 10
432.7421901039563
 20
315.8184721274881
 30
0.0
 40
1.5
100
AcDbArc
 50
156.152708191541
 51
270.0
  0
ARC
  5
EF94
330
37
100
AcDbEntity
  8
01_表面形状
 62
     3
100
AcDbCircle
 10
439.5583103366425
 20
322.6345923601745
 30
0.0
 40
1.5
100
AcDbArc
 50
0.0
 51
113.8472918084572
  0
ARC
  5
EF95
330
37
100
AcDbEntity
  8
01_表面形状
 62
     3
100
AcDbCircle
 10
444.9583103366426
 20
310.4184721274882
 30
0.0
 40
19.5
100
AcDbArc
 50
8.55263712385269
 51
36.44736287614602
  0
LINE
  5
EF96
330
37
100
AcDbEntity
  8
01_表面形状
 62
     3
100
AcDbLine
 10
432.7421901039563
 20
314.3184721274881
 30
0.0
 11
436.0938551480593
 21
314.3184721274876
 31
0.0
  0
LINE
  5
EF97
330
37
100
AcDbEntity
  8
01_表面形状
 62
     3
100
AcDbLine
 10
432.7421901039563
 20
306.5184721274882
 30
0.0
 11
436.0938551480598
 21
306.5184721274876
 31
0.0
  0
LINE
  5
EF98
330
37
100
AcDbEntity
  8
01_表面形状
 62
     3
100
AcDbLine
 10
441.0583103366426
 20
298.2023518948019
 30
0.0
 11
441.058310336642
 21
301.5540169389055
 31
0.0
  0
LINE
  5
EF99
330
37
100
AcDbEntity
  8
01_表面形状
 62
     3
100
AcDbLine
 10
448.8583103366425
 20
298.2023518948018
 30
0.0
 11
448.8583103366425
 21
301.5540169389053
 31
0.0
  0
LINE
  5
EF9A
330
37
100
AcDbEntity
  8
01_表面形状
 62
     3
100
AcDbLine
 10
457.1744305693289
 20
306.5184721274881
 30
0.0
 11
453.822765525225
 21
306.5184721274875
 31
0.0
  0
LINE
  5
EF9B
330
37
100
AcDbEntity
  8
01_表面形状
 62
     3
100
AcDbLine
 10
457.1744305693289
 20
314.3184721274881
 30
0.0
 11
453.8227655252256
 21
314.3184721274876
 31
0.0
  0
ARC
  5
EF9C
330
37
100
AcDbEntity
  8
01_表面形状
 62
     3
100
AcDbCircle
 10
444.9583103366426
 20
310.4184721274882
 30
0.0
 40
14.85640646055105
100
AcDbArc
 50
293.8472918084571
 51
336.152708191541
  0
ARC
  5
EF9D
330
37
100
AcDbEntity
  8
01_表面形状
 62
     3
100
AcDbCircle
 10
457.1744305693289
 20
305.0184721274881
 30
0.0
 40
1.5
100
AcDbArc
 50
336.152708191541
 51
90.0
  0
ARC
  5
EF9E
330
37
100
AcDbEntity
  8
01_表面形状
 62
     3
100
AcDbCircle
 10
450.3583103366425
 20
298.2023518948018
 30
0.0
 40
1.5
100
AcDbArc
 50
180.0
 51
293.8472918084571
  0
ARC
  5
EF9F
330
37
100
AcDbEntity
  8
01_表面形状
 62
     3
100
AcDbCircle
 10
444.9583103366426
 20
310.4184721274882
 30
0.0
 40
14.85640646055105
100
AcDbArc
 50
203.8472918084575
 51
246.1527081915428
  0
ARC
  5
EFA0
330
37
100
AcDbEntity
  8
01_表面形状
 62
     3
100
AcDbCircle
 10
439.5583103366425
 20
298.2023518948019
 30
0.0
 40
1.5
100
AcDbArc
 50
246.1527081915428
 51
0.0
  0
ARC
  5
EFA1
330
37
100
AcDbEntity
  8
01_表面形状
 62
     3
100
AcDbCircle
 10
432.7421901039563
 20
305.0184721274881
 30
0.0
 40
1.5
100
AcDbArc
 50
90.0
 51
203.8472918084575
  0
LINE
  5
EFA2
330
37
100
AcDbEntity
  8
01_表面形状
 62
     3
100
AcDbLine
 10
460.644168441331
 20
322.0031109012946
 30
0.0
 11
464.3639281590668
 21
325.7228706190304
 31
0.0
  0
LINE
  5
EFA3
330
37
100
AcDbEntity
  8
01_表面形状
 62
     3
100
AcDbLine
 10
456.5429491104491
 20
326.1043302321766
 30
0.0
 11
460.2627088281845
 21
329.8240899499122
 31
0.0
  0
ARC
  5
EFA4
330
37
100
AcDbEntity
  8
01_表面形状
 62
     3
100
AcDbCircle
 10
459.6970234032353
 20
330.3897753748614
 30
0.0
 40
0.8
100
AcDbArc
 50
315.0
 51
81.55480724261344
  0
ARC
  5
EFA5
330
37
100
AcDbEntity
  8
01_表面形状
 62
     3
100
AcDbCircle
 10
464.929613584016
 20
325.1571851940811
 30
0.0
 40
0.8
100
AcDbArc
 50
8.44519275738804
 51
135.0
  0
LINE
  5
EFA6
330
37
100
AcDbEntity
  8
01_表面形状
 62
     3
100
AcDbLine
 10
447.8583103366425
 20
329.7016253965984
 30
0.0
 11
447.8583103366426
 21
334.9621600381895
 31
0.0
  0
LINE
  5
EFA7
330
37
100
AcDbEntity
  8
01_表面形状
 62
     3
100
AcDbLine
 10
442.0583103366426
 20
329.7016253965984
 30
0.0
 11
442.0583103366426
 21
334.9621600381892
 31
0.0
  0
ARC
  5
EFA8
330
37
100
AcDbEntity
  8
01_表面形状
 62
     3
100
AcDbCircle
 10
441.2583103366426
 20
334.9621600381892
 30
0.0
 40
0.8
100
AcDbArc
 50
0.0
 51
126.5548072426133
  0
ARC
  5
EFA9
330
37
100
AcDbEntity
  8
01_表面形状
 62
     3
100
AcDbCircle
 10
448.6583103366426
 20
334.9621600381895
 30
0.0
 40
0.8
100
AcDbArc
 50
53.44519275738669
 51
180.0
  0
LINE
  5
EFAA
330
37
100
AcDbEntity
  8
01_表面形状
 62
     3
100
AcDbLine
 10
433.3736715628361
 20
326.1043302321766
 30
0.0
 11
429.6539118451003
 21
329.8240899499123
 31
0.0
  0
LINE
  5
EFAB
330
37
100
AcDbEntity
  8
01_表面形状
 62
     3
100
AcDbLine
 10
429.2724522319541
 20
322.0031109012945
 30
0.0
 11
425.5526925142185
 21
325.7228706190301
 31
0.0
  0
ARC
  5
EFAC
330
37
100
AcDbEntity
  8
01_表面形状
 62
     3
100
AcDbCircle
 10
424.9870070892693
 20
325.1571851940809
 30
0.0
 40
0.8
100
AcDbArc
 50
45.0
 51
171.5548072426103
  0
ARC
  5
EFAD
330
37
100
AcDbEntity
  8
01_表面形状
 62
     3
100
AcDbCircle
 10
430.2195972700496
 20
330.3897753748616
 30
0.0
 40
0.8
100
AcDbArc
 50
98.44519275738655
 51
225.0
  0
LINE
  5
EFAE
330
37
100
AcDbEntity
  8
01_表面形状
 62
     3
100
AcDbLine
 10
425.6751570675323
 20
313.3184721274883
 30
0.0
 11
420.4146224259412
 21
313.3184721274882
 31
0.0
  0
LINE
  5
EFAF
330
37
100
AcDbEntity
  8
01_表面形状
 62
     3
100
AcDbLine
 10
425.6751570675323
 20
307.5184721274882
 30
0.0
 11
420.4146224259416
 21
307.5184721274882
 31
0.0
  0
ARC
  5
EFB0
330
37
100
AcDbEntity
  8
01_表面形状
 62
     3
100
AcDbCircle
 10
420.4146224259416
 20
306.7184721274882
 30
0.0
 40
0.8
100
AcDbArc
 50
90.0
 51
216.5548072426115
  0
ARC
  5
EFB1
330
37
100
AcDbEntity
  8
01_表面形状
 62
     3
100
AcDbCircle
 10
420.4146224259412
 20
314.1184721274882
 30
0.0
 40
0.8
100
AcDbArc
 50
143.4451927573885
 51
270.0
  0
LINE
  5
EFB2
330
37
100
AcDbEntity
  8
01_表面形状
 62
     3
100
AcDbLine
 10
429.2724522319542
 20
298.8338333536816
 30
0.0
 11
425.5526925142183
 21
295.1140736359459
 31
0.0
  0
LINE
  5
EFB3
330
37
100
AcDbEntity
  8
01_表面形状
 62
     3
100
AcDbLine
 10
433.3736715628361
 20
294.7326140227997
 30
0.0
 11
429.6539118451006
 21
291.0128543050642
 31
0.0
  0
ARC
  5
EFB4
330
37
100
AcDbEntity
  8
01_表面形状
 62
     3
100
AcDbCircle
 10
430.2195972700499
 20
290.447168880115
 30
0.0
 40
0.8
100
AcDbArc
 50
135.0
 51
261.5548072426102
  0
ARC
  5
EFB5
330
37
100
AcDbEntity
  8
01_表面形状
 62
     3
100
AcDbCircle
 10
424.987007089269
 20
295.6797590608952
 30
0.0
 40
0.8
100
AcDbArc
 50
188.4451927573864
 51
315.0
  0
LINE
  5
EFB6
330
37
100
AcDbEntity
  8
01_表面形状
 62
     3
100
AcDbLine
 10
442.0583103366426
 20
291.1353188583778
 30
0.0
 11
442.0583103366426
 21
285.8747842167868
 31
0.0
  0
LINE
  5
EFB7
330
37
100
AcDbEntity
  8
01_表面形状
 62
     3
100
AcDbLine
 10
447.8583103366425
 20
291.1353188583778
 30
0.0
 11
447.8583103366426
 21
285.8747842167872
 31
0.0
  0
ARC
  5
EFB8
330
37
100
AcDbEntity
  8
01_表面形状
 62
     3
100
AcDbCircle
 10
448.6583103366426
 20
285.8747842167872
 30
0.0
 40
0.8
100
AcDbArc
 50
180.0
 51
306.5548072426133
  0
ARC
  5
EFB9
330
37
100
AcDbEntity
  8
01_表面形状
 62
     3
100
AcDbCircle
 10
441.2583103366425
 20
285.8747842167868
 30
0.0
 40
0.8
100
AcDbArc
 50
233.4451927573867
 51
0.0
  0
LINE
  5
EFBA
330
37
100
AcDbEntity
  8
01_表面形状
 62
     3
100
AcDbLine
 10
456.542949110449
 20
294.7326140227997
 30
0.0
 11
460.2627088281847
 21
291.0128543050639
 31
0.0
  0
LINE
  5
EFBB
330
37
100
AcDbEntity
  8
01_表面形状
 62
     3
100
AcDbLine
 10
460.644168441331
 20
298.8338333536816
 30
0.0
 11
464.3639281590665
 21
295.1140736359461
 31
0.0
  0
ARC
  5
EFBC
330
37
100
AcDbEntity
  8
01_表面形状
 62
     3
100
AcDbCircle
 10
464.9296135840158
 20
295.6797590608953
 30
0.0
 40
0.8
100
AcDbArc
 50
225.0
 51
351.554807242612
  0
ARC
  5
EFBD
330
37
100
AcDbEntity
  8
01_表面形状
 62
     3
100
AcDbCircle
 10
459.6970234032355
 20
290.4471688801146
 30
0.0
 40
0.8
100
AcDbArc
 50
278.4451927573865
 51
45.0
  0
ARC
  5
EFBE
330
37
100
AcDbEntity
  8
01_表面形状
 62
     3
100
AcDbCircle
 10
444.9583103366426
 20
310.4184721274882
 30
0.0
 40
19.5
100
AcDbArc
 50
53.5526371238517
 51
81.44736287614732
  0
ARC
  5
EFBF
330
37
100
AcDbEntity
  8
01_表面形状
 62
     3
100
AcDbCircle
 10
444.9583103366426
 20
310.4184721274882
 30
0.0
 40
19.5
100
AcDbArc
 50
98.55263712385269
 51
126.4473628761483
  0
ARC
  5
EFC0
330
37
100
AcDbEntity
  8
01_表面形状
 62
     3
100
AcDbCircle
 10
444.9583103366426
 20
310.4184721274881
 30
0.0
 40
19.5
100
AcDbArc
 50
143.552637123854
 51
171.4473628761473
  0
ARC
  5
EFC1
330
37
100
AcDbEntity
  8
01_表面形状
 62
     3
100
AcDbCircle
 10
444.9583103366426
 20
310.4184721274882
 30
0.0
 40
19.5
100
AcDbArc
 50
188.5526371238526
 51
216.447362876146
  0
ARC
  5
EFC2
330
37
100
AcDbEntity
  8
01_表面形状
 62
     3
100
AcDbCircle
 10
444.9583103366426
 20
310.4184721274881
 30
0.0
 40
19.5
100
AcDbArc
 50
233.5526371238517
 51
261.4473628761473
  0
ARC
  5
EFC3
330
37
100
AcDbEntity
  8
01_表面形状
 62
     3
100
AcDbCircle
 10
444.9583103366426
 20
310.4184721274882
 30
0.0
 40
19.5
100
AcDbArc
 50
278.5526371238526
 51
306.4473628761442
  0
ARC
  5
EFC4
330
37
100
AcDbEntity
  8
01_表面形状
 62
     3
100
AcDbCircle
 10
444.9583103366426
 20
310.4184721274882
 30
0.0
 40
19.5
100
AcDbArc
 50
323.552637123854
 51
351.4473628761473
  0
CIRCLE
  5
EFC5
330
37
100
AcDbEntity
  8
01_表面形状
 62
     3
100
AcDbCircle
 10
444.9583103366424
 20
310.4184721274882
 30
0.0
 40
2.299999999999999
  0
CIRCLE
  5
EFC6
330
37
100
AcDbEntity
  8
01_表面形状
 62
     3
100
AcDbCircle
 10
444.9583103366424
 20
310.4184721274882
 30
0.0
 40
3.0
  0
LINE
  5
EFC7
330
37
100
AcDbEntity
  8
01_表面形状
 62
     3
100
AcDbLine
 10
442.0715513366424
 20
305.4184661274881
 30
0.0
 11
439.1848013366424
 21
310.4184631274881
 31
0.0
  0
LINE
  5
EFC8
330
37
100
AcDbEntity
  8
01_表面形状
 62
     3
100
AcDbLine
 10
450.7318053366424
 20
310.4184661274881
 30
0.0
 11
447.8450553366425
 21
315.4184631274881
 31
0.0
  0
LINE
  5
EFC9
330
37
100
AcDbEntity
  8
01_表面形状
 62
     3
100
AcDbLine
 10
439.1848023366424
 20
310.4184741274881
 30
0.0
 11
442.0715513366424
 21
315.4184701274882
 31
0.0
  0
LINE
  5
EFCA
330
37
100
AcDbEntity
  8
01_表面形状
 62
     3
100
AcDbLine
 10
447.8450563366425
 20
305.4184741274881
 30
0.0
 11
450.7318053366424
 21
310.4184701274882
 31
0.0
  0
LINE
  5
EFCB
330
37
100
AcDbEntity
  8
01_表面形状
 62
     3
100
AcDbLine
 10
442.0715503366424
 20
315.4184721274881
 30
0.0
 11
447.8450533366425
 21
315.4184721274881
 31
0.0
  0
LINE
  5
EFCC
330
37
100
AcDbEntity
  8
01_表面形状
 62
     3
100
AcDbLine
 10
442.0715503366424
 20
305.4184721274881
 30
0.0
 11
447.8450533366425
 21
305.4184721274881
 31
0.0
  0
ARC
  5
EFCD
330
37
100
AcDbEntity
  8
01_表面形状
 62
     3
100
AcDbCircle
 10
444.9583103366424
 20
310.4184721274881
 30
0.0
 40
5.488
100
AcDbArc
 50
125.6549929462697
 51
174.3450076819298
  0
ARC
  5
EFCE
330
37
100
AcDbEntity
  8
01_表面形状
 62
     3
100
AcDbCircle
 10
444.9583103366424
 20
310.4184721274881
 30
0.0
 40
5.488
100
AcDbArc
 50
185.6551018902064
 51
234.3449047464134
  0
ARC
  5
EFCF
330
37
100
AcDbEntity
  8
01_表面形状
 62
     3
100
AcDbCircle
 10
444.9583103366424
 20
310.4184721274881
 30
0.0
 40
5.488
100
AcDbArc
 50
245.6548504826338
 51
294.3451495173662
  0
ARC
  5
EFD0
330
37
100
AcDbEntity
  8
01_表面形状
 62
     3
100
AcDbCircle
 10
444.9583103366424
 20
310.4184721274881
 30
0.0
 40
5.488
100
AcDbArc
 50
305.6547078179491
 51
354.3452928102521
  0
ARC
  5
EFD1
330
37
100
AcDbEntity
  8
01_表面形状
 62
     3
100
AcDbCircle
 10
444.9583103366424
 20
310.4184721274881
 30
0.0
 40
5.488
100
AcDbArc
 50
5.654604884028153
 51
54.34540175259066
  0
ARC
  5
EFD2
330
37
100
AcDbEntity
  8
01_表面形状
 62
     3
100
AcDbCircle
 10
444.9583103366424
 20
310.4184721274881
 30
0.0
 40
5.488
100
AcDbArc
 50
65.6548504826374
 51
114.3451495173626
  0
CIRCLE
  5
EFD3
330
37
100
AcDbEntity
  8
01_表面形状
 62
     3
100
AcDbCircle
 10
444.9583103366424
 20
310.4184721274882
 30
0.0
 40
9.6844496896
  0
LWPOLYLINE
  5
EFD4
330
37
100
AcDbEntity
  8
01_表面形状
 62
     3
100
AcDbPolyline
 90
       10
 70
     1
 43
0.0
 10
438.8453056285407
 20
305.6958274339673
 10
439.5752171349409
 20
303.2255826003246
 10
440.1244973386408
 20
303.8036233960091
 42
0.3262597201020667
 10
449.787804648755
 20
303.8004696698525
 10
450.3175242441616
 20
303.2310395752221
 10
451.0735933080185
 20
305.6934042752601
 10
448.5630883924752
 20
305.1169969415566
 10
449.0879679600693
 20
304.5527697080609
 42
-0.3164916484887445
 10
440.8332779414274
 20
304.5495161131338
 10
441.3495561612426
 20
305.0928269242032
  0
LWPOLYLINE
  5
EFD5
330
37
100
AcDbEntity
  8
01_表面形状
 62
     3
100
AcDbPolyline
 90
      110
 70
     1
 43
0.0
 10
437.3697020661877
 20
308.055903744779
 10
437.1103791496142
 20
307.880131490188
 10
437.018697838637
 20
307.8156114402539
 10
436.9013784532391
 20
307.7134643213038
 10
436.8454370422115
 20
307.6185371925127
 10
436.7793954670069
 20
307.5346437104428
 10
436.7283493466861
 20
307.4385993553195
 10
436.6770894970514
 20
307.3251842498042
 10
436.6576558164169
 20
307.1590587465494
 10
436.6583434233239
 20
307.0716400321308
 10
436.65503272296
 20
306.9786257365341
 10
436.6826038958477
 20
306.8589450137241
 10
436.7303580136885
 20
306.7298105240776
 10
436.772674262193
 20
306.6281737739962
 10
436.8334607435214
 20
306.5273385712814
 10
436.908496302486
 20
306.4148510380156
 10
436.9923868586481
 20
306.3115748624702
 10
437.1188666084851
 20
306.2181538523037
 10
437.2574573847692
 20
306.1313734450332
 10
437.3686838669966
 20
306.108382522465
 10
437.4646680280658
 20
306.0771598702691
 10
437.5941141165921
 20
306.0647216369713
 10
437.7185832078524
 20
306.0776926163605
 10
437.8404674281425
 20
306.1014826896969
 10
437.9594889192915
 20
306.1421500511948
 10
438.0518559216524
 20
306.1892133895911
 10
438.1414277425705
 20
306.2522489013734
 10
438.2136953356867
 20
306.2977542506304
 10
438.3115954529972
 20
306.3773232434102
 10
438.3656340620979
 20
306.4364385011464
 10
438.4403216584399
 20
306.5301938173596
 10
438.4891675167008
 20
306.6594118772867
 10
438.5311428711578
 20
306.7887479345043
 10
438.5257194639302
 20
306.9600108844323
 10
438.4498407787875
 20
307.7045712537232
 10
438.4527375321789
 20
307.7557465902585
 10
438.4747514470795
 20
307.8006597754152
 10
438.5048548413327
 20
307.8350644207727
 10
438.5189543335332
 20
307.8481921493677
 10
438.5560391214958
 20
307.8670877926238
 10
438.6038567310007
 20
307.8828536406368
 10
438.6323577037079
 20
307.881823190466
 10
438.7045776286455
 20
307.8668947889168
 10
438.7335595447968
 20
307.8595584997903
 10
438.7747223764564
 20
307.8225273422711
 10
438.832583930949
 20
307.7678900769084
 10
438.8799752325671
 20
307.685841394649
 10
438.905061288158
 20
307.6124681724006
 10
438.9215464589558
 20
307.5464169636152
 10
438.9219792434503
 20
307.4913606142912
 10
438.9024512142303
 20
307.4468571314095
 10
438.8600017648836
 20
307.3855129965497
 10
438.7857155697825
 20
307.3100604511811
 10
438.5927268540166
 20
307.1742460584198
 10
438.8631159905671
 20
306.6435774984514
 10
439.1065850628039
 20
306.7922032114507
 10
439.200106510117
 20
306.8567180839178
 10
439.3084311024971
 20
306.9314458620299
 10
439.387598611627
 20
307.0245771358578
 10
439.4452507340265
 20
307.1027198389739
 10
439.4876713044982
 20
307.1783366819003
 10
439.5545342626747
 20
307.2917966130245
 10
439.5665820066598
 20
307.441857384522
 10
439.5731496523481
 20
307.5370505152271
 10
439.5681154507545
 20
307.6314842183752
 10
439.5472051782392
 20
307.7319719195628
 10
439.4964279233366
 20
307.9012009928277
 10
439.454122357674
 20
308.0046630231136
 10
439.3713036826632
 20
308.1305704355128
 10
439.3053638830258
 20
308.2221983691439
 10
439.2253956227121
 20
308.3009937876628
 10
439.0844128807195
 20
308.420050095716
 10
438.941387423384
 20
308.474224327988
 10
438.8066466793663
 20
308.4977129219101
 10
438.6950652591237
 20
308.5008817729729
 10
438.5827915864882
 20
308.4923085132036
 10
438.4617911863689
 20
308.4686909490454
 10
438.3616969293582
 20
308.4386839018593
 10
438.2079038113026
 20
308.3603223942529
 10
438.1204303155786
 20
308.2973455066802
 10
438.035709683726
 20
308.2363515679132
 10
437.957110858986
 20
308.1649197447362
 10
437.8744521354274
 20
308.0599172804356
 10
437.794448493326
 20
307.9058644829233
 10
437.7810115711203
 20
307.7651261312502
 10
437.7895059034482
 20
307.6377534742018
 10
437.8732954749619
 20
306.9046285053059
 10
437.8674307420016
 20
306.8740482815248
 10
437.8366127928864
 20
306.8134446699692
 10
437.8133978270405
 20
306.7740511328336
 10
437.7724312380554
 20
306.7486837370108
 10
437.7007174876371
 20
306.6992119678482
 10
437.6645841653042
 20
306.6877975203729
 10
437.5996967956452
 20
306.6855675443654
 10
437.5609665383922
 20
306.6981661865009
 10
437.5135023745452
 20
306.7136058984206
 10
437.438976739288
 20
306.7602714086102
 10
437.4026819989457
 20
306.794151290662
 10
437.3858335443639
 20
306.818102336776
 10
437.3563221638201
 20
306.864059206137
 10
437.3167630273202
 20
306.9553607788414
 10
437.2873377305343
 20
307.0273231123088
 10
437.2751549772116
 20
307.0658584711413
 10
437.279182532356
 20
307.0927447194257
 10
437.2845893040178
 20
307.1546906805812
 10
437.2964771405533
 20
307.2093497810473
 10
437.3695537112568
 20
307.3124137723858
 10
437.4010763719145
 20
307.3484404726156
 10
437.4650525824317
 20
307.3934632613733
 10
437.6464255104557
 20
307.5128034059389
  0
LINE
  5
EFD6
330
37
100
AcDbEntity
  8
CENTER
100
AcDbLine
 10
444.9583103366424
 20
301.5258740398636
 30
0.0
 11
444.9583103366424
 21
299.0958075764845
 31
0.0
  0
LWPOLYLINE
  5
EFD7
330
37
100
AcDbEntity
  8
01_表面形状
 62
     3
100
AcDbPolyline
 90
       72
 70
     1
 43
0.0
 10
450.4492034838835
 20
307.0847485968446
 10
450.4157716424582
 20
307.2191569673005
 10
450.4111835864581
 20
307.3364776443332
 10
450.4071724145454
 20
307.4390369016466
 10
450.4065164264096
 20
307.5711005159909
 10
450.4403669506709
 20
307.6973118256396
 10
450.4763018125744
 20
307.7827595027133
 10
450.5176289078135
 20
307.875943867535
 10
450.5624880505302
 20
307.9786015522511
 10
450.6325922722863
 20
308.074651939113
 10
450.7026056888607
 20
308.1741952801107
 10
450.7935471917053
 20
308.2822429100065
 10
450.9100074910088
 20
308.3482571226229
 10
450.9943678240674
 20
308.3846916079269
 10
451.0841240668113
 20
308.4355689260137
 10
451.1977759916241
 20
308.4703575913188
 10
451.3185151205489
 20
308.494502426633
 10
451.4181417413122
 20
308.4996893868285
 10
451.5229847709931
 20
308.5008365638845
 10
451.6373906018232
 20
308.4868919548926
 10
451.7441679169221
 20
308.468920827861
 10
451.8344375670117
 20
308.4633343654502
 10
451.9116805270696
 20
308.4468526426549
 10
452.0370761259956
 20
308.3979994394705
 10
452.1420024180849
 20
308.3600905510763
 10
452.2200731265764
 20
308.3185796190349
 10
452.3293586235675
 20
308.2858278070445
 10
452.4803169280676
 20
308.1956090320909
 10
452.5796986718255
 20
308.1179226884344
 10
452.6507762609734
 20
308.0728128304051
 10
452.7488891685536
 20
308.0119410669658
 10
452.8368611217395
 20
307.944513957523
 10
452.9352196633996
 20
307.8373487978934
 10
453.0644726982189
 20
307.6947474002829
 10
453.1474397925656
 20
307.5991340809726
 10
453.2248144982423
 20
307.4299451441084
 10
453.2711435070233
 20
307.2989011211135
 10
453.287266694808
 20
307.2061001258752
 10
453.3077419139806
 20
307.1033560988038
 10
453.3254103046901
 20
306.9777824538003
 10
453.3077831581372
 20
306.85282222428
 10
453.2696803736678
 20
306.747422982292
 10
453.2453946317679
 20
306.6568738591142
 10
453.2088851971283
 20
306.5480364829415
 10
453.1483105926202
 20
306.4554365243672
 10
453.1027086373241
 20
306.3997273685914
 10
453.0488103622848
 20
306.3147831818043
 10
453.0063570015244
 20
306.2707215829646
 10
452.9374933121522
 20
306.1835186542254
 10
452.8150443698286
 20
306.1238201825469
 10
452.7226704104149
 20
306.0778035691803
 10
452.6343168493657
 20
306.005245033768
 10
452.4439732533776
 20
305.9615331573033
 10
452.3064999743608
 20
305.9501029804433
 10
452.1897103261151
 20
305.9488259431787
 10
452.0720164102743
 20
305.9761247934412
 10
451.9499344730191
 20
305.9881084543908
 10
451.835353736563
 20
306.0020751991443
 10
451.7164002961226
 20
306.0359538663073
 10
451.6039344765608
 20
306.0788330734866
 10
451.4633259774706
 20
306.1273071962589
 10
451.3579484960589
 20
306.1833373970103
 10
451.2563156224294
 20
306.2458110433904
 10
451.13329613452
 20
306.3193324540299
 10
451.0240542813254
 20
306.385931855543
 10
450.9044250366188
 20
306.4688118008334
 10
450.8247507891685
 20
306.5526138837992
 10
450.7553562680372
 20
306.6389623461335
 10
450.6711884887624
 20
306.7306618822425
 10
450.600578155476
 20
306.8090698816809
 10
450.5417083718325
 20
306.9184382838113
 10
450.4938714160684
 20
307.0073111639614
  0
LWPOLYLINE
  5
EFD8
330
37
100
AcDbEntity
  8
01_表面形状
 62
     3
100
AcDbPolyline
 90
       52
 70
     1
 43
0.0
 10
451.2598756025191
 20
307.180372581595
 10
451.2336718973229
 20
307.2389345581238
 10
451.2146144496689
 20
307.2831408130458
 10
451.2087678496622
 20
307.3308632765576
 10
451.2004637786579
 20
307.3937748092193
 10
451.2101720442818
 20
307.4278260020836
 10
451.2422091835436
 20
307.5139243922098
 10
451.2588724776481
 20
307.5616146714215
 10
451.2804140077417
 20
307.5897329038979
 10
451.3410098983166
 20
307.6606295736101
 10
451.3590425646198
 20
307.6754385280087
 10
451.4159137303798
 20
307.6958523968906
 10
451.5007521478892
 20
307.729755542643
 10
451.5707335966913
 20
307.7423168488678
 10
451.6476705498337
 20
307.7422005512945
 10
451.7706562868992
 20
307.7129700228047
 10
451.8557519089936
 20
307.6918247368183
 10
451.9677236547955
 20
307.6442336979702
 10
452.1901474146649
 20
307.525968887022
 10
452.2689321998766
 20
307.4733970782802
 10
452.3578011628157
 20
307.3824569269345
 10
452.4212840126996
 20
307.3181597091454
 10
452.4597672934204
 20
307.2640475096798
 10
452.4896534257226
 20
307.2061119108603
 10
452.5095111513092
 20
307.1410810538315
 10
452.5295773221426
 20
307.085929839233
 10
452.5316017586924
 20
307.0466019092358
 10
452.5335540296802
 20
306.9966854591435
 10
452.5281739697954
 20
306.9787496059585
 10
452.5150809182692
 20
306.9444261187803
 10
452.4807323214314
 20
306.8687967061004
 10
452.446501277251
 20
306.8126382921264
 10
452.4304038856441
 20
306.7973216659151
 10
452.3958281176385
 20
306.7689267206806
 10
452.3566909269762
 20
306.7513838498019
 10
452.3021814295817
 20
306.7269508589904
 10
452.2556587949994
 20
306.7127101993762
 10
452.1559926366943
 20
306.7151800460574
 10
452.0915539388748
 20
306.7051026573557
 10
452.0274343399383
 20
306.7066915563161
 10
451.9293999125261
 20
306.7231909639813
 10
451.883171825011
 20
306.7430361441384
 10
451.8056775092188
 20
306.7763028037509
 10
451.7223829192377
 20
306.8072806445302
 10
451.6613302909601
 20
306.8397429028131
 10
451.5876470663477
 20
306.8789209682947
 10
451.5120298613707
 20
306.9258358210579
 10
451.4633826784599
 20
306.956710074686
 10
451.4120171097961
 20
307.0082803183729
 10
451.3399683616794
 20
307.0689568500574
 10
451.3149615889944
 20
307.0937111714731
 10
451.2726216961462
 20
307.1566928632905
  0
ARC
  5
EFD9
330
37
100
AcDbEntity
  8
01_表面形状
 62
     3
100
AcDbCircle
 10
444.9583103366412
 20
310.418472127491
 30
0.0
 40
21.5
100
AcDbArc
 50
142.7518960895329
 51
172.2481039104661
  0
ARC
  5
EFDA
330
37
100
AcDbEntity
  8
01_表面形状
 62
     3
100
AcDbCircle
 10
444.9583103366412
 20
310.418472127491
 30
0.0
 40
21.5
100
AcDbArc
 50
187.7518960895322
 51
217.248103910467
  0
ARC
  5
EFDB
330
37
100
AcDbEntity
  8
01_表面形状
 62
     3
100
AcDbCircle
 10
444.9583103366412
 20
310.418472127491
 30
0.0
 40
21.5
100
AcDbArc
 50
232.7518960895317
 51
262.2481039104663
  0
ARC
  5
EFDC
330
37
100
AcDbEntity
  8
01_表面形状
 62
     3
100
AcDbCircle
 10
444.9583103366412
 20
310.418472127491
 30
0.0
 40
21.5
100
AcDbArc
 50
277.7518960895337
 51
307.2481039104658
  0
ARC
  5
EFDD
330
37
100
AcDbEntity
  8
01_表面形状
 62
     3
100
AcDbCircle
 10
444.9583103366412
 20
310.418472127491
 30
0.0
 40
21.5
100
AcDbArc
 50
322.751896089533
 51
352.2481039104678
  0
ARC
  5
EFDE
330
37
100
AcDbEntity
  8
01_表面形状
 62
     3
100
AcDbCircle
 10
444.9583103366412
 20
310.418472127491
 30
0.0
 40
21.5
100
AcDbArc
 50
7.75189608953223
 51
37.24810391046705
  0
ARC
  5
EFDF
330
37
100
AcDbEntity
  8
01_表面形状
 62
     3
100
AcDbCircle
 10
444.9583103366412
 20
310.418472127491
 30
0.0
 40
21.5
100
AcDbArc
 50
52.75189608953166
 51
82.24810391046627
  0
ARC
  5
EFE0
330
37
100
AcDbEntity
  8
01_表面形状
 62
     3
100
AcDbCircle
 10
444.9583103366412
 20
310.418472127491
 30
0.0
 40
21.5
100
AcDbArc
 50
97.75189608953375
 51
127.2481039104683
  0
LINE
  5
EFE1
330
37
100
AcDbEntity
  8
01_表面形状
 62
     3
100
AcDbLine
 10
541.0242416195355
 20
221.0577425694816
 30
0.0
 11
541.0242416195355
 21
229.5763315021996
 31
0.0
  0
LINE
  5
EFE2
330
37
100
AcDbEntity
  8
01_表面形状
 62
     3
100
AcDbLine
 10
549.3242416195357
 20
221.0577425694816
 30
0.0
 11
549.3242416195357
 21
229.5763315021996
 31
0.0
  0
LINE
  5
EFE3
330
37
100
AcDbEntity
  8
01_表面形状
 62
     3
100
AcDbLine
 10
432.2566044144708
 20
206.0763315021994
 30
0.0
 11
435.3769548076511
 21
207.7132312025599
 31
0.0
  0
ARC
  5
EFE4
330
37
100
AcDbEntity
  8
01_表面形状
 62
     3
100
AcDbCircle
 10
455.9828026592208
 20
210.3775971779282
 30
0.0
 40
3.024502181317393
100
AcDbArc
 50
197.3044693123627
 51
242.2314394510511
  0
LINE
  5
EFE5
330
37
100
AcDbEntity
  8
01_表面形状
 62
     3
100
AcDbLine
 10
457.6600162588143
 20
206.0763315021993
 30
0.0
 11
454.5736835205071
 21
207.7014064714007
 31
0.0
  0
LINE
  5
EFE6
330
37
100
AcDbEntity
  8
01_表面形状
 62
     3
100
AcDbLine
 10
438.6074573755568
 20
206.0763315021993
 30
0.0
 11
438.6074573755568
 21
199.0763315021993
 31
0.0
  0
LINE
  5
EFE7
330
37
100
AcDbEntity
  8
01_表面形状
 62
     3
100
AcDbLine
 10
451.3091632977284
 20
206.0763315021994
 30
0.0
 11
451.3091632977284
 21
199.0763315021993
 31
0.0
  0
LINE
  5
EFE8
330
37
100
AcDbEntity
  8
01_表面形状
 62
     3
100
AcDbLine
 10
534.1742416195359
 20
206.4403017364656
 30
0.0
 11
536.2056080882125
 21
208.1395174989724
 31
0.0
  0
LINE
  5
EFE9
330
37
100
AcDbEntity
  8
01_表面形状
 62
     3
100
AcDbLine
 10
545.1742416195359
 20
199.0763315021993
 30
0.0
 11
545.1742416195359
 21
206.0763315021994
 31
0.0
  0
LINE
  5
EFEA
330
37
100
AcDbEntity
  8
01_表面形状
 62
     3
100
AcDbLine
 10
452.9589275471872
 20
212.0577425694816
 30
0.0
 11
452.9589275471872
 21
209.4779609744357
 31
0.0
  0
LINE
  5
EFEB
330
37
100
AcDbEntity
  8
01_表面形状
 62
     3
100
AcDbLine
 10
452.9589275471876
 20
212.0577425694816
 30
0.0
 11
452.9589275471876
 21
209.4779609744357
 31
0.0
  0
LINE
  5
EFEC
330
37
100
AcDbEntity
  8
01_表面形状
 62
     3
100
AcDbLine
 10
452.1589275471872
 20
212.0577425694816
 30
0.0
 11
452.1589275471872
 21
209.4779609744357
 31
0.0
  0
LINE
  5
EFED
330
37
100
AcDbEntity
  8
01_表面形状
 62
     3
100
AcDbLine
 10
434.5666227017745
 20
221.0577425694816
 30
0.0
 11
455.351232392601
 21
221.0577425694816
 31
0.0
  0
LINE
  5
EFEE
330
37
100
AcDbEntity
  8
01_表面形状
 62
     3
100
AcDbLine
 10
434.5666227017745
 20
221.0577425694816
 30
0.0
 11
455.351232392601
 21
221.0577425694816
 31
0.0
  0
LINE
  5
EFEF
330
37
100
AcDbEntity
  8
01_表面形状
 62
     3
100
AcDbLine
 10
439.7627751244812
 20
221.0577425694816
 30
0.0
 11
439.7627751244812
 21
212.0577425694816
 31
0.0
  0
LINE
  5
EFF0
330
37
100
AcDbEntity
  8
01_表面形状
 62
     3
100
AcDbLine
 10
450.1550799698945
 20
221.0577425694816
 30
0.0
 11
450.1550799698945
 21
212.0577425694816
 31
0.0
  0
LINE
  5
EFF1
330
37
100
AcDbEntity
  8
01_表面形状
 62
     3
100
AcDbLine
 10
436.9839275471879
 20
209.4779609744357
 30
0.0
 11
452.9589275471876
 21
209.4779609744357
 31
0.0
  0
LINE
  5
EFF2
330
37
100
AcDbEntity
  8
01_表面形状
 62
     3
100
AcDbLine
 10
436.9839275471879
 20
209.4779609744357
 30
0.0
 11
452.9589275471876
 21
209.4779609744357
 31
0.0
  0
LINE
  5
EFF3
330
37
100
AcDbEntity
  8
01_表面形状
 62
     3
100
AcDbLine
 10
436.8476583892556
 20
209.4779609744357
 30
0.0
 11
453.0951967051199
 21
209.4779609744357
 31
0.0
  0
LINE
  5
EFF4
330
37
100
AcDbEntity
  8
01_表面形状
 62
     3
100
AcDbLine
 10
455.351232392601
 20
221.0577425694816
 30
0.0
 11
455.351232392601
 21
212.0577425694816
 31
0.0
  0
LINE
  5
EFF5
330
37
100
AcDbEntity
  8
01_表面形状
 62
     3
100
AcDbLine
 10
434.5666227017745
 20
221.0577425694816
 30
0.0
 11
434.5666227017745
 21
212.0577425694816
 31
0.0
  0
LINE
  5
EFF6
330
37
100
AcDbEntity
  8
01_表面形状
 62
     3
100
AcDbLine
 10
434.5666227017745
 20
212.0577425694816
 30
0.0
 11
455.351232392601
 21
212.0577425694816
 31
0.0
  0
LINE
  5
EFF7
330
37
100
AcDbEntity
  8
01_表面形状
 62
     3
100
AcDbLine
 10
437.7589275471883
 20
212.0577425694816
 30
0.0
 11
437.7589275471883
 21
209.4779609744357
 31
0.0
  0
LINE
  5
EFF8
330
37
100
AcDbEntity
  8
01_表面形状
 62
     3
100
AcDbLine
 10
536.1748588300814
 20
221.0577425694816
 30
0.0
 11
554.1748588300813
 21
221.0577425694816
 31
0.0
  0
LINE
  5
EFF9
330
37
100
AcDbEntity
  8
01_表面形状
 62
     3
100
AcDbLine
 10
536.1748588300814
 20
221.0577425694816
 30
0.0
 11
554.1748588300813
 21
221.0577425694816
 31
0.0
  0
LINE
  5
EFFA
330
37
100
AcDbEntity
  8
01_表面形状
 62
     3
100
AcDbLine
 10
536.1748588300814
 20
221.0577425694816
 30
0.0
 11
554.1748588300813
 21
221.0577425694816
 31
0.0
  0
LINE
  5
EFFB
330
37
100
AcDbEntity
  8
01_表面形状
 62
     3
100
AcDbLine
 10
545.1748588300814
 20
221.0577425694816
 30
0.0
 11
545.1748588300814
 21
212.0577425694816
 31
0.0
  0
LINE
  5
EFFC
330
37
100
AcDbEntity
  8
01_表面形状
 62
     3
100
AcDbLine
 10
536.1748588300814
 20
221.0577425694816
 30
0.0
 11
536.1748588300814
 21
212.0577425694816
 31
0.0
  0
LINE
  5
EFFD
330
37
100
AcDbEntity
  8
01_表面形状
 62
     3
100
AcDbLine
 10
554.1748588300813
 20
221.0577425694816
 30
0.0
 11
554.1748588300813
 21
212.0577425694816
 31
0.0
  0
LINE
  5
EFFE
330
37
100
AcDbEntity
  8
01_表面形状
 62
     3
100
AcDbLine
 10
536.1748588300814
 20
212.0577425694816
 30
0.0
 11
554.1748588300813
 21
212.0577425694816
 31
0.0
  0
LINE
  5
EFFF
330
37
100
AcDbEntity
  8
01_表面形状
 62
     3
100
AcDbLine
 10
537.1998588300814
 20
212.0577425694816
 30
0.0
 11
537.1998588300814
 21
209.4779609744357
 31
0.0
  0
LINE
  5
F000
330
37
100
AcDbEntity
  8
01_表面形状
 62
     3
100
AcDbLine
 10
537.1998588300814
 20
212.0577425694816
 30
0.0
 11
537.1998588300814
 21
209.4779609744357
 31
0.0
  0
ARC
  5
F001
330
37
100
AcDbEntity
  8
01_表面形状
 62
     3
100
AcDbCircle
 10
534.199241619536
 20
210.3698747782823
 30
0.0
 40
3.0
100
AcDbArc
 50
311.9736542634151
 51
342.7042170651084
  0
ARC
  5
F002
330
37
100
AcDbEntity
  8
01_表面形状
 62
     3
100
AcDbCircle
 10
556.1987339421143
 20
210.3775971779282
 30
0.0
 40
3.024502181317393
100
AcDbArc
 50
197.3044693123602
 51
229.8318718026027
  0
LINE
  5
F003
330
37
100
AcDbEntity
  8
01_表面形状
 62
     3
100
AcDbLine
 10
553.1748588300809
 20
212.0577425694816
 30
0.0
 11
553.1748588300809
 21
209.4779609744357
 31
0.0
  0
LINE
  5
F004
330
37
100
AcDbEntity
  8
01_表面形状
 62
     3
100
AcDbLine
 10
553.1748588300811
 20
212.0577425694816
 30
0.0
 11
553.1748588300811
 21
209.4779609744357
 31
0.0
  0
LINE
  5
F005
330
37
100
AcDbEntity
  8
01_表面形状
 62
     3
100
AcDbLine
 10
552.3748588300808
 20
212.0577425694816
 30
0.0
 11
552.3748588300808
 21
209.4779609744357
 31
0.0
  0
LINE
  5
F006
330
37
100
AcDbEntity
  8
01_表面形状
 62
     3
100
AcDbLine
 10
537.1998588300814
 20
209.4779609744357
 30
0.0
 11
553.1748588300809
 21
209.4779609744357
 31
0.0
  0
LINE
  5
F007
330
37
100
AcDbEntity
  8
01_表面形状
 62
     3
100
AcDbLine
 10
537.1998588300814
 20
209.4779609744357
 30
0.0
 11
553.1748588300809
 21
209.4779609744357
 31
0.0
  0
LINE
  5
F008
330
37
100
AcDbEntity
  8
01_表面形状
 62
     3
100
AcDbLine
 10
537.0635896721489
 20
209.4779609744357
 30
0.0
 11
553.3111279880134
 21
209.4779609744357
 31
0.0
  0
LINE
  5
F009
330
37
100
AcDbEntity
  8
01_表面形状
 62
     3
100
AcDbLine
 10
537.9748588300818
 20
212.0577425694816
 30
0.0
 11
537.9748588300818
 21
209.4779609744357
 31
0.0
  0
LINE
  5
F00A
330
37
100
AcDbEntity
  8
01_表面形状
 62
     3
100
AcDbLine
 10
460.9583103366426
 20
169.5009853644378
 30
0.0
 11
469.9583103366426
 21
169.5009853644378
 31
0.0
  0
LINE
  5
F00B
330
37
100
AcDbEntity
  8
01_表面形状
 62
     3
100
AcDbLine
 10
460.9583103366426
 20
139.6516776399608
 30
0.0
 11
469.9583103366426
 21
139.6516776399608
 31
0.0
  0
LINE
  5
F00C
330
37
100
AcDbEntity
  8
01_表面形状
 62
     3
100
AcDbLine
 10
440.1344585429476
 20
158.1750499975995
 30
0.0
 11
443.114348935798
 21
158.1707346511219
 31
0.0
  0
ARC
  5
F00D
330
37
100
AcDbEntity
  8
01_表面形状
 62
     3
100
AcDbCircle
 10
443.1139178016398
 20
157.8730221632957
 30
0.0
 40
0.2977128
100
AcDbArc
 50
345.0000000000056
 51
89.91702682484527
1001
GENIUS_GENOBJ-N-FIL_13
1002
{
1000
OWNER
1000
GEN
1002
}
1001
GENIUS_GENODEF_13
1002
{
1000
HIER
1070
     0
1002
}
1002
{
1000
MANEDIT
1070
     0
1002
}
1002
{
1000
NOSEL
1070
     0
1002
}
1002
{
1000
BEHIND
1070
     0
1002
}
1002
{
1000
OTHER
1070
     0
1002
}
1002
{
1000
REACTOR
1002
}
  0
LINE
  5
F00E
330
37
100
AcDbEntity
  8
01_表面形状
 62
     3
100
AcDbLine
 10
442.0949832828316
 20
157.2753703737515
 30
0.0
 11
443.0318763057478
 21
157.2753703737515
 31
0.0
  0
ARC
  5
F00F
330
37
100
AcDbEntity
  8
01_表面形状
 62
     3
100
AcDbCircle
 10
440.0541024000619
 20
157.5752635816991
 30
0.0
 40
0.29989320795
100
AcDbArc
 50
165.0000000000055
 51
270.0
  0
ARC
  5
F010
330
37
100
AcDbEntity
  8
01_表面形状
 62
     3
100
AcDbCircle
 10
440.911545692916
 20
154.8762247101497
 30
0.0
 40
0.29989320795
100
AcDbArc
 50
270.0
 51
345.0000000000056
  0
ARC
  5
F011
330
37
100
AcDbEntity
  8
01_表面形状
 62
     3
100
AcDbCircle
 10
440.7280224409475
 20
154.8762247101497
 30
0.0
 40
0.29989320795
100
AcDbArc
 50
165.0000000000055
 51
270.0
  0
LINE
  5
F012
330
37
100
AcDbEntity
  8
01_表面形状
 62
     3
100
AcDbLine
 10
440.7280224409475
 20
154.5763315021993
 30
0.0
 11
440.911545692916
 21
154.5763315021993
 31
0.0
  0
LINE
  5
F013
330
37
100
AcDbEntity
  8
01_表面形状
 62
     3
100
AcDbLine
 10
440.0541024000619
 20
157.2753703737515
 30
0.0
 11
440.6695708514337
 21
157.2753703737515
 31
0.0
  0
LINE
  5
F014
330
37
100
AcDbEntity
  8
01_表面形状
 62
     3
100
AcDbLine
 10
440.9592454461219
 20
156.8978590920858
 30
0.0
 11
440.4383478462598
 21
154.9538427838636
 31
0.0
  0
ARC
  5
F015
330
37
100
AcDbEntity
  8
01_表面形状
 62
     3
100
AcDbCircle
 10
442.0949832828316
 20
156.9754771657993
 30
0.0
 40
0.29989320795
100
AcDbArc
 50
90.0
 51
165.0000000000055
  0
ARC
  5
F016
330
37
100
AcDbEntity
  8
01_表面形状
 62
     3
100
AcDbCircle
 10
440.6695708514337
 20
156.9754771657993
 30
0.0
 40
0.29989320795
100
AcDbArc
 50
345.0000000000056
 51
90.0
  0
LINE
  5
F017
330
37
100
AcDbEntity
  8
01_表面形状
 62
     3
100
AcDbLine
 10
441.8053086881439
 20
157.0530952395136
 30
0.0
 11
441.2012202876037
 21
154.7986066364359
 31
0.0
  0
LINE
  5
F018
330
37
100
AcDbEntity
  8
01_表面形状
 62
     3
100
AcDbLine
 10
439.8447839482598
 20
157.9527748633639
 30
0.0
 11
439.7644278053737
 21
157.6528816554158
 31
0.0
  0
ARC
  5
F019
330
37
100
AcDbEntity
  8
01_表面形状
 62
     3
100
AcDbCircle
 10
440.1344585429476
 20
157.87515678965
 30
0.0
 40
0.29989320795
100
AcDbArc
 50
90.0
 51
165.0000000000055
  0
ARC
  5
F01A
330
37
100
AcDbEntity
  8
01_表面形状
 62
     3
100
AcDbCircle
 10
449.6162668793656
 20
156.9754771657993
 30
0.0
 40
1.199572831799999
100
AcDbArc
 50
0.0
 51
90.0
  0
ARC
  5
F01B
330
37
100
AcDbEntity
  8
01_表面形状
 62
     3
100
AcDbCircle
 10
450.1970075793817
 20
154.8762247101497
 30
0.0
 40
0.29989320795
100
AcDbArc
 50
194.4775121859303
 51
270.0
  0
ARC
  5
F01C
330
37
100
AcDbEntity
  8
01_表面形状
 62
     3
100
AcDbCircle
 10
449.1018595382836
 20
156.9754771657993
 30
0.0
 40
1.199572831799999
100
AcDbArc
 50
90.0
 51
165.0000000000055
  0
ARC
  5
F01D
330
37
100
AcDbEntity
  8
01_表面形状
 62
     3
100
AcDbCircle
 10
443.0318763057478
 20
157.5752635816991
 30
0.0
 40
0.29989320795
100
AcDbArc
 50
270.0
 51
345.0000000000056
  0
LINE
  5
F01E
330
37
100
AcDbEntity
  8
01_表面形状
 62
     3
100
AcDbLine
 10
443.9113821696716
 20
156.8255305618257
 30
0.0
 11
446.8891560753556
 21
156.8255305618257
 31
0.0
  0
LINE
  5
F01F
330
37
100
AcDbEntity
  8
01_表面形状
 62
     3
100
AcDbLine
 10
443.4694233837997
 20
154.5763315021993
 30
0.0
 11
446.4471972894854
 21
154.5763315021993
 31
0.0
  0
ARC
  5
F020
330
37
100
AcDbEntity
  8
01_表面形状
 62
     3
100
AcDbCircle
 10
443.4694233837997
 20
154.8762247101497
 30
0.0
 40
0.29989320795
100
AcDbArc
 50
165.0000000000055
 51
270.0
  0
ARC
  5
F021
330
37
100
AcDbEntity
  8
01_表面形状
 62
     3
100
AcDbCircle
 10
444.5213744826999
 20
155.3260645220755
 30
0.0
 40
0.29989320795
100
AcDbArc
 50
165.0000000000055
 51
270.0
  0
LINE
  5
F022
330
37
100
AcDbEntity
  8
01_表面形状
 62
     3
100
AcDbLine
 10
444.4325902452276
 20
156.1534156156656
 30
0.0
 11
444.2316998880139
 21
155.4036825957894
 31
0.0
  0
ARC
  5
F023
330
37
100
AcDbEntity
  8
01_表面形状
 62
     3
100
AcDbCircle
 10
443.9113821696716
 20
156.5256373538757
 30
0.0
 40
0.29989320795
100
AcDbArc
 50
90.0
 51
165.0000000000055
  0
LINE
  5
F024
330
37
100
AcDbEntity
  8
01_表面形状
 62
     3
100
AcDbLine
 10
443.6217075749834
 20
156.6032554275896
 30
0.0
 11
443.1797487891119
 21
154.9538427838636
 31
0.0
  0
ARC
  5
F025
330
37
100
AcDbEntity
  8
01_表面形状
 62
     3
100
AcDbCircle
 10
444.7222648399136
 20
156.0757975419495
 30
0.0
 40
0.29989320795
100
AcDbArc
 50
90.0
 51
165.0000000000055
  0
LINE
  5
F026
330
37
100
AcDbEntity
  8
01_表面形状
 62
     3
100
AcDbLine
 10
444.7222648399136
 20
156.3756907498994
 30
0.0
 11
445.8372049764559
 21
156.3756907498994
 31
0.0
  0
LINE
  5
F027
330
37
100
AcDbEntity
  8
01_表面形状
 62
     3
100
AcDbLine
 10
446.1268795711437
 20
155.9981794682356
 30
0.0
 11
445.92598921393
 21
155.2484464483617
 31
0.0
  0
ARC
  5
F028
330
37
100
AcDbEntity
  8
01_表面形状
 62
     3
100
AcDbCircle
 10
445.6363146192418
 20
155.3260645220755
 30
0.0
 40
0.29989320795
100
AcDbArc
 50
270.0
 51
345.0000000000056
  0
LINE
  5
F029
330
37
100
AcDbEntity
  8
01_表面形状
 62
     3
100
AcDbLine
 10
444.5213744826999
 20
155.0261713141256
 30
0.0
 11
445.6363146192418
 21
155.0261713141256
 31
0.0
  0
ARC
  5
F02A
330
37
100
AcDbEntity
  8
01_表面形状
 62
     3
100
AcDbCircle
 10
445.8372049764559
 20
156.0757975419495
 30
0.0
 40
0.29989320795
100
AcDbArc
 50
345.0000000000056
 51
90.0
  0
ARC
  5
F02B
330
37
100
AcDbEntity
  8
01_表面形状
 62
     3
100
AcDbCircle
 10
447.9184219483679
 20
154.8762247101497
 30
0.0
 40
0.29989320795
100
AcDbArc
 50
270.0
 51
345.0000000000056
  0
ARC
  5
F02C
330
37
100
AcDbEntity
  8
01_表面形状
 62
     3
100
AcDbCircle
 10
446.4471972894854
 20
154.8762247101497
 30
0.0
 40
0.29989320795
100
AcDbArc
 50
270.0
 51
345.0000000000056
  0
LINE
  5
F02D
330
37
100
AcDbEntity
  8
01_表面形状
 62
     3
100
AcDbLine
 10
447.6041381233578
 20
154.5763315021993
 30
0.0
 11
447.9184219483679
 21
154.5763315021993
 31
0.0
  0
ARC
  5
F02E
330
37
100
AcDbEntity
  8
01_表面形状
 62
     3
100
AcDbCircle
 10
448.4991884666398
 20
154.7262781061757
 30
0.0
 40
0.29989320795
100
AcDbArc
 50
90.0
 51
165.0000000000055
  0
ARC
  5
F02F
330
37
100
AcDbEntity
  8
01_表面形状
 62
     3
100
AcDbCircle
 10
446.8891560753556
 20
156.5256373538757
 30
0.0
 40
0.29989320795
100
AcDbArc
 50
345.0000000000056
 51
90.0
  0
LINE
  5
F030
330
37
100
AcDbEntity
  8
01_表面形状
 62
     3
100
AcDbLine
 10
448.2095138719516
 20
154.8038961798896
 30
0.0
 11
448.2080965430557
 21
154.7986066364359
 31
0.0
  0
LINE
  5
F031
330
37
100
AcDbEntity
  8
01_表面形状
 62
     3
100
AcDbLine
 10
447.1788306700439
 20
156.4480192801614
 30
0.0
 11
446.7368718841719
 21
154.7986066364359
 31
0.0
  0
LINE
  5
F032
330
37
100
AcDbEntity
  8
01_表面形状
 62
     3
100
AcDbLine
 10
447.9431611595316
 20
157.2859494606576
 30
0.0
 11
447.3172885622277
 21
154.9501611284534
 31
0.0
  0
ARC
  5
F033
330
37
100
AcDbEntity
  8
01_表面形状
 62
     3
100
AcDbCircle
 10
447.6041381233578
 20
154.8733000201994
 30
0.0
 40
0.296968518
100
AcDbArc
 50
164.9999999999921
 51
270.0
1001
GENIUS_GENODEF_13
1002
{
1000
HIER
1070
     0
1002
}
1002
{
1000
MANEDIT
1070
     0
1002
}
1002
{
1000
NOSEL
1070
     0
1002
}
1002
{
1000
BEHIND
1070
     0
1002
}
1002
{
1000
OTHER
1070
     0
1002
}
1002
{
1000
REACTOR
1002
}
1001
GENIUS_GENOBJ-N-FIL_13
1002
{
1000
OWNER
1000
GEN
1002
}
  0
LINE
  5
F034
330
37
100
AcDbEntity
  8
01_表面形状
 62
     3
100
AcDbLine
 10
449.1018595382836
 20
157.2753703737515
 30
0.0
 11
449.6162668793656
 21
157.2753703737515
 31
0.0
  0
ARC
  5
F035
330
37
100
AcDbEntity
  8
01_表面形状
 62
     3
100
AcDbCircle
 10
449.1018595382836
 20
156.9754771657993
 30
0.0
 40
0.29989320795
100
AcDbArc
 50
90.0
 51
165.0000000000055
  0
ARC
  5
F036
330
37
100
AcDbEntity
  8
01_表面形状
 62
     3
100
AcDbCircle
 10
449.6162668793656
 20
156.9754771657993
 30
0.0
 40
0.29989320795
100
AcDbArc
 50
0.0
 51
90.0
  0
ARC
  5
F037
330
37
100
AcDbEntity
  8
01_表面形状
 62
     3
100
AcDbCircle
 10
449.6162668793656
 20
154.7262781061757
 30
0.0
 40
0.29989320795
100
AcDbArc
 50
14.47751218593027
 51
90.0
  0
LINE
  5
F038
330
37
100
AcDbEntity
  8
01_表面形状
 62
     3
100
AcDbLine
 10
448.4991884666398
 20
155.0261713141256
 30
0.0
 11
449.6162668793656
 21
155.0261713141256
 31
0.0
  0
LINE
  5
F039
330
37
100
AcDbEntity
  8
01_表面形状
 62
     3
100
AcDbLine
 10
448.7804349667396
 20
155.4760111260496
 30
0.0
 11
449.6162668793656
 21
155.4760111260496
 31
0.0
  0
ARC
  5
F03A
330
37
100
AcDbEntity
  8
01_表面形状
 62
     3
100
AcDbCircle
 10
449.6162668793656
 20
155.7759043339995
 30
0.0
 40
0.29989320795
100
AcDbArc
 50
270.0
 51
0.0
  0
ARC
  5
F03B
330
37
100
AcDbEntity
  8
01_表面形状
 62
     3
100
AcDbCircle
 10
448.7804349667396
 20
155.7759043339995
 30
0.0
 40
0.29989320795
100
AcDbArc
 50
165.0000000000055
 51
270.0
  0
LINE
  5
F03C
330
37
100
AcDbEntity
  8
01_表面形状
 62
     3
100
AcDbLine
 10
449.916160087316
 20
156.9754771657993
 30
0.0
 11
449.916160087316
 21
155.7759043339995
 31
0.0
  0
LINE
  5
F03D
330
37
100
AcDbEntity
  8
01_表面形状
 62
     3
100
AcDbLine
 10
448.8121849435958
 20
157.0530952395136
 30
0.0
 11
448.4907603720519
 21
155.8535224077139
 31
0.0
  0
LINE
  5
F03E
330
37
100
AcDbEntity
  8
01_表面形状
 62
     3
100
AcDbLine
 10
443.4014862839756
 20
157.7959684206856
 30
0.0
 11
443.3215509004337
 21
157.4976455079857
 31
0.0
  0
LINE
  5
F03F
330
37
100
AcDbEntity
  8
01_表面形状
 62
     3
100
AcDbLine
 10
449.1018595382836
 20
158.1750499975995
 30
0.0
 11
449.6162668793656
 21
158.1750499975995
 31
0.0
  0
ARC
  5
F040
330
37
100
AcDbEntity
  8
01_表面形状
 62
     3
100
AcDbCircle
 10
450.5159465032159
 20
154.8762247101497
 30
0.0
 40
0.29989320795
100
AcDbArc
 50
270.0
 51
0.0
  0
LINE
  5
F041
330
37
100
AcDbEntity
  8
01_表面形状
 62
     3
100
AcDbLine
 10
450.1970075793817
 20
154.5763315021993
 30
0.0
 11
450.5159465032159
 21
154.5763315021993
 31
0.0
  0
LINE
  5
F042
330
37
100
AcDbEntity
  8
01_表面形状
 62
     3
100
AcDbLine
 10
450.8158397111676
 20
156.9754771657993
 30
0.0
 11
450.8158397111676
 21
154.8762247101497
 31
0.0
  0
TEXT
  5
F043
330
37
100
AcDbEntity
  8
12_文字
 62
   110
100
AcDbText
 10
417.2980940700593
 20
105.7856455899269
 30
0.0
 40
4.167178999999999
  1
        GATE VALVE  1
 41
1.010113999999999
  7
MX_NOTE_STANDARD
100
AcDbText
  0
TEXT
  5
F044
330
37
100
AcDbEntity
  8
12_文字
 62
   110
100
AcDbText
 10
417.2302890700593
 20
89.78564558992696
 30
0.0
 40
4.167178999999999
  1
TOA
 41
0.9124859999999999
  7
MX_NOTE_STANDARD
100
AcDbText
  0
TEXT
  5
F045
330
37
100
AcDbEntity
  8
12_文字
 62
   110
100
AcDbText
 10
417.3294970700593
 20
97.78564558992696
 30
0.0
 40
4.167178999999999
  1
FIG   FR1
 41
1.055328
  7
MX_NOTE_STANDARD
100
AcDbText
  0
TEXT
  5
F046
330
37
100
AcDbEntity
  8
12_文字
 62
   110
100
AcDbText
 10
417.2302890700593
 20
113.7856455899269
 30
0.0
 40
4.167178999999999
  1
NAME  CLASS 125 BRASS
 41
0.9124859999999999
  7
MX_NOTE_STANDARD
100
AcDbText
  0
LINE
  5
F047
330
37
100
AcDbEntity
  8
01_表面形状
 62
     3
100
AcDbLine
 10
460.5599589169445
 20
183.4595918568564
 30
0.0
 11
464.4583103366426
 21
185.7103060984149
 31
0.0
  0
ARC
  5
F048
330
37
100
AcDbEntity
  8
01_表面形状
 62
     3
100
AcDbCircle
 10
462.9583103366426
 20
188.3083823097682
 30
0.0
 40
3.0
100
AcDbArc
 50
299.9999999999997
 51
0.0
  0
LINE
  5
F049
330
37
100
AcDbEntity
  8
01_表面形状
 62
     3
100
AcDbLine
 10
457.1768962054707
 20
154.5763315021993
 30
0.0
 11
459.567569520761
 21
181.9018525347828
 31
0.0
  0
ARC
  5
F04A
330
37
100
AcDbEntity
  8
01_表面形状
 62
     3
100
AcDbCircle
 10
461.2061056243914
 20
177.6829794079011
 30
0.0
 40
2.0
100
AcDbArc
 50
175.0000000000002
 51
270.0
  0
ARC
  5
F04B
330
37
100
AcDbEntity
  8
01_表面形状
 62
     3
100
AcDbCircle
 10
461.5599589169445
 20
181.7275410492875
 30
0.0
 40
2.0
100
AcDbArc
 50
120.0000000000001
 51
175.0000000000002
  0
LWPOLYLINE
  5
F04C
330
37
100
AcDbEntity
  8
01_表面形状
 62
     3
100
AcDbPolyline
 90
        8
 70
     1
 43
0.0
 10
530.2495877572973
 20
169.5009853644378
 10
524.0675937138341
 20
154.5763315021993
 10
530.2495877572973
 20
139.6516776399608
 10
545.1742416195359
 20
133.4696835964976
 10
560.0988954817744
 20
139.6516776399608
 10
566.2808895252376
 20
154.5763315021993
 10
560.0988954817744
 20
169.5009853644378
 10
545.1742416195359
 20
175.682979407901
  0
LWPOLYLINE
  5
F04D
330
37
100
AcDbEntity
  8
01_表面形状
 62
     3
100
AcDbPolyline
 90
        2
 70
     0
 43
0.0
 10
527.1742416195358
 20
186.5763315021993
 10
563.1742416195359
 20
186.5763315021993
  0
ARC
  5
F04E
330
37
100
AcDbEntity
  8
01_表面形状
 62
     3
100
AcDbCircle
 10
563.1742416195359
 20
189.5763315021993
 30
0.0
 40
3.0
100
AcDbArc
 50
270.0
 51
0.0
  0
ARC
  5
F04F
330
37
100
AcDbEntity
  8
01_表面形状
 62
     3
100
AcDbCircle
 10
527.1742416195358
 20
189.5763315021993
 30
0.0
 40
3.0
100
AcDbArc
 50
180.0
 51
270.0
  0
LINE
  5
F050
330
37
100
AcDbEntity
  8
01_表面形状
 62
     3
100
AcDbLine
 10
459.0922849328583
 20
135.5763315021994
 30
0.0
 11
455.4691070048622
 21
135.5763315021993
 31
0.0
  0
LINE
  5
F051
330
37
100
AcDbEntity
  8
01_表面形状
 62
     3
100
AcDbLine
 10
426.9583103366427
 20
177.682979407901
 30
0.0
 11
426.9583103366426
 21
183.6895801562511
 31
0.0
  0
ARC
  5
F052
330
37
100
AcDbEntity
  8
01_表面形状
 62
     3
100
AcDbCircle
 10
424.9583103366425
 20
183.6895801562511
 30
0.0
 40
2.0
100
AcDbArc
 50
0.0
 51
60.00000000000028
  0
LINE
  5
F053
330
37
100
AcDbEntity
  8
01_表面形状
 62
     3
100
AcDbLine
 10
429.3566617563406
 20
183.4595918568564
 30
0.0
 11
425.4583103366426
 21
185.7103060984149
 31
0.0
  0
ARC
  5
F054
330
37
100
AcDbEntity
  8
01_表面形状
 62
     3
100
AcDbCircle
 10
426.9583103366426
 20
188.3083823097682
 30
0.0
 40
3.0
100
AcDbArc
 50
180.0
 51
239.9999999999998
  0
LINE
  5
F055
330
37
100
AcDbEntity
  8
01_表面形状
 62
     3
100
AcDbLine
 10
432.7397244678145
 20
154.5763315021993
 30
0.0
 11
430.3490511525242
 21
181.9018525347828
 31
0.0
  0
ARC
  5
F056
330
37
100
AcDbEntity
  8
01_表面形状
 62
     3
100
AcDbCircle
 10
428.3566617563407
 20
181.7275410492875
 30
0.0
 40
2.0
100
AcDbArc
 50
4.999999999999743
 51
60.00000000000028
  0
LINE
  5
F057
330
37
100
AcDbEntity
  8
01_表面形状
 62
     3
100
AcDbLine
 10
564.0297969265589
 20
186.7009141209093
 30
0.0
 11
563.5282611699807
 21
161.2217642096331
 31
0.0
  0
ARC
  5
F058
330
37
100
AcDbEntity
  8
01_表面形状
 62
     3
100
AcDbCircle
 10
444.9583103366426
 20
153.5763315021993
 30
0.0
 40
18.2
100
AcDbArc
 50
254.4160534294465
 51
285.5839465705535
  0
LINE
  5
F059
330
37
100
AcDbEntity
  8
01_表面形状
 62
     3
100
AcDbLine
 10
460.9583103366426
 20
135.0763315021994
 30
0.0
 11
460.9583103366426
 21
135.5763315021993
 31
0.0
  0
LINE
  5
F05A
330
37
100
AcDbEntity
  8
01_表面形状
 62
     3
100
AcDbLine
 10
460.9583103366426
 20
135.0763315021994
 30
0.0
 11
459.0922849328584
 21
135.5763315021993
 31
0.0
  0
ARC
  5
F05B
330
37
100
AcDbEntity
  8
01_表面形状
 62
     3
100
AcDbCircle
 10
451.4596390338768
 20
130.2659748946629
 30
0.0
 40
6.0
100
AcDbArc
 50
70.48082381518945
 51
105.5839465705535
  0
ARC
  5
F05C
330
37
100
AcDbEntity
  8
01_表面形状
 62
     3
100
AcDbCircle
 10
455.4691070048622
 20
141.5763315021993
 30
0.0
 40
6.0
100
AcDbArc
 50
250.4808238151864
 51
270.0
  0
LINE
  5
F05D
330
37
100
AcDbEntity
  8
04_中心線
 62
   110
100
AcDbLine
 10
434.4475136684231
 20
135.5763315021993
 30
0.0
 11
430.824335740427
 21
135.5763315021994
 31
0.0
  0
LINE
  5
F05E
330
37
100
AcDbEntity
  8
01_表面形状
 62
     3
100
AcDbLine
 10
434.4475136684231
 20
135.5763315021993
 30
0.0
 11
430.8243357404267
 21
135.5763315021993
 31
0.0
  0
LINE
  5
F05F
330
37
100
AcDbEntity
  8
01_表面形状
 62
     3
100
AcDbLine
 10
430.8243357404269
 20
135.5763315021994
 30
0.0
 11
434.4475136684231
 21
135.5763315021993
 31
0.0
  0
LINE
  5
F060
330
37
100
AcDbEntity
  8
01_表面形状
 62
     3
100
AcDbLine
 10
428.9583103366426
 20
135.0763315021994
 30
0.0
 11
430.8243357404268
 21
135.5763315021993
 31
0.0
  0
ARC
  5
F061
330
37
100
AcDbEntity
  8
01_表面形状
 62
     3
100
AcDbCircle
 10
438.4569816394083
 20
130.2659748946629
 30
0.0
 40
6.0
100
AcDbArc
 50
74.41605342944646
 51
109.5191761848103
  0
ARC
  5
F062
330
37
100
AcDbEntity
  8
01_表面形状
 62
     3
100
AcDbCircle
 10
434.4475136684231
 20
141.5763315021993
 30
0.0
 40
6.0
100
AcDbArc
 50
270.0
 51
289.5191761848103
  0
LINE
  5
F063
330
37
100
AcDbEntity
  8
01_表面形状
 62
     3
100
AcDbLine
 10
556.1742416195361
 20
206.4403017364655
 30
0.0
 11
554.2478310956097
 21
208.0664088410993
 31
0.0
  0
LINE
  5
F064
330
37
100
AcDbEntity
  8
01_表面形状
 62
     3
100
AcDbLine
 10
548.1549414108501
 20
184.0077370249363
 30
0.0
 11
557.7410665040367
 21
186.5763315021993
 31
0.0
  0
LINE
  5
F065
330
37
100
AcDbEntity
  8
01_表面形状
 62
     3
100
AcDbLine
 10
542.1935418282216
 20
184.0077370249363
 30
0.0
 11
532.6074167350351
 21
186.5763315021993
 31
0.0
  0
LINE
  5
F066
330
37
100
AcDbEntity
  8
01_表面形状
 62
     3
100
AcDbLine
 10
460.9583103366426
 20
154.5763315021993
 30
0.0
 11
469.9583103366426
 21
154.5763315021993
 31
0.0
  0
ARC
  5
F067
330
37
100
AcDbEntity
  8
01_表面形状
 62
     3
100
AcDbCircle
 10
424.9583103366426
 20
177.682979407901
 30
0.0
 40
2.0
100
AcDbArc
 50
270.0
 51
0.0
  0
LINE
  5
F068
330
37
100
AcDbEntity
  8
01_表面形状
 62
     3
100
AcDbLine
 10
419.9583103366426
 20
133.4696835964976
 30
0.0
 11
428.9583103366426
 21
133.4696835964977
 31
0.0
  0
LINE
  5
F069
330
37
100
AcDbEntity
  8
01_表面形状
 62
     3
100
AcDbLine
 10
419.9583103366426
 20
175.682979407901
 30
0.0
 11
428.9583103366426
 21
175.6829794079011
 31
0.0
  0
LINE
  5
F06A
330
37
100
AcDbEntity
  8
01_表面形状
 62
     3
100
AcDbLine
 10
419.9583103366426
 20
175.682979407901
 30
0.0
 11
419.9583103366426
 21
133.4696835964976
 31
0.0
  0
LINE
  5
F06B
330
37
100
AcDbEntity
  8
01_表面形状
 62
     3
100
AcDbLine
 10
428.9583103366426
 20
175.682979407901
 30
0.0
 11
428.9583103366426
 21
133.4696835964976
 31
0.0
  0
LINE
  5
F06C
330
37
100
AcDbEntity
  8
01_表面形状
 62
     3
100
AcDbLine
 10
428.9583103366426
 20
169.5009853644378
 30
0.0
 11
419.9583103366426
 21
169.5009853644378
 31
0.0
  0
LINE
  5
F06D
330
37
100
AcDbEntity
  8
01_表面形状
 62
     3
100
AcDbLine
 10
428.9583103366426
 20
139.6516776399608
 30
0.0
 11
419.9583103366426
 21
139.6516776399608
 31
0.0
  0
ARC
  5
F06E
330
37
100
AcDbEntity
  8
01_表面形状
 62
     3
100
AcDbCircle
 10
428.7105150488939
 20
177.6829794079011
 30
0.0
 40
2.0
100
AcDbArc
 50
270.0
 51
4.999999999999743
  0
LINE
  5
F06F
330
37
100
AcDbEntity
  8
01_表面形状
 62
     3
100
AcDbLine
 10
428.9583103366426
 20
154.5763315021993
 30
0.0
 11
419.9583103366426
 21
154.5763315021993
 31
0.0
  0
LINE
  5
F070
330
37
100
AcDbEntity
  8
01_表面形状
 62
     3
100
AcDbLine
 10
469.9583103366424
 20
289.3118242217864
 30
0.0
 11
466.9399422764836
 21
289.3118242217864
 31
0.0
  0
LINE
  5
F071
330
37
100
AcDbEntity
  8
01_表面形状
 62
     3
100
AcDbLine
 10
469.9583103366424
 20
331.5251200331898
 30
0.0
 11
466.9399422764828
 21
331.5251200331898
 31
0.0
  0
LINE
  5
F072
330
37
100
AcDbEntity
  8
01_表面形状
 62
     3
100
AcDbLine
 10
469.9583103366424
 20
331.5251200331898
 30
0.0
 11
469.9583103366425
 21
320.5035872906076
 31
0.0
  0
LINE
  5
F073
330
37
100
AcDbEntity
  8
01_表面形状
 62
     3
100
AcDbLine
 10
469.9583103366425
 20
314.8497510593643
 30
0.0
 11
469.9583103366425
 21
313.4613729894887
 31
0.0
  0
LINE
  5
F074
330
37
100
AcDbEntity
  8
01_表面形状
 62
     3
100
AcDbLine
 10
469.9583103366424
 20
307.3755712654878
 30
0.0
 11
469.9583103366424
 21
305.9871931956114
 31
0.0
  0
LINE
  5
F075
330
37
100
AcDbEntity
  8
01_表面形状
 62
     3
100
AcDbLine
 10
469.9583103366424
 20
300.3333569643678
 30
0.0
 11
469.9583103366424
 21
289.3118242217864
 31
0.0
  0
LINE
  5
F076
330
37
100
AcDbEntity
  8
01_表面形状
 62
     3
100
AcDbLine
 10
463.9841835297631
 20
325.3431259897267
 30
0.0
 11
465.7108776705722
 21
325.3431259897267
 31
0.0
  0
LINE
  5
F077
330
37
100
AcDbEntity
  8
01_表面形状
 62
     3
100
AcDbLine
 10
468.5443674565568
 20
325.3431259897267
 30
0.0
 11
469.9583103366424
 21
325.3431259897267
 31
0.0
  0
LINE
  5
F078
330
37
100
AcDbEntity
  8
01_表面形状
 62
     3
100
AcDbLine
 10
463.984183529763
 20
295.4938182652496
 30
0.0
 11
465.7108776705725
 21
295.4938182652496
 31
0.0
  0
LINE
  5
F079
330
37
100
AcDbEntity
  8
01_表面形状
 62
     3
100
AcDbLine
 10
468.5443674565573
 20
295.4938182652496
 30
0.0
 11
469.9583103366424
 21
295.4938182652496
 31
0.0
  0
LINE
  5
F07A
330
37
100
AcDbEntity
  8
01_表面形状
 62
     3
100
AcDbLine
 10
419.9583103366424
 20
289.3118242217864
 30
0.0
 11
422.9766783968021
 21
289.3118242217864
 31
0.0
  0
LINE
  5
F07B
330
37
100
AcDbEntity
  8
01_表面形状
 62
     3
100
AcDbLine
 10
419.9583103366424
 20
331.5251200331898
 30
0.0
 11
422.976678396802
 21
331.5251200331898
 31
0.0
  0
LINE
  5
F07C
330
37
100
AcDbEntity
  8
01_表面形状
 62
     3
100
AcDbLine
 10
419.9583103366424
 20
331.5251200331898
 30
0.0
 11
419.9583103366424
 21
320.503587290607
 31
0.0
  0
LINE
  5
F07D
330
37
100
AcDbEntity
  8
01_表面形状
 62
     3
100
AcDbLine
 10
419.9583103366424
 20
314.8497510593637
 30
0.0
 11
419.9583103366424
 21
313.4613729894887
 31
0.0
  0
LINE
  5
F07E
330
37
100
AcDbEntity
  8
01_表面形状
 62
     3
100
AcDbLine
 10
419.9583103366424
 20
307.3755712654875
 30
0.0
 11
419.9583103366424
 21
305.9871931956117
 31
0.0
  0
LINE
  5
F07F
330
37
100
AcDbEntity
  8
01_表面形状
 62
     3
100
AcDbLine
 10
419.9583103366424
 20
300.3333569643684
 30
0.0
 11
419.9583103366424
 21
289.3118242217864
 31
0.0
  0
LINE
  5
F080
330
37
100
AcDbEntity
  8
01_表面形状
 62
     3
100
AcDbLine
 10
428.9583103366425
 20
322.3172527966062
 30
0.0
 11
428.9583103366425
 21
321.5652205322919
 31
0.0
  0
LINE
  5
F081
330
37
100
AcDbEntity
  8
01_表面形状
 62
     3
100
AcDbLine
 10
425.9324371435219
 20
325.3431259897267
 30
0.0
 11
424.2057430027127
 21
325.3431259897267
 31
0.0
  0
LINE
  5
F082
330
37
100
AcDbEntity
  8
01_表面形状
 62
     3
100
AcDbLine
 10
421.372253216728
 20
325.3431259897267
 30
0.0
 11
419.9583103366424
 21
325.3431259897267
 31
0.0
  0
LINE
  5
F083
330
37
100
AcDbEntity
  8
01_表面形状
 62
     3
100
AcDbLine
 10
425.932437143522
 20
295.4938182652496
 30
0.0
 11
424.2057430027127
 21
295.4938182652496
 31
0.0
  0
LINE
  5
F084
330
37
100
AcDbEntity
  8
01_表面形状
 62
     3
100
AcDbLine
 10
421.3722532167279
 20
295.4938182652496
 30
0.0
 11
419.9583103366424
 21
295.4938182652496
 31
0.0
  0
LINE
  5
F085
330
37
100
AcDbEntity
  8
01_表面形状
 62
     3
100
AcDbLine
 10
438.151983029491
 20
316.8384213279651
 30
0.0
 11
440.4060044032243
 21
318.7297698313305
 31
0.0
  0
LINE
  5
F086
330
37
100
AcDbEntity
  8
01_表面形状
 62
     3
100
AcDbLine
 10
438.7609504847956
 20
316.1126821753328
 30
0.0
 11
439.1313483147577
 21
316.4234828578428
 31
0.0
  0
LINE
  5
F087
330
37
100
AcDbEntity
  8
01_表面形状
 62
     3
100
AcDbLine
 10
440.4448404097098
 20
317.5256335902715
 30
0.0
 11
441.014971858529
 21
318.0040306786982
 31
0.0
  0
LINE
  5
F088
330
37
100
AcDbEntity
  8
01_表面形状
 62
     3
100
AcDbLine
 10
440.3200128543836
 20
316.96257287497
 30
0.0
 11
441.2563074333119
 21
314.9546826708227
 31
0.0
  0
ARC
  5
F089
330
37
100
AcDbEntity
  8
01_表面形状
 62
     3
100
AcDbCircle
 10
438.4564667571432
 20
316.475551751649
 30
0.0
 40
0.4736925899999999
100
AcDbArc
 50
130.0000000000001
 51
310.0000000000001
  0
ARC
  5
F08A
330
37
100
AcDbEntity
  8
01_表面形状
 62
     3
100
AcDbCircle
 10
440.7104881308767
 20
318.3669002550143
 30
0.0
 40
0.4736925899999999
100
AcDbArc
 50
310.0000000000001
 51
130.0000000000001
  0
ARC
  5
F08B
330
37
100
AcDbEntity
  8
01_表面形状
 62
     3
100
AcDbCircle
 10
440.8269961503332
 20
314.7544915318374
 30
0.0
 40
0.4736925899999999
100
AcDbArc
 50
204.2944179854845
 51
24.99999999999935
  0
ARC
  5
F08C
330
37
100
AcDbEntity
  8
01_表面形状
 62
     3
100
AcDbCircle
 10
440.7493241373622
 20
317.1627640139553
 30
0.0
 40
0.4736925899999999
100
AcDbArc
 50
130.0000000000001
 51
204.9999999999994
  0
LINE
  5
F08D
330
37
100
AcDbEntity
  8
01_表面形状
 62
     3
100
AcDbLine
 10
439.5716253211364
 20
316.3258757954445
 30
0.0
 11
440.4001826573968
 21
314.5490288537951
 31
0.0
  0
ARC
  5
F08E
330
37
100
AcDbEntity
  8
01_表面形状
 62
     3
100
AcDbCircle
 10
439.3140385513492
 20
316.2057611120531
 30
0.0
 40
0.284215554
100
AcDbArc
 50
24.99999999999935
 51
130.0000000000001
  0
LINE
  5
F08F
330
37
100
AcDbEntity
  8
01_表面形状
 62
     3
100
AcDbLine
 10
444.3056440984415
 20
319.8114798402062
 30
0.0
 11
445.4372071692591
 21
319.8707825478664
 31
0.0
  0
LINE
  5
F090
330
37
100
AcDbEntity
  8
01_表面形状
 62
     3
100
AcDbLine
 10
443.6627934453818
 20
315.9830481840277
 30
0.0
 11
444.7943565161993
 21
316.0423508916879
 31
0.0
  0
LINE
  5
F091
330
37
100
AcDbEntity
  8
01_表面形状
 62
     3
100
AcDbLine
 10
444.2510293012611
 20
316.4882189790589
 30
0.0
 11
444.3524305811815
 21
316.4935331949562
 31
0.0
  0
ARC
  5
F092
330
37
100
AcDbEntity
  8
01_表面形状
 62
     3
100
AcDbCircle
 10
444.2929318099905
 20
317.6288373808004
 30
0.0
 40
1.136862215999999
100
AcDbArc
 50
272.9999999999991
 51
348.0000000000034
  0
ARC
  5
F093
330
37
100
AcDbEntity
  8
01_表面形状
 62
     3
100
AcDbCircle
 10
445.49670594045
 20
318.7354783620224
 30
0.0
 40
1.136862215999999
100
AcDbArc
 50
348.0000000000034
 51
92.9999999999991
  0
ARC
  5
F094
330
37
100
AcDbEntity
  8
01_表面形状
 62
     3
100
AcDbCircle
 10
444.3948922552278
 20
318.10852356144
 30
0.0
 40
1.705293323999999
100
AcDbArc
 50
92.9999999999991
 51
168.0000000000034
  0
LINE
  5
F095
330
37
100
AcDbEntity
  8
01_表面形状
 62
     3
100
AcDbLine
 10
444.7475700334596
 20
319.3602975369379
 30
0.0
 11
444.8489713133795
 21
319.365611752835
 31
0.0
  0
ARC
  5
F096
330
37
100
AcDbEntity
  8
01_表面形状
 62
     3
100
AcDbCircle
 10
444.8070688046503
 20
318.2249933510939
 30
0.0
 40
1.136862215999999
100
AcDbArc
 50
92.9999999999991
 51
167.9999999999836
  0
LINE
  5
F097
330
37
100
AcDbEntity
  8
01_表面形状
 62
     3
100
AcDbLine
 10
442.7268636818101
 20
318.4630739797731
 30
0.0
 11
442.4912756252457
 21
317.3547193154273
 31
0.0
  0
ARC
  5
F098
330
37
100
AcDbEntity
  8
01_表面形状
 62
     3
100
AcDbCircle
 10
443.603294674191
 20
317.1183523698718
 30
0.0
 40
1.136862215999999
100
AcDbArc
 50
168.0000000000034
 51
272.9999999999991
  0
LINE
  5
F099
330
37
100
AcDbEntity
  8
01_表面形状
 62
     3
100
AcDbLine
 10
443.6950497557053
 20
318.4613602966495
 30
0.0
 11
443.4700174211704
 21
317.4026663999923
 31
0.0
  0
ARC
  5
F09A
330
37
100
AcDbEntity
  8
01_表面形状
 62
     3
100
AcDbCircle
 10
444.2113634538006
 20
317.2450884362886
 30
0.0
 40
0.757908144
100
AcDbArc
 50
167.9999999999836
 51
272.9999999999991
  0
LINE
  5
F09B
330
37
100
AcDbEntity
  8
01_表面形状
 62
     3
100
AcDbLine
 10
446.6087249893952
 20
318.4991114164668
 30
0.0
 11
446.373136932831
 21
317.3907567521208
 31
0.0
  0
ARC
  5
F09C
330
37
100
AcDbEntity
  8
01_表面形状
 62
     3
100
AcDbCircle
 10
444.7051083594129
 20
317.745307170454
 30
0.0
 40
1.705293323999999
100
AcDbArc
 50
272.9999999999991
 51
348.0000000000034
  0
LINE
  5
F09D
330
37
100
AcDbEntity
  8
01_表面形状
 62
     3
100
AcDbLine
 10
445.6299831934703
 20
318.451164331902
 30
0.0
 11
445.4049508589357
 21
317.3924704352448
 31
0.0
  0
ARC
  5
F09E
330
37
100
AcDbEntity
  8
01_表面形状
 62
     3
100
AcDbCircle
 10
444.8886371608401
 20
318.6087422956055
 30
0.0
 40
0.757908144
100
AcDbArc
 50
348.0000000000034
 51
92.9999999999991
  0
LINE
  5
F09F
330
37
100
AcDbEntity
  8
01_表面形状
 62
     3
100
AcDbLine
 10
448.4859374431527
 20
317.8611095741479
 30
0.0
 11
446.8497832600975
 21
316.715462081499
 31
0.0
  0
ARC
  5
F0A0
330
37
100
AcDbEntity
  8
01_表面形状
 62
     3
100
AcDbCircle
 10
447.1214821677955
 20
316.3274358280359
 30
0.0
 40
0.4736925899999008
100
AcDbArc
 50
124.9999999999887
 51
304.9999999999887
  0
LINE
  5
F0A1
330
37
100
AcDbEntity
  8
01_表面形状
 62
     3
100
AcDbLine
 10
447.3931810754935
 20
315.9394095745729
 30
0.0
 11
447.4971523967512
 21
316.0122110774751
 31
0.0
  0
LINE
  5
F0A2
330
37
100
AcDbEntity
  8
01_表面形状
 62
     3
100
AcDbLine
 10
447.4971523967512
 20
316.0122110774751
 30
0.0
 11
449.0126339652132
 21
314.7405710523222
 31
0.0
  0
ARC
  5
F0A3
330
37
100
AcDbEntity
  8
01_表面形状
 62
     3
100
AcDbCircle
 10
449.3755035415294
 20
314.4360873246699
 30
0.0
 40
0.4736925900000289
100
AcDbArc
 50
140.0000000000045
 51
320.0000000000045
  0
LINE
  5
F0A4
330
37
100
AcDbEntity
  8
01_表面形状
 62
     3
100
AcDbLine
 10
449.7383731178456
 20
314.1316035970176
 30
0.0
 11
450.7736177918636
 21
315.3653601564927
 31
0.0
  0
ARC
  5
F0A5
330
37
100
AcDbEntity
  8
01_表面形状
 62
     3
100
AcDbCircle
 10
449.4672873171257
 20
316.4615015760412
 30
0.0
 40
1.705293324000005
100
AcDbArc
 50
319.9999999999882
 51
50.0709175439673
  0
ARC
  5
F0A6
330
37
100
AcDbEntity
  8
01_表面形状
 62
     3
100
AcDbCircle
 10
449.464053510866
 20
316.464215061681
 30
0.0
 40
1.705293323999941
100
AcDbArc
 50
49.92908245604011
 51
125.3312556800375
  0
LWPOLYLINE
  5
F0A7
330
37
100
AcDbEntity
  8
01_表面形状
 62
     3
100
AcDbPolyline
 90
        8
 70
     0
 43
0.0
 10
449.0674463646387
 20
317.1117427509953
 10
448.4045523931768
 20
316.6475793951439
 42
0.4931454260313034
 10
448.3717675732226
 20
315.8966835653646
 10
448.9542481165496
 20
315.4079243562908
 42
0.4142135623731421
 10
449.6216014205181
 20
315.4663102049545
 10
450.0478786392315
 20
315.9743276117972
 42
0.4150294844298411
 10
449.9528424890226
 20
317.0434473894854
 42
0.3426517265994233
 10
449.0239675645575
 20
317.0812637749954
  0
VIEWPORT
  5
542
330
33
100
AcDbEntity
 67
     1
  8
0
100
AcDbViewport
 10
185.623303891547
 20
148.4223392912986
 30
0.0
 40
450.4060917083241
 41
309.2814998667928
 68
     1
 69
     1
 12
185.623303891547
 22
148.4223392912986
 13
0.0
 23
0.0
 14
10.0
 24
10.0
 15
10.0
 25
10.0
 16
0.0
 26
0.0
 36
1.0
 17
0.0
 27
0.0
 37
0.0
 42
50.0
 43
0.0
 44
0.0
 45
309.2814998667928
 50
0.0
 51
0.0
 72
  1000
 90
   557088
  1

281
     0
 71
     1
 74
     0
110
0.0
120
0.0
130
0.0
111
1.0
121
0.0
131
0.0
112
0.0
122
1.0
132
0.0
 79
     0
146
0.0
170
     0
 61
     5
348
1A
292
     1
282
     1
141
0.0
142
0.0
 63
   250
421
  3355443
  0
ENDSEC
  0
SECTION
  2
OBJECTS
  0
DICTIONARY
  5
C
330
0
100
AcDbDictionary
281
     1
  3
ACAD_CIP_PREVIOUS_PRODUCT_INFO
350
DB99
  3
ACAD_COLOR
350
30
  3
ACAD_DETAILVIEWSTYLE
350
DB91
  3
ACAD_GROUP
350
D
  3
ACAD_LAYOUT
350
2F
  3
ACAD_MATERIAL
350
10
  3
ACAD_MLEADERSTYLE
350
C40
  3
ACAD_MLINESTYLE
350
2C
  3
ACAD_PLOTSETTINGS
350
2E
  3
ACAD_PLOTSTYLENAME
350
E
  3
ACAD_SCALELIST
350
C2E
  3
ACAD_SECTIONVIEWSTYLE
350
DB8F
  3
ACAD_TABLESTYLE
350
31
  3
ACAD_VISUALSTYLE
350
14
  3
ACDB_RECOMPOSE_DATA
350
F133
  3
AcDbVariableDictionary
350
42
  0
DICTIONARY
  5
366A
330
8
100
AcDbDictionary
280
     1
281
     1
  0
DICTIONARY
  5
81
330
2
100
AcDbDictionary
280
     1
281
     1
  3
ACAD_LAYERFILTERS
360
C1F
  3
ACAD_LAYERSTATES
360
559
  3
ACLYDICTIONARY
360
C1E
  0
DICTIONARY
  5
3620
330
25
100
AcDbDictionary
280
     1
281
     1
  3
ADSK_XREC_LAYER_RECONCILED
360
BCDA
  0
DICTIONARY
  5
3622
330
75
100
AcDbDictionary
280
     1
281
     1
  3
ADSK_XREC_LAYER_RECONCILED
360
BCDB
  0
DICTIONARY
  5
3624
330
77
100
AcDbDictionary
280
     1
281
     1
  3
ADSK_XREC_LAYER_RECONCILED
360
BCDC
  0
DICTIONARY
  5
362E
330
7C
100
AcDbDictionary
280
     1
281
     1
  3
ADSK_XREC_LAYER_RECONCILED
360
BCE1
  0
DICTIONARY
  5
93D8
330
1EA
100
AcDbDictionary
280
     1
281
     1
  3
ADSK_XREC_LAYER_RECONCILED
360
BCE4
  0
DICTIONARY
  5
ECFF
330
ECFE
100
AcDbDictionary
280
     1
281
     1
  0
DICTIONARY
  5
48
330
37
100
AcDbDictionary
280
     1
281
     1
  3
ACAD_SORTENTS
360
49
  0
DICTIONARY
  5
B96
330
33
100
AcDbDictionary
280
     1
281
     1
  3
ACAD_SORTENTS
360
B97
  0
XRECORD
  5
DB99
102
{ACAD_REACTORS
330
C
102
}
330
C
100
AcDbXrecord
280
     1
300
ACD
300
2016
300
ACD_F_S
  0
DICTIONARY
  5
30
102
{ACAD_REACTORS
330
C
102
}
330
C
100
AcDbDictionary
281
     1
  0
DICTIONARY
  5
DB91
102
{ACAD_REACTORS
330
C
102
}
330
C
100
AcDbDictionary
281
     1
  3
Metric50
350
DB92
  0
DICTIONARY
  5
D
102
{ACAD_REACTORS
330
C
102
}
330
C
100
AcDbDictionary
281
     1
  0
DICTIONARY
  5
2F
102
{ACAD_REACTORS
330
C
102
}
330
C
100
AcDbDictionary
281
     1
  3
Model
350
3A
  3
レイアウト1
350
36
  0
DICTIONARY
  5
10
102
{ACAD_REACTORS
330
C
102
}
330
C
100
AcDbDictionary
281
     1
  3
ByBlock
350
12
  3
ByLayer
350
11
  3
Global
350
13
  0
DICTIONARY
  5
C40
102
{ACAD_REACTORS
330
C
102
}
330
C
100
AcDbDictionary
281
     1
  3
Standard
350
C41
  3
部品図用_1：1
350
84CA
  0
DICTIONARY
  5
2C
102
{ACAD_REACTORS
330
C
102
}
330
C
100
AcDbDictionary
281
     1
  3
Standard
350
2D
  0
DICTIONARY
  5
2E
102
{ACAD_REACTORS
330
C
102
}
330
C
100
AcDbDictionary
281
     1
  3
A4横
350
7876
  3
A4縦
350
786D
  0
ACDBDICTIONARYWDFLT
  5
E
102
{ACAD_REACTORS
330
C
102
}
330
C
100
AcDbDictionary
281
     1
  3
Normal
350
F
100
AcDbDictionaryWithDefault
340
F
  0
DICTIONARY
  5
C2E
102
{ACAD_REACTORS
330
C
102
}
330
C
100
AcDbDictionary
281
     1
  3
A0
350
3737
  3
A1
350
3738
  3
A2
350
3739
  3
A3
350
373A
  3
A4
350
373B
  3
A5
350
373C
  3
A6
350
373D
  3
A7
350
373E
  3
A8
350
373F
  3
A9
350
3740
  3
B0
350
C2F
  3
B1
350
3741
  3
B2
350
3742
  3
B3
350
3743
  3
B4
350
3744
  3
B5
350
3745
  3
B6
350
3746
  0
DICTIONARY
  5
DB8F
102
{ACAD_REACTORS
330
C
102
}
330
C
100
AcDbDictionary
281
     1
  3
Metric50
350
DB90
  0
DICTIONARY
  5
31
102
{ACAD_REACTORS
330
C
102
}
330
C
100
AcDbDictionary
281
     1
  3
Standard
350
32
  0
DICTIONARY
  5
14
102
{ACAD_REACTORS
330
C
102
}
330
C
100
AcDbDictionary
281
     1
  3
2dWireframe
350
1A
  3
3D Hidden
350
1C
  3
3dWireframe
350
1B
  3
Basic
350
19
  3
Brighten
350
20
  3
ColorChange
350
24
  3
Conceptual
350
1D
  3
Dim
350
1F
  3
EdgeColorOff
350
C2D
  3
Facepattern
350
23
  3
Flat
350
15
  3
FlatWithEdges
350
16
  3
Gouraud
350
17
  3
GouraudWithEdges
350
18
  3
Hidden
350
DB89
  3
JitterOff
350
C2B
  3
Linepattern
350
22
  3
OverhangOff
350
C2C
  3
Realistic
350
1E
  3
Shaded
350
DB8E
  3
Shaded with edges
350
DB8D
  3
Shades of Gray
350
DB8A
  3
Sketchy
350
DB8B
  3
Thicken
350
21
  3
Wireframe
350
DB88
  3
X-Ray
350
DB8C
  0
XRECORD
  5
F133
102
{ACAD_REACTORS
330
C
102
}
330
C
100
AcDbXrecord
280
     1
 90
        1
330
32
  0
DICTIONARY
  5
42
102
{ACAD_REACTORS
330
C
102
}
330
C
100
AcDbDictionary
281
     1
  3
CANNOSCALE
350
3714
  3
CMLEADERSTYLE
350
3713
  3
CTABLESTYLE
350
43
  3
CVIEWDETAILSTYLE
350
DBE1
  3
CVIEWSECTIONSTYLE
350
DBE2
  3
DIMASSOC
350
3719
  3
HIDETEXT
350
3717
  3
INDEXCTL
350
3716
  3
LAYEREVAL
350
93DF
  3
LAYERNOTIFY
350
93E0
  3
LIGHTINGUNITS
350
93DE
  3
MLEADERSCALE
350
B1DD
  3
MSLTSCALE
350
93DD
  3
SORTENTS
350
3715
  0
DICTIONARY
  5
C1F
102
{ACAD_REACTORS
330
81
102
}
330
81
100
AcDbDictionary
281
     1
  0
DICTIONARY
  5
559
102
{ACAD_REACTORS
330
81
102
}
330
81
100
AcDbDictionary
281
     1
  0
DICTIONARY
  5
C1E
102
{ACAD_REACTORS
330
81
102
}
330
81
100
AcDbDictionary
281
     1
1001
ACAD
1000
<All
  0
XRECORD
  5
BCDA
102
{ACAD_REACTORS
330
3620
102
}
330
3620
100
AcDbXrecord
280
     1
290
     1
  0
XRECORD
  5
BCDB
102
{ACAD_REACTORS
330
3622
102
}
330
3622
100
AcDbXrecord
280
     1
290
     1
  0
XRECORD
  5
BCDC
102
{ACAD_REACTORS
330
3624
102
}
330
3624
100
AcDbXrecord
280
     1
290
     1
  0
XRECORD
  5
BCE1
102
{ACAD_REACTORS
330
362E
102
}
330
362E
100
AcDbXrecord
280
     1
290
     1
  0
XRECORD
  5
BCE4
102
{ACAD_REACTORS
330
93D8
102
}
330
93D8
100
AcDbXrecord
280
     1
290
     1
  0
SORTENTSTABLE
  5
49
102
{ACAD_REACTORS
330
48
102
}
330
48
100
AcDbSortentsTable
330
37
331
BD3D
  5
BD3D
  0
SORTENTSTABLE
  5
B97
102
{ACAD_REACTORS
330
B96
102
}
330
B96
100
AcDbSortentsTable
330
33
  0
ACDBDETAILVIEWSTYLE
  5
DB92
102
{ACAD_XDICTIONARY
360
F16A
102
}
102
{ACAD_REACTORS
330
DB91
102
}
330
DB91
100
AcDbModelDocViewStyle
 70
     0
  3
Metric50
290
     0
100
AcDbDetailViewStyle
 70
     0
 71
     0
 90
        3
 71
     1
340
26
 62
   256
 40
5.0
340
0
 62
   256
 40
5.0
300

 40
0.0
280
     1
 71
     2
340
2B
 90
       25
 62
   256
 71
     3
340
26
 62
   256
 40
5.0
 90
        0
 40
15.0
 90
        1
300
%<\AcVar ViewDetailId>% (%<\AcVar ViewScale \f "%sn">%)
 71
     4
340
2B
 90
       25
 62
   256
340
2B
 90
       25
 62
   256
280
     0
  0
LAYOUT
  5
3A
102
{ACAD_XDICTIONARY
360
92F1
102
}
102
{ACAD_REACTORS
330
2F
102
}
330
2F
100
AcDbPlotSettings
  1
A4縦
  2
Canon MP770 Series Printer
  4
A4
  6

 40
4.180416584014892
 41
5.831417560577392
 42
4.180404663085937
 43
3.757080078125
 44
209.9733276367187
 45
296.9683227539062
 46
-4.19374680519104
 47
-4.810087442398071
 48
0.0
 49
0.0
140
210.0
141
297.0
142
1.0
143
1.0
 70
 11940
 72
     1
 73
     0
 74
     4
  7
monochrome.ctb
 75
     0
147
0.7684300128340094
 76
     0
 77
     2
 78
   300
148
0.0
149
0.0
100
AcDbLayout
  1
Model
 70
     1
 71
     0
 10
0.0
 20
0.0
 11
12.0
 21
9.0
 12
0.0
 22
0.0
 32
0.0
 14
0.0
 24
0.0
 34
0.0
 15
0.0
 25
0.0
 35
0.0
146
0.0
 13
0.0
 23
0.0
 33
0.0
 16
1.0
 26
0.0
 36
0.0
 17
0.0
 27
1.0
 37
0.0
 76
     0
330
37
331
28
1001
ACAD_PSEXT
1000
Canon MP770 Series Printer
1000
Canon MP770 Series Printer
1000
USB001
1000

1070
     0
  0
LAYOUT
  5
36
102
{ACAD_XDICTIONARY
360
55B
102
}
102
{ACAD_REACTORS
330
2F
102
}
330
2F
100
AcDbPlotSettings
  1

  2
LP-8300F
  4
A4
  6

 40
5.873749732971191
 41
5.873717308044433
 42
5.873748779296875
 43
5.873748779296875
 44
209.9733276367187
 45
297.0106506347656
 46
0.0
 47
0.0
 48
0.0
 49
0.0
140
0.0
141
0.0
142
1.0
143
1.0
 70
   688
 72
     1
 73
     1
 74
     5
  7
monochrome.ctb
 75
    16
147
1.0
 76
     0
 77
     2
 78
   300
148
0.0
149
0.0
100
AcDbLayout
  1
レイアウト1
 70
     1
 71
     1
 10
-5.873748779296875
 20
-5.873749732971191
 11
291.1369018554688
 21
204.0995779037475
 12
0.0
 22
0.0
 32
0.0
 14
1.000000000000000E+20
 24
1.000000000000000E+20
 34
1.000000000000000E+20
 15
-1.000000000000000E+20
 25
-1.000000000000000E+20
 35
-1.000000000000000E+20
146
0.0
 13
0.0
 23
0.0
 33
0.0
 16
1.0
 26
0.0
 36
0.0
 17
0.0
 27
1.0
 37
0.0
 76
     0
330
33
331
542
1001
ACAD_PSEXT
1000
LP-8300F
1000
EPSON LP-8300F
1000
IP_192.168.252.91
1000

1070
     0
  0
MATERIAL
  5
12
102
{ACAD_REACTORS
330
10
102
}
330
10
100
AcDbMaterial
  1
ByBlock
 73
     1
 78
     1
172
     1
176
     1
270
     1
274
     1
 94
       63
  0
MATERIAL
  5
11
102
{ACAD_REACTORS
330
10
102
}
330
10
100
AcDbMaterial
  1
ByLayer
 73
     1
 78
     1
172
     1
176
     1
270
     1
274
     1
 94
       63
  0
MATERIAL
  5
13
102
{ACAD_REACTORS
330
10
102
}
330
10
100
AcDbMaterial
  1
Global
 73
     1
 78
     1
172
     1
176
     1
270
     1
274
     1
 94
       63
  0
MLEADERSTYLE
  5
C41
102
{ACAD_REACTORS
330
C40
102
}
330
C40
100
AcDbMLeaderStyle
179
     2
170
     2
171
     1
172
     0
 90
        2
 40
0.0
 41
0.0
173
     1
 91
-1073741824
340
2A
 92
       -1
290
     1
 42
1.0
291
     0
 43
-0.5
  3
Standard
 44
2.5
300

342
26
174
     5
178
     5
175
     1
176
     0
 93
-1073741824
 45
3.0
292
     0
297
     0
 46
4.0
 94
-1056964608
 47
1.0
 49
1.0
140
1.0
293
     1
141
0.0
294
     1
177
     0
142
1.0
295
     0
296
     0
143
0.15
271
     0
272
     9
273
     9
  0
MLEADERSTYLE
  5
84CA
102
{ACAD_REACTORS
330
C40
102
}
330
C40
100
AcDbMLeaderStyle
179
     2
170
     2
171
     1
172
     0
 90
        2
 40
0.0
 41
0.0
173
     1
 91
-1073741824
340
2A
 92
       -1
290
     1
 42
1.0
291
     0
 43
-0.5
  3
Standard
 44
2.5
300

342
26
174
     5
178
     5
175
     1
176
     0
 93
-1073741824
 45
3.5
292
     0
297
     0
 46
4.0
 94
-1056964608
 47
1.0
 49
1.0
140
1.0
293
     1
141
0.0
294
     1
177
     0
142
1.0
295
     0
296
     0
143
0.15
271
     0
272
     9
273
     9
  0
MLINESTYLE
  5
2D
102
{ACAD_REACTORS
330
2C
102
}
330
2C
100
AcDbMlineStyle
  2
STANDARD
 70
     0
  3

 62
   256
 51
90.0
 52
90.0
 71
     2
 49
0.5
 62
   256
  6
BYLAYER
 49
-0.5
 62
   256
  6
BYLAYER
  0
PLOTSETTINGS
  5
7876
102
{ACAD_REACTORS
330
2E
102
}
330
2E
100
AcDbPlotSettings
  1
A4横
  2
Canon MP770 Series Printer
  4
A4
  6

 40
4.180416584014892
 41
5.831417560577392
 42
4.180404663085937
 43
3.757080078125
 44
209.9733276367187
 45
296.9683227539062
 46
-4.19374680519104
 47
-4.810087442398071
 48
0.0
 49
350.0
140
297.0
141
560.0
142
1.0
143
1.0
 70
 11940
 72
     1
 73
     1
 74
     4
  7
monochrome.ctb
 75
     0
147
0.7684300128340094
 76
     0
 77
     2
 78
   300
148
0.0
149
-350.0
1001
ACAD_PSEXT
1000
Canon MP770 Series Printer
1000
Canon MP770 Series Printer
1000
USB001
1000

1070
     0
  0
PLOTSETTINGS
  5
786D
102
{ACAD_REACTORS
330
2E
102
}
330
2E
100
AcDbPlotSettings
  1
A4縦
  2
Canon MP770 Series Printer
  4
A4
  6

 40
4.180416584014892
 41
5.831417560577392
 42
4.180404663085937
 43
3.757080078125
 44
209.9733276367187
 45
296.9683227539062
 46
-4.19374680519104
 47
-4.810087442398071
 48
0.0
 49
0.0
140
210.0
141
297.0
142
1.0
143
1.0
 70
 11940
 72
     1
 73
     0
 74
     4
  7
monochrome.ctb
 75
     0
147
0.7684300128340094
 76
     0
 77
     2
 78
   300
148
0.0
149
0.0
1001
ACAD_PSEXT
1000
Canon MP770 Series Printer
1000
Canon MP770 Series Printer
1000
USB001
1000

1070
     0
  0
ACDBPLACEHOLDER
  5
F
102
{ACAD_REACTORS
330
E
102
}
330
E
  0
SCALE
  5
3737
102
{ACAD_REACTORS
330
C2E
102
}
330
C2E
100
AcDbScale
 70
     0
300
1:20
140
1.0
141
20.0
290
     0
  0
SCALE
  5
3738
102
{ACAD_REACTORS
330
C2E
102
}
330
C2E
100
AcDbScale
 70
     0
300
1:15
140
1.0
141
15.0
290
     0
  0
SCALE
  5
3739
102
{ACAD_REACTORS
330
C2E
102
}
330
C2E
100
AcDbScale
 70
     0
300
1:10
140
1.0
141
10.0
290
     0
  0
SCALE
  5
373A
102
{ACAD_REACTORS
330
C2E
102
}
330
C2E
100
AcDbScale
 70
     0
300
1:6
140
1.0
141
6.0
290
     0
  0
SCALE
  5
373B
102
{ACAD_REACTORS
330
C2E
102
}
330
C2E
100
AcDbScale
 70
     0
300
1:5
140
1.0
141
5.0
290
     0
  0
SCALE
  5
373C
102
{ACAD_REACTORS
330
C2E
102
}
330
C2E
100
AcDbScale
 70
     0
300
1:4
140
1.0
141
4.0
290
     0
  0
SCALE
  5
373D
102
{ACAD_REACTORS
330
C2E
102
}
330
C2E
100
AcDbScale
 70
     0
300
1:3
140
1.0
141
3.0
290
     0
  0
SCALE
  5
373E
102
{ACAD_REACTORS
330
C2E
102
}
330
C2E
100
AcDbScale
 70
     0
300
1:2.5
140
1.0
141
2.5
290
     0
  0
SCALE
  5
373F
102
{ACAD_REACTORS
330
C2E
102
}
330
C2E
100
AcDbScale
 70
     0
300
1:2
140
1.0
141
2.0
290
     0
  0
SCALE
  5
3740
102
{ACAD_REACTORS
330
C2E
102
}
330
C2E
100
AcDbScale
 70
     0
300
1:1.5
140
1.0
141
1.5
290
     0
  0
SCALE
  5
C2F
102
{ACAD_REACTORS
330
C2E
102
}
330
C2E
100
AcDbScale
 70
     0
300
1:1
140
1.0
141
1.0
290
     1
  0
SCALE
  5
3741
102
{ACAD_REACTORS
330
C2E
102
}
330
C2E
100
AcDbScale
 70
     0
300
2:1
140
2.0
141
1.0
290
     0
  0
SCALE
  5
3742
102
{ACAD_REACTORS
330
C2E
102
}
330
C2E
100
AcDbScale
 70
     0
300
2.5:1
140
2.5
141
1.0
290
     0
  0
SCALE
  5
3743
102
{ACAD_REACTORS
330
C2E
102
}
330
C2E
100
AcDbScale
 70
     0
300
3:1
140
3.0
141
1.0
290
     0
  0
SCALE
  5
3744
102
{ACAD_REACTORS
330
C2E
102
}
330
C2E
100
AcDbScale
 70
     0
300
4:1
140
4.0
141
1.0
290
     0
  0
SCALE
  5
3745
102
{ACAD_REACTORS
330
C2E
102
}
330
C2E
100
AcDbScale
 70
     0
300
5:1
140
5.0
141
1.0
290
     0
  0
SCALE
  5
3746
102
{ACAD_REACTORS
330
C2E
102
}
330
C2E
100
AcDbScale
 70
     0
300
10:1
140
10.0
141
1.0
290
     0
  0
ACDBSECTIONVIEWSTYLE
  5
DB90
102
{ACAD_XDICTIONARY
360
F168
102
}
102
{ACAD_REACTORS
330
DB8F
102
}
330
DB8F
100
AcDbModelDocViewStyle
 70
     0
  3
Metric50
290
     0
100
AcDbSectionViewStyle
 70
     0
 71
     0
 90
      102
 71
     1
340
26
 62
   256
 40
5.0
340
0
340
0
 62
   256
 40
5.0
300
I, O, Q, S, X, Z
 40
10.0
 90
        0
 40
2.5
 90
        0
 71
     2
340
2B
 90
       25
 62
   256
340
2B
 90
       50
 62
   256
 40
5.0
 40
2.5
 40
5.0
 71
     3
340
26
 62
   256
 40
5.0
 90
        0
 40
15.0
 90
        1
300
%<\AcVar ViewSectionStartId>%-%<\AcVar ViewSectionEndId>% (%<\AcVar ViewScale \f "%sn">%)
 71
     4
 62
   256
 62
   257
300
ANSI31
 40
1.0
 90
        0
290
     0
290
     0
 90
        6
 40
0.0
 40
1.570796326794896
 40
0.2617993877991494
 40
1.308996938995747
 40
-0.2617993877991494
 40
1.832595714594046
  0
TABLESTYLE
  5
32
102
{ACAD_XDICTIONARY
360
3660
102
}
102
{ACAD_REACTORS
330
31
102
}
330
31
100
AcDbTableStyle
280
     0
  3
Standard
 70
     0
 71
     0
 40
1.5
 41
1.5
280
     0
281
     0
  7
Standard
140
4.5
170
     2
 62
     0
 63
     7
283
     0
 90
      512
 91
        0
  1

274
    -2
284
     1
 64
     0
275
    -2
285
     1
 65
     0
276
    -2
286
     1
 66
     0
277
    -2
287
     1
 67
     0
278
    -2
288
     1
 68
     0
279
    -2
289
     1
 69
     0
  7
Standard
140
6.0
170
     5
 62
     0
 63
     7
283
     0
 90
      512
 91
        0
  1

274
    -2
284
     1
 64
     0
275
    -2
285
     1
 65
     0
276
    -2
286
     1
 66
     0
277
    -2
287
     1
 67
     0
278
    -2
288
     1
 68
     0
279
    -2
289
     1
 69
     0
  7
Standard
140
4.5
170
     5
 62
     0
 63
     7
283
     0
 90
      512
 91
        0
  1

274
    -2
284
     1
 64
     0
275
    -2
285
     1
 65
     0
276
    -2
286
     1
 66
     0
277
    -2
287
     1
 67
     0
278
    -2
288
     1
 68
     0
279
    -2
289
     1
 69
     0
  0
VISUALSTYLE
  5
1A
102
{ACAD_XDICTIONARY
360
F13E
102
}
102
{ACAD_REACTORS
330
14
102
}
330
14
100
AcDbVisualStyle
  2
2dWireframe
 70
     4
177
     2
291
     0
 71
     0
176
     1
 72
     2
176
     1
 73
     0
176
     1
 90
        0
176
     1
 40
0.6
176
     1
 41
30.0
176
     1
 63
     7
176
     1
 74
     1
176
     1
 91
        4
176
     1
 64
     7
176
     1
 65
   257
176
     1
 75
     1
176
     1
175
     1
176
     1
 42
1.0
176
     1
 92
        0
176
     1
 66
   257
176
     1
 43
1.0
176
     1
 76
     1
176
     1
 77
     6
176
     1
 78
     2
176
     1
 67
     7
176
     1
 79
     5
176
     1
170
     0
176
     1
171
     0
176
     1
290
     0
176
     1
 93
        1
176
     1
 44
0.0
176
     1
173
     0
176
     1
1001
ACAD
1000
AcDbSavedByObjectVersion
1070
     0
  0
VISUALSTYLE
  5
1C
102
{ACAD_XDICTIONARY
360
F142
102
}
102
{ACAD_REACTORS
330
14
102
}
330
14
100
AcDbVisualStyle
  2
3D Hidden
 70
     6
177
     2
291
     0
 71
     1
176
     1
 72
     2
176
     1
 73
     2
176
     1
 90
        0
176
     1
 40
0.6
176
     1
 41
30.0
176
     1
 63
     7
176
     1
 74
     2
176
     1
 91
        2
176
     1
 64
     7
176
     1
 65
   257
176
     1
 75
     2
176
     1
175
     1
176
     1
 42
40.0
176
     1
 92
        0
176
     1
 66
   257
176
     1
 43
1.0
176
     1
 76
     1
176
     1
 77
     6
176
     1
 78
     2
176
     1
 67
     7
176
     1
 79
     3
176
     1
170
     0
176
     1
171
     0
176
     1
290
     0
176
     1
 93
        1
176
     1
 44
0.0
176
     1
173
     0
176
     1
1001
ACAD
1000
AcDbSavedByObjectVersion
1070
     0
  0
VISUALSTYLE
  5
1B
102
{ACAD_XDICTIONARY
360
F140
102
}
102
{ACAD_REACTORS
330
14
102
}
330
14
100
AcDbVisualStyle
  2
3dWireframe
 70
     5
177
     2
291
     0
 71
     0
176
     1
 72
     2
176
     1
 73
     0
176
     1
 90
        0
176
     1
 40
0.6
176
     1
 41
30.0
176
     1
 63
     7
176
     1
 74
     1
176
     1
 91
        4
176
     1
 64
     7
176
     1
 65
   257
176
     1
 75
     1
176
     1
175
     1
176
     1
 42
1.0
176
     1
 92
        0
176
     1
 66
   257
176
     1
 43
1.0
176
     1
 76
     1
176
     1
 77
     6
176
     1
 78
     2
176
     1
 67
     7
176
     1
 79
     5
176
     1
170
     0
176
     1
171
     0
176
     1
290
     0
176
     1
 93
        1
176
     1
 44
0.0
176
     1
173
     0
176
     1
1001
ACAD
1000
AcDbSavedByObjectVersion
1070
     0
  0
VISUALSTYLE
  5
19
102
{ACAD_XDICTIONARY
360
F13C
102
}
102
{ACAD_REACTORS
330
14
102
}
330
14
100
AcDbVisualStyle
  2
Basic
 70
     7
177
     2
291
     1
 71
     1
176
     1
 72
     0
176
     1
 73
     1
176
     1
 90
        0
176
     1
 40
0.6
176
     1
 41
30.0
176
     1
 63
     7
176
     1
 74
     0
176
     1
 91
        4
176
     1
 64
     7
176
     1
 65
   257
176
     1
 75
     1
176
     1
175
     1
176
     1
 42
1.0
176
     1
 92
        8
176
     1
 66
     7
176
     1
 43
1.0
176
     1
 76
     1
176
     1
 77
     6
176
     1
 78
     2
176
     1
 67
     7
176
     1
 79
     5
176
     1
170
     0
176
     1
171
     0
176
     1
290
     0
176
     1
 93
        1
176
     1
 44
0.0
176
     1
173
     0
176
     1
1001
ACAD
1000
AcDbSavedByObjectVersion
1070
     0
  0
VISUALSTYLE
  5
20
102
{ACAD_XDICTIONARY
360
F14A
102
}
102
{ACAD_REACTORS
330
14
102
}
330
14
100
AcDbVisualStyle
  2
Brighten
 70
    12
177
     2
291
     1
 71
     2
176
     1
 72
     2
176
     1
 73
     0
176
     1
 90
        0
176
     1
 40
0.6
176
     1
 41
30.0
176
     1
 63
     7
176
     1
 74
     1
176
     1
 91
        4
176
     1
 64
     7
176
     1
 65
   257
176
     1
 75
     1
176
     1
175
     1
176
     1
 42
1.0
176
     1
 92
        8
176
     1
 66
     7
176
     1
 43
1.0
176
     1
 76
     1
176
     1
 77
     6
176
     1
 78
     2
176
     1
 67
     7
176
     1
 79
     5
176
     1
170
     0
176
     1
171
     0
176
     1
290
     0
176
     1
 93
        1
176
     1
 44
50.0
176
     1
173
     0
176
     1
1001
ACAD
1000
AcDbSavedByObjectVersion
1070
     0
  0
VISUALSTYLE
  5
24
102
{ACAD_XDICTIONARY
360
F152
102
}
102
{ACAD_REACTORS
330
14
102
}
330
14
100
AcDbVisualStyle
  2
ColorChange
 70
    16
177
     2
291
     1
 71
     2
176
     1
 72
     2
176
     1
 73
     3
176
     1
 90
        0
176
     1
 40
0.6
176
     1
 41
30.0
176
     1
 63
     8
176
     1
 74
     1
176
     1
 91
        4
176
     1
 64
     7
176
     1
 65
   257
176
     1
 75
     1
176
     1
175
     1
176
     1
 42
1.0
176
     1
 92
        8
176
     1
 66
     8
176
     1
 43
1.0
176
     1
 76
     1
176
     1
 77
     6
176
     1
 78
     2
176
     1
 67
     7
176
     1
 79
     5
176
     1
170
     0
176
     1
171
     0
176
     1
290
     0
176
     1
 93
        1
176
     1
 44
0.0
176
     1
173
     0
176
     1
1001
ACAD
1000
AcDbSavedByObjectVersion
1070
     0
  0
VISUALSTYLE
  5
1D
102
{ACAD_XDICTIONARY
360
F144
102
}
102
{ACAD_REACTORS
330
14
102
}
330
14
100
AcDbVisualStyle
  2
Conceptual
 70
     9
177
     2
291
     0
 71
     3
176
     1
 72
     2
176
     1
 73
     0
176
     1
 90
        0
176
     1
 40
0.6
176
     1
 41
30.0
176
     1
 63
     7
176
     1
 74
     2
176
     1
 91
        2
176
     1
 64
     7
176
     1
 65
   257
176
     1
 75
     1
176
     1
175
     1
176
     1
 42
40.0
176
     1
 92
        8
176
     1
 66
     7
176
     1
 43
1.0
176
     1
 76
     1
176
     1
 77
     6
176
     1
 78
     2
176
     1
 67
     7
176
     1
 79
     3
176
     1
170
     0
176
     1
171
     0
176
     1
290
     0
176
     1
 93
        1
176
     1
 44
0.0
176
     1
173
     0
176
     1
1001
ACAD
1000
AcDbSavedByObjectVersion
1070
     0
  0
VISUALSTYLE
  5
1F
102
{ACAD_XDICTIONARY
360
F148
102
}
102
{ACAD_REACTORS
330
14
102
}
330
14
100
AcDbVisualStyle
  2
Dim
 70
    11
177
     2
291
     1
 71
     2
176
     1
 72
     2
176
     1
 73
     0
176
     1
 90
        0
176
     1
 40
0.6
176
     1
 41
30.0
176
     1
 63
     7
176
     1
 74
     1
176
     1
 91
        4
176
     1
 64
     7
176
     1
 65
   257
176
     1
 75
     1
176
     1
175
     1
176
     1
 42
1.0
176
     1
 92
        8
176
     1
 66
     7
176
     1
 43
1.0
176
     1
 76
     1
176
     1
 77
     6
176
     1
 78
     2
176
     1
 67
     7
176
     1
 79
     5
176
     1
170
     0
176
     1
171
     0
176
     1
290
     0
176
     1
 93
        1
176
     1
 44
-50.0
176
     1
173
     0
176
     1
1001
ACAD
1000
AcDbSavedByObjectVersion
1070
     0
  0
VISUALSTYLE
  5
C2D
102
{ACAD_XDICTIONARY
360
F158
102
}
102
{ACAD_REACTORS
330
14
102
}
330
14
100
AcDbVisualStyle
  2
EdgeColorOff
 70
    22
177
     2
291
     1
 71
     2
176
     0
 72
     2
176
     0
 73
     0
176
     0
 90
        0
176
     0
 40
0.6
176
     0
 41
30.0
176
     0
 63
     7
176
     0
 74
     1
176
     0
 91
        4
176
     0
 64
     7
176
     0
 65
   257
176
     0
 75
     1
176
     0
175
     1
176
     0
 42
1.0
176
     0
 92
        8
176
     2
 66
     7
176
     0
 43
1.0
176
     0
 76
     1
176
     0
 77
     6
176
     0
 78
     2
176
     0
 67
     7
176
     0
 79
     5
176
     0
170
     0
176
     0
171
     0
176
     0
290
     0
176
     0
 93
        1
176
     0
 44
0.0
176
     0
173
     0
176
     0
1001
ACAD
1000
AcDbSavedByObjectVersion
1070
     0
  0
VISUALSTYLE
  5
23
102
{ACAD_XDICTIONARY
360
F150
102
}
102
{ACAD_REACTORS
330
14
102
}
330
14
100
AcDbVisualStyle
  2
Facepattern
 70
    15
177
     2
291
     1
 71
     2
176
     1
 72
     2
176
     1
 73
     0
176
     1
 90
        0
176
     1
 40
0.6
176
     1
 41
30.0
176
     1
 63
     7
176
     1
 74
     1
176
     1
 91
        4
176
     1
 64
     7
176
     1
 65
   257
176
     1
 75
     1
176
     1
175
     1
176
     1
 42
1.0
176
     1
 92
        8
176
     1
 66
     7
176
     1
 43
1.0
176
     1
 76
     1
176
     1
 77
     6
176
     1
 78
     2
176
     1
 67
     7
176
     1
 79
     5
176
     1
170
     0
176
     1
171
     0
176
     1
290
     0
176
     1
 93
        1
176
     1
 44
0.0
176
     1
173
     0
176
     1
1001
ACAD
1000
AcDbSavedByObjectVersion
1070
     0
  0
VISUALSTYLE
  5
15
102
{ACAD_XDICTIONARY
360
F134
102
}
102
{ACAD_REACTORS
330
14
102
}
330
14
100
AcDbVisualStyle
  2
Flat
 70
     0
177
     2
291
     1
 71
     2
176
     1
 72
     1
176
     1
 73
     1
176
     1
 90
        2
176
     1
 40
0.6
176
     1
 41
30.0
176
     1
 63
     7
176
     1
 74
     0
176
     1
 91
        4
176
     1
 64
     7
176
     1
 65
   257
176
     1
 75
     1
176
     1
175
     1
176
     1
 42
1.0
176
     1
 92
        8
176
     1
 66
     7
176
     1
 43
1.0
176
     1
 76
     1
176
     1
 77
     6
176
     1
 78
     2
176
     1
 67
     7
176
     1
 79
     5
176
     1
170
     0
176
     1
171
     0
176
     1
290
     0
176
     1
 93
       13
176
     1
 44
0.0
176
     1
173
     0
176
     1
1001
ACAD
1000
AcDbSavedByObjectVersion
1070
     0
  0
VISUALSTYLE
  5
16
102
{ACAD_XDICTIONARY
360
F136
102
}
102
{ACAD_REACTORS
330
14
102
}
330
14
100
AcDbVisualStyle
  2
FlatWithEdges
 70
     1
177
     2
291
     1
 71
     2
176
     1
 72
     1
176
     1
 73
     1
176
     1
 90
        2
176
     1
 40
0.6
176
     1
 41
30.0
176
     1
 63
     7
176
     1
 74
     1
176
     1
 91
        4
176
     1
 64
     7
176
     1
 65
   257
176
     1
 75
     1
176
     1
175
     1
176
     1
 42
1.0
176
     1
 92
        0
176
     1
 66
   257
176
     1
 43
1.0
176
     1
 76
     1
176
     1
 77
     6
176
     1
 78
     2
176
     1
 67
     7
176
     1
 79
     5
176
     1
170
     0
176
     1
171
     0
176
     1
290
     0
176
     1
 93
       13
176
     1
 44
0.0
176
     1
173
     0
176
     1
1001
ACAD
1000
AcDbSavedByObjectVersion
1070
     0
  0
VISUALSTYLE
  5
17
102
{ACAD_XDICTIONARY
360
F138
102
}
102
{ACAD_REACTORS
330
14
102
}
330
14
100
AcDbVisualStyle
  2
Gouraud
 70
     2
177
     2
291
     1
 71
     2
176
     1
 72
     2
176
     1
 73
     1
176
     1
 90
        2
176
     1
 40
0.6
176
     1
 41
30.0
176
     1
 63
     7
176
     1
 74
     0
176
     1
 91
        4
176
     1
 64
     7
176
     1
 65
   257
176
     1
 75
     1
176
     1
175
     1
176
     1
 42
1.0
176
     1
 92
        0
176
     1
 66
     7
176
     1
 43
1.0
176
     1
 76
     1
176
     1
 77
     6
176
     1
 78
     2
176
     1
 67
     7
176
     1
 79
     5
176
     1
170
     0
176
     1
171
     0
176
     1
290
     0
176
     1
 93
       13
176
     1
 44
0.0
176
     1
173
     0
176
     1
1001
ACAD
1000
AcDbSavedByObjectVersion
1070
     0
  0
VISUALSTYLE
  5
18
102
{ACAD_XDICTIONARY
360
F13A
102
}
102
{ACAD_REACTORS
330
14
102
}
330
14
100
AcDbVisualStyle
  2
GouraudWithEdges
 70
     3
177
     2
291
     1
 71
     2
176
     1
 72
     2
176
     1
 73
     1
176
     1
 90
        2
176
     1
 40
0.6
176
     1
 41
30.0
176
     1
 63
     7
176
     1
 74
     1
176
     1
 91
        4
176
     1
 64
     7
176
     1
 65
   257
176
     1
 75
     1
176
     1
175
     1
176
     1
 42
1.0
176
     1
 92
        0
176
     1
 66
   257
176
     1
 43
1.0
176
     1
 76
     1
176
     1
 77
     6
176
     1
 78
     2
176
     1
 67
     7
176
     1
 79
     5
176
     1
170
     0
176
     1
171
     0
176
     1
290
     0
176
     1
 93
       13
176
     1
 44
0.0
176
     1
173
     0
176
     1
1001
ACAD
1000
AcDbSavedByObjectVersion
1070
     0
  0
VISUALSTYLE
  5
DB89
102
{ACAD_XDICTIONARY
360
F15C
102
}
102
{ACAD_REACTORS
330
14
102
}
330
14
100
AcDbVisualStyle
  2
Hidden
 70
     6
177
     2
291
     0
 71
     1
176
     1
 72
     2
176
     1
 73
     2
176
     1
 90
        0
176
     1
 40
0.6
176
     1
 41
30.0
176
     1
 63
     7
421
 16777215
176
     1
 74
     2
176
     1
 91
        2
176
     1
 64
     7
176
     1
 65
   257
176
     1
 75
     2
176
     1
175
     1
176
     1
 42
40.0
176
     1
 92
        0
176
     1
 66
   257
176
     1
 43
1.0
176
     1
 76
     1
176
     1
 77
     6
176
     1
 78
     2
176
     1
 67
     7
176
     1
 79
     3
176
     1
170
     0
176
     1
171
     0
176
     1
290
     0
176
     1
 93
        1
176
     1
 44
0.0
176
     1
173
     0
176
     1
1001
ACAD
1000
AcDbSavedByObjectVersion
1070
     0
  0
VISUALSTYLE
  5
C2B
102
{ACAD_XDICTIONARY
360
F154
102
}
102
{ACAD_REACTORS
330
14
102
}
330
14
100
AcDbVisualStyle
  2
JitterOff
 70
    20
177
     2
291
     1
 71
     2
176
     0
 72
     2
176
     0
 73
     0
176
     0
 90
        0
176
     0
 40
0.6
176
     0
 41
30.0
176
     0
 63
     7
176
     0
 74
     1
176
     0
 91
        4
176
     0
 64
     7
176
     0
 65
   257
176
     0
 75
     1
176
     0
175
     1
176
     0
 42
1.0
176
     0
 92
       10
176
     2
 66
     7
176
     0
 43
1.0
176
     0
 76
     1
176
     0
 77
     6
176
     0
 78
     2
176
     0
 67
     7
176
     0
 79
     5
176
     0
170
     0
176
     0
171
     0
176
     0
290
     0
176
     0
 93
        1
176
     0
 44
0.0
176
     0
173
     0
176
     0
1001
ACAD
1000
AcDbSavedByObjectVersion
1070
     0
  0
VISUALSTYLE
  5
22
102
{ACAD_XDICTIONARY
360
F14E
102
}
102
{ACAD_REACTORS
330
14
102
}
330
14
100
AcDbVisualStyle
  2
Linepattern
 70
    14
177
     2
291
     1
 71
     2
176
     1
 72
     2
176
     1
 73
     0
176
     1
 90
        0
176
     1
 40
0.6
176
     1
 41
30.0
176
     1
 63
     7
176
     1
 74
     1
176
     1
 91
        4
176
     1
 64
     7
176
     1
 65
   257
176
     1
 75
     7
176
     1
175
     7
176
     1
 42
1.0
176
     1
 92
        8
176
     1
 66
     7
176
     1
 43
1.0
176
     1
 76
     1
176
     1
 77
     6
176
     1
 78
     2
176
     1
 67
     7
176
     1
 79
     5
176
     1
170
     0
176
     1
171
     0
176
     1
290
     0
176
     1
 93
        1
176
     1
 44
0.0
176
     1
173
     0
176
     1
1001
ACAD
1000
AcDbSavedByObjectVersion
1070
     0
  0
VISUALSTYLE
  5
C2C
102
{ACAD_XDICTIONARY
360
F156
102
}
102
{ACAD_REACTORS
330
14
102
}
330
14
100
AcDbVisualStyle
  2
OverhangOff
 70
    21
177
     2
291
     1
 71
     2
176
     0
 72
     2
176
     0
 73
     0
176
     0
 90
        0
176
     0
 40
0.6
176
     0
 41
30.0
176
     0
 63
     7
176
     0
 74
     1
176
     0
 91
        4
176
     0
 64
     7
176
     0
 65
   257
176
     0
 75
     1
176
     0
175
     1
176
     0
 42
1.0
176
     0
 92
        9
176
     2
 66
     7
176
     0
 43
1.0
176
     0
 76
     1
176
     0
 77
     6
176
     0
 78
     2
176
     0
 67
     7
176
     0
 79
     5
176
     0
170
     0
176
     0
171
     0
176
     0
290
     0
176
     0
 93
        1
176
     0
 44
0.0
176
     0
173
     0
176
     0
1001
ACAD
1000
AcDbSavedByObjectVersion
1070
     0
  0
VISUALSTYLE
  5
1E
102
{ACAD_XDICTIONARY
360
F146
102
}
102
{ACAD_REACTORS
330
14
102
}
330
14
100
AcDbVisualStyle
  2
Realistic
 70
     8
177
     2
291
     0
 71
     2
176
     1
 72
     2
176
     1
 73
     0
176
     1
 90
        0
176
     1
 40
0.6
176
     1
 41
30.0
176
     1
 63
     7
176
     1
 74
     1
176
     1
 91
        0
176
     1
 64
     7
176
     1
 65
   257
176
     1
 75
     1
176
     1
175
     1
176
     1
 42
1.0
176
     1
 92
        8
176
     1
 66
     8
176
     1
 43
1.0
176
     1
 76
     1
176
     1
 77
     6
176
     1
 78
     2
176
     1
 67
     7
176
     1
 79
     5
176
     1
170
     0
176
     1
171
     0
176
     1
290
     0
176
     1
 93
       13
176
     1
 44
0.0
176
     1
173
     0
176
     1
1001
ACAD
1000
AcDbSavedByObjectVersion
1070
     0
  0
VISUALSTYLE
  5
DB8E
102
{ACAD_XDICTIONARY
360
F166
102
}
102
{ACAD_REACTORS
330
14
102
}
330
14
100
AcDbVisualStyle
  2
Shaded
 70
    27
177
     2
291
     0
 71
     2
176
     1
 72
     2
176
     1
 73
     1
176
     1
 90
        2
176
     1
 40
0.6
176
     1
 41
30.0
176
     1
 63
     7
421
 16777215
176
     1
 74
     0
176
     1
 91
        4
176
     1
 64
     7
176
     1
 65
   257
176
     1
 75
     1
176
     1
175
     1
176
     1
 42
1.0
176
     1
 92
        8
176
     1
 66
   257
176
     1
 43
1.0
176
     1
 76
     1
176
     1
 77
     6
176
     1
 78
     2
176
     1
 67
     8
425
  7895160
176
     1
 79
     3
176
     1
170
     0
176
     1
171
     0
176
     1
290
     0
176
     1
 93
        5
176
     1
 44
0.0
176
     1
173
     0
176
     1
1001
ACAD
1000
AcDbSavedByObjectVersion
1070
     0
  0
VISUALSTYLE
  5
DB8D
102
{ACAD_XDICTIONARY
360
F164
102
}
102
{ACAD_REACTORS
330
14
102
}
330
14
100
AcDbVisualStyle
  2
Shaded with edges
 70
    26
177
     2
291
     0
 71
     2
176
     1
 72
     2
176
     1
 73
     1
176
     1
 90
        2
176
     1
 40
0.6
176
     1
 41
30.0
176
     1
 63
     7
421
 16777215
176
     1
 74
     1
176
     1
 91
        2
176
     1
 64
     7
176
     1
 65
   257
176
     1
 75
     2
176
     1
175
     1
176
     1
 42
1.0
176
     1
 92
        8
176
     1
 66
   257
176
     1
 43
1.0
176
     1
 76
     1
176
     1
 77
     6
176
     1
 78
     2
176
     1
 67
     7
176
     1
 79
     3
176
     1
170
     0
176
     1
171
     0
176
     1
290
     0
176
     1
 93
        5
176
     1
 44
0.0
176
     1
173
     0
176
     1
1001
ACAD
1000
AcDbSavedByObjectVersion
1070
     0
  0
VISUALSTYLE
  5
DB8A
102
{ACAD_XDICTIONARY
360
F15E
102
}
102
{ACAD_REACTORS
330
14
102
}
330
14
100
AcDbVisualStyle
  2
Shades of Gray
 70
    23
177
     2
291
     0
 71
     2
176
     1
 72
     2
176
     1
 73
     3
176
     1
 90
        0
176
     1
 40
0.6
176
     1
 41
30.0
176
     1
 63
     7
421
 16777215
176
     1
 74
     2
176
     1
 91
        2
176
     1
 64
     7
176
     1
 65
     7
176
     1
 75
     1
176
     1
175
     1
176
     1
 42
40.0
176
     1
 92
        8
176
     1
 66
     7
176
     1
 43
1.0
176
     1
 76
     1
176
     1
 77
     6
176
     1
 78
     2
176
     1
 67
     7
176
     1
 79
     3
176
     1
170
     0
176
     1
171
     0
176
     1
290
     0
176
     1
 93
        1
176
     1
 44
0.0
176
     1
173
     0
176
     1
1001
ACAD
1000
AcDbSavedByObjectVersion
1070
     0
  0
VISUALSTYLE
  5
DB8B
102
{ACAD_XDICTIONARY
360
F160
102
}
102
{ACAD_REACTORS
330
14
102
}
330
14
100
AcDbVisualStyle
  2
Sketchy
 70
    24
177
     2
291
     0
 71
     1
176
     1
 72
     2
176
     1
 73
     2
176
     1
 90
        0
176
     1
 40
0.6
176
     1
 41
30.0
176
     1
 63
     7
421
 16777215
176
     1
 74
     2
176
     1
 91
        2
176
     1
 64
     7
176
     1
 65
     7
176
     1
 75
     1
176
     1
175
     1
176
     1
 42
40.0
176
     1
 92
       11
176
     1
 66
     7
176
     1
 43
1.0
176
     1
 76
     1
176
     1
 77
     6
176
     1
 78
     2
176
     1
 67
     7
176
     1
 79
     6
176
     1
170
     0
176
     1
171
     0
176
     1
290
     0
176
     1
 93
        1
176
     1
 44
0.0
176
     1
173
     0
176
     1
1001
ACAD
1000
AcDbSavedByObjectVersion
1070
     0
  0
VISUALSTYLE
  5
21
102
{ACAD_XDICTIONARY
360
F14C
102
}
102
{ACAD_REACTORS
330
14
102
}
330
14
100
AcDbVisualStyle
  2
Thicken
 70
    13
177
     2
291
     1
 71
     2
176
     1
 72
     2
176
     1
 73
     0
176
     1
 90
        0
176
     1
 40
0.6
176
     1
 41
30.0
176
     1
 63
     7
176
     1
 74
     1
176
     1
 91
        4
176
     1
 64
     7
176
     1
 65
   257
176
     1
 75
     1
176
     1
175
     1
176
     1
 42
1.0
176
     1
 92
       12
176
     1
 66
     7
176
     1
 43
1.0
176
     1
 76
     1
176
     1
 77
     6
176
     1
 78
     2
176
     1
 67
     7
176
     1
 79
     5
176
     1
170
     0
176
     1
171
     0
176
     1
290
     0
176
     1
 93
        1
176
     1
 44
0.0
176
     1
173
     0
176
     1
1001
ACAD
1000
AcDbSavedByObjectVersion
1070
     0
  0
VISUALSTYLE
  5
DB88
102
{ACAD_XDICTIONARY
360
F15A
102
}
102
{ACAD_REACTORS
330
14
102
}
330
14
100
AcDbVisualStyle
  2
Wireframe
 70
     5
177
     2
291
     0
 71
     0
176
     1
 72
     2
176
     1
 73
     0
176
     1
 90
        0
176
     1
 40
0.6
176
     1
 41
30.0
176
     1
 63
     7
421
 16777215
176
     1
 74
     1
176
     1
 91
        4
176
     1
 64
     7
176
     1
 65
   257
176
     1
 75
     1
176
     1
175
     1
176
     1
 42
1.0
176
     1
 92
        0
176
     1
 66
   257
176
     1
 43
1.0
176
     1
 76
     1
176
     1
 77
     6
176
     1
 78
     2
176
     1
 67
     7
176
     1
 79
     3
176
     1
170
     0
176
     1
171
     0
176
     1
290
     0
176
     1
 93
        1
176
     1
 44
0.0
176
     1
173
     0
176
     1
1001
ACAD
1000
AcDbSavedByObjectVersion
1070
     0
  0
VISUALSTYLE
  5
DB8C
102
{ACAD_XDICTIONARY
360
F162
102
}
102
{ACAD_REACTORS
330
14
102
}
330
14
100
AcDbVisualStyle
  2
X-Ray
 70
    25
177
     2
291
     0
 71
     2
176
     1
 72
     2
176
     1
 73
     1
176
     1
 90
        1
176
     1
 40
0.5
176
     1
 41
30.0
176
     1
 63
     7
421
 16777215
176
     1
 74
     1
176
     1
 91
        0
176
     1
 64
     7
176
     1
 65
   257
176
     1
 75
     1
176
     1
175
     1
176
     1
 42
1.0
176
     1
 92
        8
176
     1
 66
     7
176
     1
 43
1.0
176
     1
 76
     1
176
     1
 77
     6
176
     1
 78
     2
176
     1
 67
     7
176
     1
 79
     3
176
     1
170
     0
176
     1
171
     0
176
     1
290
     0
176
     1
 93
       13
176
     1
 44
0.0
176
     1
173
     0
176
     1
1001
ACAD
1000
AcDbSavedByObjectVersion
1070
     0
  0
DICTIONARYVAR
  5
3714
102
{ACAD_REACTORS
330
42
102
}
330
42
100
DictionaryVariables
280
     0
  1
1:1
  0
DICTIONARYVAR
  5
3713
102
{ACAD_REACTORS
330
42
102
}
330
42
100
DictionaryVariables
280
     0
  1
部品図用_1：1
  0
DICTIONARYVAR
  5
43
102
{ACAD_REACTORS
330
42
102
}
330
42
100
DictionaryVariables
280
     0
  1
STANDARD
  0
DICTIONARYVAR
  5
DBE1
102
{ACAD_REACTORS
330
42
102
}
330
42
100
DictionaryVariables
280
     0
  1
Metric50
  0
DICTIONARYVAR
  5
DBE2
102
{ACAD_REACTORS
330
42
102
}
330
42
100
DictionaryVariables
280
     0
  1
Metric50
  0
DICTIONARYVAR
  5
3719
102
{ACAD_REACTORS
330
42
102
}
330
42
100
DictionaryVariables
280
     0
  1
2
  0
DICTIONARYVAR
  5
3717
102
{ACAD_REACTORS
330
42
102
}
330
42
100
DictionaryVariables
280
     0
  1
1
  0
DICTIONARYVAR
  5
3716
102
{ACAD_REACTORS
330
42
102
}
330
42
100
DictionaryVariables
280
     0
  1
0
  0
DICTIONARYVAR
  5
93DF
102
{ACAD_REACTORS
330
42
102
}
330
42
100
DictionaryVariables
280
     0
  1
1
  0
DICTIONARYVAR
  5
93E0
102
{ACAD_REACTORS
330
42
102
}
330
42
100
DictionaryVariables
280
     0
  1
15
  0
DICTIONARYVAR
  5
93DE
102
{ACAD_REACTORS
330
42
102
}
330
42
100
DictionaryVariables
280
     0
  1
0
  0
DICTIONARYVAR
  5
B1DD
102
{ACAD_REACTORS
330
42
102
}
330
42
100
DictionaryVariables
280
     0
  1
1.000000
  0
DICTIONARYVAR
  5
93DD
102
{ACAD_REACTORS
330
42
102
}
330
42
100
DictionaryVariables
280
     0
  1
0
  0
DICTIONARYVAR
  5
3715
102
{ACAD_REACTORS
330
42
102
}
330
42
100
DictionaryVariables
280
     0
  1
127
  0
DICTIONARY
  5
F16A
330
DB92
100
AcDbDictionary
280
     1
281
     1
  3
ACAD_XREC_ROUNDTRIP
360
F16B
  0
DICTIONARY
  5
92F1
330
3A
100
AcDbDictionary
280
     1
281
     1
  3
ADSK_XREC_LAYOUTTHUMBNAIL
360
F0D8
  0
DICTIONARY
  5
55B
330
36
100
AcDbDictionary
280
     1
281
     1
  0
DICTIONARY
  5
F168
330
DB90
100
AcDbDictionary
280
     1
281
     1
  3
ACAD_XREC_ROUNDTRIP
360
F169
  0
DICTIONARY
  5
3660
330
32
100
AcDbDictionary
280
     1
281
     1
  3
ACAD_ROUNDTRIP_2008_TABLESTYLE_CELLSTYLEMAP
360
F132
  0
DICTIONARY
  5
F13E
330
1A
100
AcDbDictionary
280
     1
281
     1
  3
ACAD_XREC_ROUNDTRIP
360
F13F
  0
DICTIONARY
  5
F142
330
1C
100
AcDbDictionary
280
     1
281
     1
  3
ACAD_XREC_ROUNDTRIP
360
F143
  0
DICTIONARY
  5
F140
330
1B
100
AcDbDictionary
280
     1
281
     1
  3
ACAD_XREC_ROUNDTRIP
360
F141
  0
DICTIONARY
  5
F13C
330
19
100
AcDbDictionary
280
     1
281
     1
  3
ACAD_XREC_ROUNDTRIP
360
F13D
  0
DICTIONARY
  5
F14A
330
20
100
AcDbDictionary
280
     1
281
     1
  3
ACAD_XREC_ROUNDTRIP
360
F14B
  0
DICTIONARY
  5
F152
330
24
100
AcDbDictionary
280
     1
281
     1
  3
ACAD_XREC_ROUNDTRIP
360
F153
  0
DICTIONARY
  5
F144
330
1D
100
AcDbDictionary
280
     1
281
     1
  3
ACAD_XREC_ROUNDTRIP
360
F145
  0
DICTIONARY
  5
F148
330
1F
100
AcDbDictionary
280
     1
281
     1
  3
ACAD_XREC_ROUNDTRIP
360
F149
  0
DICTIONARY
  5
F158
330
C2D
100
AcDbDictionary
280
     1
281
     1
  3
ACAD_XREC_ROUNDTRIP
360
F159
  0
DICTIONARY
  5
F150
330
23
100
AcDbDictionary
280
     1
281
     1
  3
ACAD_XREC_ROUNDTRIP
360
F151
  0
DICTIONARY
  5
F134
330
15
100
AcDbDictionary
280
     1
281
     1
  3
ACAD_XREC_ROUNDTRIP
360
F135
  0
DICTIONARY
  5
F136
330
16
100
AcDbDictionary
280
     1
281
     1
  3
ACAD_XREC_ROUNDTRIP
360
F137
  0
DICTIONARY
  5
F138
330
17
100
AcDbDictionary
280
     1
281
     1
  3
ACAD_XREC_ROUNDTRIP
360
F139
  0
DICTIONARY
  5
F13A
330
18
100
AcDbDictionary
280
     1
281
     1
  3
ACAD_XREC_ROUNDTRIP
360
F13B
  0
DICTIONARY
  5
F15C
330
DB89
100
AcDbDictionary
280
     1
281
     1
  3
ACAD_XREC_ROUNDTRIP
360
F15D
  0
DICTIONARY
  5
F154
330
C2B
100
AcDbDictionary
280
     1
281
     1
  3
ACAD_XREC_ROUNDTRIP
360
F155
  0
DICTIONARY
  5
F14E
330
22
100
AcDbDictionary
280
     1
281
     1
  3
ACAD_XREC_ROUNDTRIP
360
F14F
  0
DICTIONARY
  5
F156
330
C2C
100
AcDbDictionary
280
     1
281
     1
  3
ACAD_XREC_ROUNDTRIP
360
F157
  0
DICTIONARY
  5
F146
330
1E
100
AcDbDictionary
280
     1
281
     1
  3
ACAD_XREC_ROUNDTRIP
360
F147
  0
DICTIONARY
  5
F166
330
DB8E
100
AcDbDictionary
280
     1
281
     1
  3
ACAD_XREC_ROUNDTRIP
360
F167
  0
DICTIONARY
  5
F164
330
DB8D
100
AcDbDictionary
280
     1
281
     1
  3
ACAD_XREC_ROUNDTRIP
360
F165
  0
DICTIONARY
  5
F15E
330
DB8A
100
AcDbDictionary
280
     1
281
     1
  3
ACAD_XREC_ROUNDTRIP
360
F15F
  0
DICTIONARY
  5
F160
330
DB8B
100
AcDbDictionary
280
     1
281
     1
  3
ACAD_XREC_ROUNDTRIP
360
F161
  0
DICTIONARY
  5
F14C
330
21
100
AcDbDictionary
280
     1
281
     1
  3
ACAD_XREC_ROUNDTRIP
360
F14D
  0
DICTIONARY
  5
F15A
330
DB88
100
AcDbDictionary
280
     1
281
     1
  3
ACAD_XREC_ROUNDTRIP
360
F15B
  0
DICTIONARY
  5
F162
330
DB8C
100
AcDbDictionary
280
     1
281
     1
  3
ACAD_XREC_ROUNDTRIP
360
F163
  0
XRECORD
  5
F16B
102
{ACAD_REACTORS
330
F16A
102
}
330
F16A
100
AcDbXrecord
280
     1
102
DISPLAYNAME
  1
Metric50
102
FLAGS
 90
        0
  0
XRECORD
  5
F0D8
102
{ACAD_REACTORS
330
92F1
102
}
330
92F1
100
AcDbXrecord
280
     1
310
28000000000100007B0000000100080000000000007B0000010000000100000000010000000000003028210000000052C8C8C8FF000000FF000000FF000000FF000000FF000000FF000000FF000000FF000000FF330000FF660000FF990000FFCC0000FFFF0000FF003300FF333300FF663300FF993300FFCC3300FFFF3300
310
FF006600FF336600FF666600FF996600FFCC6600FFFF6600FF009900FF339900FF669900FF999900FFCC9900FFFF9900FF00CC00FF33CC00FF66CC00FF99CC00FFCCCC00FFFFCC00FF00FF00FF33FF00FF66FF00FF99FF00FFCCFF00FFFFFF00FF000033FF330033FF660033FF990033FFCC0033FFFF0033FF003333FF3333
310
33FF663333FF993333FFCC3333FFFF3333FF006633FF336633FF666633FF996633FFCC6633FFFF6633FF009933FF339933FF669933FF999933FFCC9933FFFF9933FF00CC33FF33CC33FF66CC33FF99CC33FFCCCC33FFFFCC33FF00FF33FF33FF33FF66FF33FF99FF33FFCCFF33FFFFFF33FF000066FF330066FF660066FF99
310
0066FFCC0066FFFF0066FF003366FF333366FF663366FF993366FFCC3366FFFF3366FF006666FF336666FF666666FF996666FFCC6666FFFF6666FF009966FF339966FF669966FF999966FFCC9966FFFF9966FF00CC66FF33CC66FF66CC66FF99CC66FFCCCC66FFFFCC66FF00FF66FF33FF66FF66FF66FF99FF66FFCCFF66FF
310
FFFF66FF000099FF330099FF660099FF990099FFCC0099FFFF0099FF003399FF333399FF663399FF993399FFCC3399FFFF3399FF006699FF336699FF666699FF996699FFCC6699FFFF6699FF009999FF339999FF669999FF999999FFCC9999FFFF9999FF00CC99FF33CC99FF66CC99FF99CC99FFCCCC99FFFFCC99FF00FF99
310
FF33FF99FF66FF99FF99FF99FFCCFF99FFFFFF99FF0000CCFF3300CCFF6600CCFF9900CCFFCC00CCFFFF00CCFF0033CCFF3333CCFF6633CCFF9933CCFFCC33CCFFFF33CCFF0066CCFF3366CCFF6666CCFF9966CCFFCC66CCFFFF66CCFF0099CCFF3399CCFF6699CCFF9999CCFFCC99CCFFFF99CCFF00CCCCFF33CCCCFF66CC
310
CCFF99CCCCFFCCCCCCFFFFCCCCFF00FFCCFF33FFCCFF66FFCCFF99FFCCFFCCFFCCFFFFFFCCFF0000FFFF3300FFFF6600FFFF9900FFFFCC00FFFFFF00FFFF0033FFFF3333FFFF6633FFFF9933FFFFCC33FFFFFF33FFFF0066FFFF3366FFFF6666FFFF9966FFFFCC66FFFFFF66FFFF0099FFFF3399FFFF6699FFFF9999FFFFCC
310
99FFFFFF99FFFF00CCFFFF33CCFFFF66CCFFFF99CCFFFFCCCCFFFFFFCCFFFF00FFFFFF33FFFFFF66FFFFFF99FFFFFFCCFFFFFFFFFFFFFF000000FF0D0D0DFF1A1A1AFF282828FF353535FF434343FF505050FF5D5D5DFF6B6B6BFF787878FF868686FF939393FFA1A1A1FFAEAEAEFFBBBBBBFFC9C9C9FFD6D6D6FFE4E4E4FF
310
F1F1F1FFFFFFFFFF000000FF000000FF000000FF000000FF000000FF000000FF000000FF000000FF000000FF000000FF00000000000000000000000000000000000000000000000000000000000000000000000000000000000000000000000000000000000000000000000000000000000000000000000000000000000000
310
00000000000000000000000000000000000000000000000000000000000000000000000000000000000000000000000000000000000000000000000000000000000000000000000000000000000000000000000000000000000000000000000000000000000000000000000000000000000000000000000000000000000000
310
00000000000000000000000000000000000000000000000000000000000000000000000000000000000000000000000000000000000000000000000000000000000000000000000000000000000000000000000000000000000000000000000000000000000000000000000000000000000000000000000000000000000000
310
00000000000000000000000000000000000000000000000000000000000000000000000000000000000000000000000000000000000000000000000000000000000000000000000000000000000000000000000000000000000000000000000000000000000000000000000000000000000000000000000000000000000000
310
00000000000000000000000000000000000000000000000000000000000000000000000000000000000000000000000000000000000000000000000000000000000000000000000000000000000000000000000000000000000000000000000000000000000000000000000000000000000000000000000000000000000000
310
00000000000000000000000000000000000000000000000000000000000000000000000000000000000000000000000000000000000000000000000000000000000000000000000000000000000000000000000000000000000000000000000000000000000000000000000000000000000000000000000000000000000000
310
00000000000000000000000000000000000000000000000000000000000000000000000000000000000000000000000000000000000000000000000000000000000000000000000000000000000000000000000000000000000000000000000000000000000000000000000000000000000000000000000000000000000000
310
00000000000000000000000000000000000000000000000000000000000000000000000000000000000000000000000000000000000000000000000000000000000000000000000000000000000000000000000000000000000000000000000000000000000000000000000000000000000000000000000000000000000000
310
00000000000000000000000000000000000000000000000000000000000000000000000000000000000000000000000000000000000000000000000000000000000000000000000000000000000000000000000000000000000000000000000000000000000000000000000000000000000000000000000000000000000000
310
00000000000000000000000000000000000000000000000000000000000000000000000000000000000000000000000000000000000000000000000000000000000000000000000000000000000000000000000000000000000000000000000000000000000000000000000000000000000000000000000000000000000000
310
00000000000000000000000000000000000000000000000000000000000000000000000000000000000000000000000000000000000000000000000000000000000000000000000000000000000000000000000000000000000000000000000000000000000000000000000000000000000000000000000000000000000000
310
00000000000000000000000000000000000000000000000000000000000000000000000000000000000000000000000000000000000000000000000000000000000000000000000000000000000000000000000000000000000000000000000000000000000000000000000000000000000000000000000000000000000000
310
00000000000000000000000000000000000000000000000000000000000000000000000000000000000000000000000000000000000000000000000000000000000000000000000000000000000000000000000000000000000000000000000000000000000000000000000000000000000000000000000000000000000000
310
00000000000000000000000000000000000000000000000000000000000000000000000000000000000000000000000000000000000000000000000000000000000000000000000000000000000000000000000000000000000000000000000000000000000000000000000000000000000000000000000000000000000000
310
00000000000000000000000000000000000000000000000000000000000000000000000000000000000000000000000000000000000000000000000000000000000000000000000000000000000000000000000000000000000000000000000000000000000000000000000000000000000000000000000000000000000000
310
00000000000000000000000000000000000000000000000000000000000000000000000000000000000000000000000000000000000000000000000000000000000000000000000000000000000000000000000000000000000000000000000000000000000000000000000000000000000000000000000000000000000000
310
00000000000000000000000000000000000000000000000000000000000000000000000000000000000000000000000000000000000000000000000000000000000000000000000000000000000000000000000000000000000000000000000000000000000000000000000000000000000000000000000000000000000000
310
00000000000000000000000000000000000000000000000000000000000000000000000000000000000000000000000000000000000000000000000000000000000000000000000000000000000000000000000000000000000000000000000000000000000000000000000000000000000000000000000000000000000000
310
00000000000000000000000000000000000000000000000000000000000000000000000000000000000000000000000000000000000000000000000000000000000000000000000000000000000000000000000000000000000000000000000000000000000000000000000000000000000000000000000000000000000000
310
00000000000000000000000000000000000000000000000000000000000000000000000000000000000000000000000000000000000000000000000000000000000000000000000000000000000000000000000000000000000000000000000000000000000000000000000000000000000000000000000000000000000000
310
00000000000000000000000000000000000000000000000000000000000000000000000000000000000000000000000000000000000000000000000000000000000000000000000000000000000000000000000000000000000000000000000000000000000000000000000000000000000000000000000000000000000000
310
00000000000000000000000000000000000000000000000000000000000000000000000000000000000000000000000000000000000000000000000000000000000000000000000000000000000000000000000000000000000000000000000000000000000000000000000000000000000000000000000000000000000000
310
00000000000000000000000000000000000000000000000000000000000000000000000000000000000000000000000000000000000000000000000000000000000000000000000000000000000000000000000000000000000000000000000000000000000000000000000000000000000000000000000000000000000000
310
00000000000000000000000000000000000000000000000000000000000000000000000000000000000000000000000000000000000000000000000000000000000000000000000000000000000000000000000000000000000000000000000000000000000000000000000000000000000000000000000000000000000000
310
00000000000000000000000000000000000000000000000000000000000000000000000000000000000000000000000000000000000000000000000000000000000000000000000000000000000000000000000000000000000000000000000000000000000000000000000000000000000000000000000000000000000000
310
00000000000000000000000000000000000000000000000000000000000000000000000000000000000000000000000000000000000000000000000000000000000000000000000000000000000000000000000000000000000000000000000000000000000000000000000000000000000000000000000000000000000000
310
00000000000000000000000000000000000000000000000000000000000000000000000000000000000000000000000000000000000000000000000000000000000000000000000000000000000000000000000000000000000000000000000000000000000000000000000000000000000000000000000000000000000000
310
00000000000000000000000000000000000000000000000000000000000000000000000000000000000000000000000000000000000000000000000000000000000000000000000000000000000000000000000000000000000000000000000000000000000000000000000000000000000000000000000000000000000000
310
00000000000000000000000000000000000000000000000000000000000000000000000000000000000000000000000000000000000000000000000000000000000000000000000000000000000000000000000000000000000000000000000000000000000000000000000000000000000000000000000000000000000000
310
00000000000000000000000000000000000000000000000000000000000000000000000000000000000000000000000000000000000000000000000000000000000000000000000000000000000000000000000000000000000000000000000000000000000000000000000000000000000000000000000000000000000000
310
00000000000000000000000000000000000000000000000000000000000000000000000000000000000000000000000000000000000000000000000000000000000000000000000000000000000000000000000000000000000000000000000000000000000000000000000000000000000000000000000000000000000000
310
00000000000000000000000000000000000000000000000000000000000000000000000000000000000000000000000000000000000000000000000000000000000000000000000000000000000000000000000000000000000000000000000000000000000000000000000000000000000000000000000000000000000000
310
00000000000000000000000000000000000000000000000000000000000000000000000000000000000000000000000000000000000000000000000000000000000000000000000000000000000000000000000000000000000000000000000000000000000000000000000000000000000000000000000000000000000000
310
00000000000000000000000000000000000000000000000000000000000000000000000000000000000000000000000000000000000000000000000000000000000000000000000000000000000000000000000000000000000000000000000000000000000000000000000000000000000000000000000000000000000000
310
00000000000000000000000000000000000000000000000000000000000000000000000000000000000000000000000000000000000000000000000000000000000000000000000000000000000000000000000000000000000000000000000000000000000000000000000000000000000000000000000000000000000000
310
00000000000000000000000000000000000000000000000000000000000000000000000000000000000000000000000000000000000000000000000000000000000000000000000000000000000000000000000000000000000000000000000000000000000000000000000000000000000000000000000000000000000000
310
00000000000000000000000000000000000000000000000000000000000000000000000000000000000000000000000000000000000000000000000000000000000000000000000000000000000000000000000000000000000000000000000000000000000000000000000000000000000000000000000000000000000000
310
00000000000000000000000000000000000000000000000000000000000000000000000000000000000000000000000000000000000000000000000000000000000000000000000000000000000000000000000000000000000000000000000000000000000000000000000000000000000000000000000000000000000000
310
00000000000000000000000000000000000000000000000000000000000000000000000000000000000000000000000000000000000000000000000000000000000000000000000000000000000000000000000000000000000000000000000000000000000000000000000000000000000000000000000000000000000000
310
00000000000000000000000000000000000000000000000000000000000000000000000000000000000000000000000000000000000000000000000000000000000000000000000000000000000000000000000000000000000000000000000000000000000000000000000000000000000000000000000000000000000000
310
00000000000000000000000000000000000000000000000000000000000000000000000000000000000000000000000000000000000000000000000000000000000000000000000000000000000000000000000000000000000000000000000000000000000000000000000000000000000000000000000000000000000000
310
00000000000000000000000000000000000000000000000000000000000000000000000000000000000000000000000000000000000000000000000000000000000000000000000000000000000000000000000000000000000000000000000000000000000000000000000000000000000000000000000000000000000000
310
00000000000000000000000000000000000000000000000000000000000000000000000000000000000000000000000000000000000000000000000000000000000000000000000000000000000000000000000000000000000000000000000000000000000000000000000000000000000000000000000000000000000000
310
00000000000000000000000000000000000000000000000000000000000000000000000000000000000000000000000000000000000000000000000000000000000000000000000000000000000000000000000000000000000000000000000000000000000000000000000000000000000000000000000000000000000000
310
00000000000000000000000000000000000000000000000000000000000000000000000000000000000000000000000000000000000000000000000000000000000000000000000000000000000000000000000000000000000000000000000000000000000000000000000000000000000000000000000000000000000000
310
00000000000000000000000000000000000000000000000000000000000000000000000000000000000000000000000000000000000000000000000000000000000000000000000000000000000000000000000000000000000000000000000000000000000000000000000000000000000000000000000000000000000000
310
00000000000000000000000000000000000000000000000000000000000000000000000000000000000000000000000000000000000000000000000000000000000000000000000000000000000000000000000000000000000000000000000000000000000000000000000000000000000000000000000000000000000000
310
00000000000000000000000000000000000000000000000000000000000000000000000000000000000000000000000000000000000000000000000000000000000000000000000000000000000000000000000000000000000000000000000000000000000000000000000000000000000000000000000000000000000000
310
00000000000000000000000000000000000000000000000000000000000000000000000000000000000000000000000000000000000000000000000000000000000000000000000000000000000000000000000000000000000000000000000000000000000000000000000000000000000000000000000000000000000000
310
00000000000000000000000000000000000000000000000000000000000000000000000000000000000000000000000000000000000000000000000000000000000000000000000000000000000000000000000000000000000000000000000000000000000000000000000000000000000000000000000000000000000000
310
00000000000000000000000000000000000000000000000000000000000000000000000000000000000000000000000000000000000000000000000000000000000000000000000000000000000000000000000000000000000000000000000000000000000000000000000000000000000000000000000000000000000000
310
00000000000000000000000000000000000000000000000000000000000000000000000000000000000000000000000000000000000000000000000000000000000000000000000000000000000000000000000000000000000000000000000000000000000000000000000000000000000000000000000000000000000000
310
00000000000000000000000000000000000000000000000000000000000000000000000000000000000000000000000000000000000000000000000000000000000000000000000000000000000000000000000000000000000000000000000000000000000000000000000000000000000000000000000000000000000000
310
00000000000000000000000000000000000000000000000000000000000000000000000000000000000000000000000000000000000000000000000000000000000000000000000000000000000000000000000000000000000000000000000000000000000000000000000000000000000000000000000000000000000000
310
00000000000000000000000000000000000000000000000000000000000000000000000000000000000000000000000000000000000000000000000000000000000000000000000000000000000000000000000000000000000000000000000000000000000000000000000000000000000000000000000000000000000000
310
00000000000000000000000000000000000000000000000000000000000000000000000000000000000000000000000000000000000000000000000000000000000000000000000000000000000000000000000000000000000000000000000000000000000000000000000000000000000000000000000000000000000000
310
00000000000000000000000000000000000000000000000000000000000000000000000000000000000000000000000000000000000000000000000000000000000000000000000000000000000000000000000000000000000000000000000000000000000000000000000000000000000000000000000000000000000000
310
00000000000000000000000000000000000000000000000000000000000000000000000000000000000000000000000000000000000000000000000000000000000000000000000000000000000000000000000000000000000000000000000000000000000000000000000000000000000000000000000000000000000000
310
00000000000000000000000000000000000000000000000000000000000000000000000000000000000000000000000000000000000000000000000000000000000000000000000000000000000000000000000000000000000000000000000000000000000000000000000000000000000000000000000000000000000000
310
00000000000000000000000000000000000000000000000000000000000000000000000000000000000000000000000000000000000000000000000000000000000000000000000000000000000000000000000000000000000000000000000000000000000000000000000000000000000000000000000000000000000000
310
00000000000000000000000000000000000000000000000000000000000000000000000000000000000000000000000000000000000000000000000000000000000000000000000000000000000000000000000000000000000000000000000000000000000000000000000000000000000000000000000000000000000000
310
00000000000000000000000000000000000000000000000000000000000000000000000000000000000000000000000000000000000000000000000000000000000000000000000000000000000000000000000000000000000000000000000000000000000000000000000000000000000000000000000000000000000000
310
00000000000000000000000000000000000000000000000000000000000000000000000000000000000000000000000000000000000000000000000000000000000000000000000000000000000000000000000000000000000000000000000000000000000000000000000000000000000000000000000000000000000000
310
00000000000000000000000000000000000000000000000000000000000000000000000000000000000000000000000000000000000000000000000000000000000000000000000000000000000000000000000000000000000000000000000000000000000000000000000000000000000000000000000000000000000000
310
00000000000000000000000000000000000000000000000000000000000000000000000000000000000000000000000000000000000000000000000000000000000000000000000000000000000000000000000000000000000000000000000000000000000000000000000000000000000000000000000000000000000000
310
00000000000000000000000000000000000000000000000000000000000000000000000000000000000000000000000000000000000000000000000000000000000000000000000000000000000000000000000000000000000000000000000000000000000000000000000000000000000000000000000000000000000000
310
00000000000000000000000000000000000000000000000000000000000000000000000000000000000000000000000000000000000000000000000000000000000000000000000000000000000000000000000000000000000000000000000000000000000000000000000000000000000000000000000000000000000000
310
00000000000000000000000000000000000000000000000000000000000000000000000000000000000000000000000000000000000000000000000000000000000000000000000000000000000000000000000000000000000000000000000000000000000000000000000000000000000000000000000000000000000000
310
00000000000000000000000000000000000000000000000000000000000000000000000000000000000000000000000000000000000000000000000000000000000000000000000000000000000000000000000000000000000000000000000000000000000000000000000000000000000000000000000000000000000000
310
00000000000000000000000000000000000000000000000000000000000000000000000000000000000000000000000000000000000000000000000000000000000000000000000000000000000000000000000000000000000000000000000000000000000000000000000000000000000000000000000000000000000000
310
00000000000000000000000000000000000000000000000000000000000000000000000000000000000000000000000000000000000000000000000000000000000000000000000000000000000000000000000000000000000000000000000000000000000000000000000000000000000000000000000000000000000000
310
00000000000000000000000000000000000000000000000000000000000000000000000000000000000000000000000000000000000000000000000000000000000000000000000000000000000000000000000000000000000000000000000000000000000000000000000000000000000000000000000000000000000000
310
00000000000000000000000000000000000000000000000000000000000000000000000000000000000000000000000000000000000000000000000000000000000000000000000000000000000000000000000000000000000000000000000000000000000000000000000000000000000000000000000000000000000000
310
00000000000000000000000000000000000000000000000000000000000000000000000000000000000000000000000000000000000000000000000000000000000000000000000000000000000000000000000000000000000000000000000000000000000000000000000000000000000000000000000000000000000000
310
00000000000000000000000000000000000000000000000000000000000000000000000000000000000000000000000000000000000000000000000000000000000000000000000000000000000000000000000000000000000000000000000000000000000000000000000000000000000000000000000000000000000000
310
00000000000000000000000000000000000000000000000000000000000000000000000000000000000000000000000000000000000000000000000000000000000000000000000000000000000000000000000000000000000000000000000000000000000000000000000000000000000000000000000000000000000000
310
00000000000000000000000000000000000000000000000000000000000000000000000000000000000000000000000000000000000000000000000000000000000000000000000000000000000000000000000000000000000000000000000000000000000000000000000000000000000000000000000000000000000000
310
00000000000000000000000000000000000000000000000000000000000000000000000000000000000000000000000000000000000000000000000000000000000000000000000000000000000000000000000000000000000000000000000000000000000000000000000000000000000000000000000000000000000000
310
00000000000000000000000000000000000000000000000000000000000000000000000000000000000000000000000000000000000000000000000000000000000000000000000000000000000000000000000000000000000000000000000000000000000000000000000000000000000000000000000000000000000000
310
00000000000000000000000000000000000000000000000000000000000000000000000000000000000000000000000000000000000000000000000000000000000000000000000000000000000000000000000000000000000000000000000000000000000000000000000000000000000000000000000000000000000000
310
00000000000000000000000000000000000000000000000000000000000000000000000000000000000000000000000000000000000000000000000000000000000000000000000000000000000000000000000000000000000000000000000000000000000000000000000000000000000000000000000000000000000000
310
00000000000000000000000000000000000000000000000000000000000000000000000000000000000000000000000000000000000000000000000000000000000000000000000000002A2A000000000000000000000000000000000000000000000000000000000000000000000000000000000000000000000000000000
310
00000000000000000000000000000000000000000000000000000000000000000000000000000000000000000000000000000000000000000000000000000000000000000000000000000000000000000000000000000000000000000000000000000000000000000000000000000000000000000000000000000000000000
310
0000000000000000000000000000000000000000000000000000000000000000000000000000000000002A2A00000000000000000000000000000000000000000000000000000000000000002A2A00000000000000000000000000000000000000000000000000000000000000002A2A2A0000000000000000000000000000
310
00000000000000000000000000000000000000000000000000000000000000000000000000000000000000000000000000000000000000000000000000000000000000000000000000000000000000000000000000000000000000000000000000000000000000000000000000000000000000000000000000000000000000
310
00000000000000000000000000000000000000000000000000000000000000000000000000000000000000002A2A00000000000000000000000000000000000000000000000000000000000000002A2A002A2A2A2A2A00000000000000000000000000000000000000000000000000002A2A2A2A2A2A000000000000000000
310
00000000000000000000000000000000000000000000000000000000000000000000000000000000000000000000000000000000000000000000000000000000000000000000000000000000000000000000000000000000000000000000000000000000000000000000000000000000000000000000000000000000000000
310
000000000000000000000000000000000000000000000000000000000000000000000000000000000000000000002A2A002A2A2A2A2A00000000000000000000000000000000000000000000000000002A2A002A2A2A2A2A2A2A2A2A2A2A2A000000000000000000000000000000000000002A2A2A2A2A2A00000000000000
310
00000000000000000000000000000000000000000000000000000000000000000000000000000000000000000000000000000000000000000000000000000000000000000000000000000000000000000000000000000000000000000000000000000000000000000000000000000000000000000000000000000000000000
310
0000000000000000000000000000000000000000000000000000000000000000000000000000000000000000000000002A2A002A2A2A2A2A2A2A2A2A2A2A2A000000000000000000000000000000000000000000002A2A2A2A2A2A2A2A2A2A2A2A000000000000000000000000000000000000000000002A2A2A2A002A2A2A
310
2A002A00000000000000000000000000000000000000000000000000000000000000000000000000000000000000000000000000000000000000000000000000000000000000000000000000000000000000000000000000000000000000000000000000000000000000000000000000000000000000000000000000000000
310
00000000000000000000000000000000000000000000000000000000000000000000000000000000000000000000000000000000002A2A2A2A2A2A2A2A2A2A2A2A000000000000000000000000000000000000002A2A2A2A2A2A2A2A2A2A2A2A2A2A00000000000000000000000000000000000000002A2A2A2A2A2A2A2A2A
310
2A2A2A2A2A0000000000000000000000000000000000000000000000000000000000000000000000000000000000000000000000000000000000000000000000000000000000000000000000000000000000000000000000000000000000000000000000000000000000000000000000000000000000000000000000000000
310
000000000000000000000000000000000000000000000000000000000000000000000000000000000000000000000000000000002A2A2A2A2A2A2A2A2A2A2A2A2A2A00000000000000000000000000000000000000002A2A2A2A2A2A2A2A2A2A2A2A2A2A00000000000000000000000000000000000000002A2A2A2A2A2A2A
310
2A2A2A2A2A2A2A000000000000000000000000000000000000000000000000000000000000000000000000000000000000000000000000000000000000000000000000000000000000000000000000000000000000000000000000000000000000000000000000000000000000000000000000000000000000000000000000
310
0000000000000000000000000000000000000000000000000000000000000000000000000000000000000000000000000000000000002A2A2A2A2A2A2A2A2A2A2A2A2A2A0000000000000000000000000000000000000000000000000000000000000000000000000000000000000000000000000000000000000000000000
310
00000000000000000000000000000000000000000000000000000000000000000000000000000000000000000000000000000000000000000000000000000000000000000000000000000000000000000000000000000000000000000000000000000000000000000000000000000000000000000000000000000000000000
310
00000000000000000000000000000000000000000000000000000000000000000000000000000000000000000000000000000000000000000000000000000000000000000000000000000000000000000000000000000000000000000000000000000000000000000000000000002A00000000000000000000000000000000
310
00002A0000000000000000000000000000000000002A000000000000000000000000000000000000000000000000000000000000000000000000000000000000000000000000000000000000000000000000000000000000000000000000000000000000000000000000000000000000000000000000000000000000000000
310
00000000000000000000000000000000000000000000000000000000000000000000000000000000000000000000000000000000000000000000000000002A00000000000000000000000000002A0000000000000000000000000000000000002A0000000000000000000000000000002A0000000000000000000000000028
310
282800002A0000282828000000000000000000000000282828000000000000000000000000000000000000000000000000000000000000000000000000000000000000000000000000000000000000000000000000000000000000000000000000000000000000000000000000000000000000000000000000000000000000
310
000000000000000000000000000000000000000000000000000000000000000000000000000000000000000000000000000000000000000000000000000028002A28000000000000000000000000002A0000000000000000000000000000282828282828282828280000000000000000002828280000000000000000000000
310
00282828282828282828282800000000000000000000282828282828280000000000000000000000000000000000000000000000000000000000000000000000000000000000000000000000000000000000000000000000000000000000000000000000000000000000000000000000000000000000000000000000000000
310
000000000000000000000000000000000000000000000000000000000000000000000000000000000000000000000000000000000000000000000000000028282828280028282800000000000000000000280000000000000000000000000000282800002A0000282828000000000000000028282828280000000000000000
310
00000028002800002A00002800280000000000000000000028280028282828000000000000000000000000000000000000000000000000000000000000000000000000000000000000000000000000000000000000000000000000000000000000000000000000000000000000000000000000000000000000000000000000
310
00000000000000000000000000000000000000000000000000000000000000000000000000000000000000000000000000000000000000000000000000000000282828282828282828000000000000000000282A2828000000000000000000000000282800002A0000280028000000000000000028282A0028280000000000
310
000000000028002800002A0000280028000000000000000000280028282A00282828000000000000000000000000000000000000000000000000000000000000000000000000000000000000000000000000000000000000000000000000000000000000000000000000000000000000000000000000000000000000000000
310
000000000000000000000000000000000000000000000000000000000000000000000000000000000000000000000000000000000000000000000000000000000000282800002A002800280000000000000000282828282828000000000000000000002A282828282828282828280000000000002A282A2A2A2A2A28000000
310
0000000000002A282828282828282828282800000000000000002A2828282A2A2A2828282A000000000000000000000000000000000000000000000000000000000000000000000000000000000000000000000000000000000000000000000000000000000000000000000000000000000000000000000000000000000000
310
000000000000000000000000000000000000000000000000000000000000000000000000000000000000000000000000000000000000000000000000000000000000002A2828282828282828282A0000000000002A28282A2828282A0000000000000000000028282828282828280028000000000000002828282A00282800
310
0000000000000000002800282828282828280028000000000000000000280028282A002828280000000000000000000000000000000000000000000000000000000000000000000000000000000000000000000000000000000000000000000000000000000000000000000000000000000000000000000000000000000000
310
00000000000000000000000000000000000000000000000000000000000000000000000000000000000000000000000000000000000000000000000000000000000000000000282828002A2828002800000000000000002828280000280000000000000000000000282828002A002828002800000000000000282800282828
310
280000000000000000000028002828002A0028280028000000000000000000282828002828282800000000000000000000000000000000000000000000000000000000000000000000000000000000000000000000000000000000000000000000000000000000000000000000000000000000000000000000000000000000
310
000000000000000000000000000000000000000000000000000000000000000000000000000000000000000000000000000000000000000000000000000000000000000000000000282828002A2828282800000000000000002828282828280000000000000000000000282828002A00282828280000000000000028282828
310
2828280000000000000000000028282828002A002828282800000000000000000028282828282828280000000000000000000000000000000000000000000000000000000000000000000000000000000000000000000000000000000000000000000000000000000000000000000000000000000000000000000000000000
310
0000000000000000000000000000000000000000000000000000000000000000000000000000000000000000000000000000000000000000000000000000000000000000000000000000282828282A2828280000000000000000002828282828280000000000000000000000282828002A0028282800000000000000002828
310
00280028280000000000000000000028282828002A00282828280000000000000000002800002828280000280000000000000000000000000000000000000000000000000000000000000000000000000000000000000000000000000000000000000000000000000000000000000000000000000000000000000000000000
310
00000000000000000000000000000000000000000000000000000000000000000000000000000000000000000000000000000000000000000000000000000000000000000000000000000000282828002A28282800000000000000002828282828282828000000000000000000002828282828282828280000000000000028
310
282828282828282800000000000000000000282828002A0028282800000000000000000000280028002800280028000000000000000000000000000000000000000000000000000000000000000000000000000000000000000000000000000000000000000000000000000000000000000000000000000000000000000000
310
00000000000000000000000000000000000000000000000000000000000000000000000000000000000000000000000000000000000000000000000000000000000000000000000000000000000000282828282828280000000000000000002828282828280000000000000000000000002800002A00002828000000000000
310
00002800002A00002828000000000000000000282828282828282828282800000000000000000028282828282828282800000000000000000000000000000000000000000000000000000000000000000000000000000000000000000000000000000000000000000000000000000000000000000000000000000000000000
310
000000000000000000000000000000000000000000000000000000000000000000000000000000000000000000000000000000000000000000000000000000000000000000000000000000000000000000282828282828280000000000000000002828282828280000000000000000000000002828282A2828282800000000
310
00000000282828282828282800000000000000000000280000002A0000282800000000000000000000280028002A002800280000000000000000000000000000000000000000000000000000000000000000000000000000000000000000000000000000000000000000000000000000000000000000000000000000000000
310
0000000000000000000000000000000000000000000000000000000000000000000000000000000000000000000000000000000000000000000000000000000000000000000000000000000000000000000000002828282828000000000000000000002828282828000000000000000000000000000028282A282828000000
310
00000000000000282828282800000000000000000000000028282828282828282800000000000000000000282828282828282828000000000000000000000000000000000000000000000000000000000000000000000000000000000000000000000000000000000000000000000000000000000000000000000000000000
310
00000000000000000000000000000000000000000000000000000000000000000000000000000000000000000000000000000000000000000000000000000000000000000000000000000000000000000000000000002828282828000000000000000000000028282828000000000000000000000000002828282A28282800
310
0000000000000000282828282828280000000000000000000000002800282A282800000000000000000000000000002800280028000000000000000000000000000000000000000000000000000000000000000000000000000000000000000000000000000000000000000000000000000000000000000000000000000000
310
00000000000000000000000000000000000000000000000000000000000000000000000000000000000000000000000000000000000000000000000000000000000000000000000000000000000000000000000000000000282828282800000000000000000000002828282800000000000000000000000000002828282828
310
00000000000000000000002828282828000000000000000000000000002828282828280000000000000000000000000000282828282800000000000000000000000000000000000000000000000000000000000000000000000000000000000000000000000000000000000000000000000000000000000000000000000000
310
00000000000000000000000000000000000000000000000000000000000000000000000000000000000000000000000000000000000000000000000000000000000000000000000000000000000000000000000000000000000028282828000000000000000000000000282828280000000000000000000000000000282828
310
28280000000000000000000000282828282800000000000000000000000000282828282828280000000000000000000000002828282828282800000000000000000000000000000000000000000000000000000000000000000000000000000000000000000000000000000000000000000000000000000000000000000000
310
000000000000000000000000000000000000000000000000000000000000000000000000000000000000000000000000000000000000000000000000000000000000000000000000000000000000000000000000000000000000280028002A28282800000000000000002828282A0028002800000000000000000000000000
310
282A2800000000000000000000000000282A2800000000000000000000000000000028282A282800000000000000000000000000002800280028000000000000000000000000000000000000000000000000000000000000000000000000000000000000000000000000000000000000000000000000000000000000000000
310
00000000000000000000000000000000000000000000000000000000000000000000000000000000000000000000000000000000000000000000000000000000000000000000000000000000000000000000000000000000000000282828282828282828282800000000282828282828282828282828000000000000000000
310
2828282A2828002800000000000000002828282A2828280000000000000000000000000028282828280000000000000000000000000000282828282800000000000000000000000000000000000000000000000000000000000000000000000000000000000000000000000000000000000000000000000000000000000000
310
00000000000000000000000000000000000000000000000000000000000000000000000000000000000000000000000000000000000000000000000000000000000000000000000000000000000000000000000000000000000000000028282828282828282828000000000000282828282828282828280000000000000000
310
28282828282A2828282828000000000028282828282A282828282800000000000000000000002828282828000000000000000000000000000028282828280000000000000000000000000000000000000000000000000000000000000000000000000000000000000000000000000000000000000000000000000000000000
310
00000000000000000000000000000000000000000000000000000000000000000000000000000000000000000000000000000000000000000000000000000000000000000000000000000000000000000000000000000000000000000000000000280000280028000000000000000000002800280000280000000000000000
310
000028282828282A2828282828000000000028282828282A28282828280000000000000028282828282828282828282828000000000000282828282828282828282828280000000000000000000000000000000000000000000000000000000000000000000000000000000000000000000000000000000000000000000000
310
00000000000000000000000000000000000000000000000000000000000000000000000000000000000000000000000000000000000000000000000000000000000000000000000000000000000000000000000000000000000000000000000000000000000000000000000000000000000000000000000000000000000000
310
0000000028282828002A2800282828000000000028282828002A2800282828000000000000002828282828282828282828282800000000000028282828282828282828282828000000000000000000000000000000000000000000000000000000000000000000000000000000000000000000000000000000000000000000
310
00000000000000000000000000000000000000000000000000000000000000000000000000000000000000000000000000000000000000000000000000000000000000000000000000000000000000000000000000000000000000000000000000000000000000002A00000000000000000000000000000000000000000000
310
00000000000000000000002A0000000000000000000000000000002A000000000000000000000000002828282828282828282828000000000000000028282828282A28282828280000000000000000000000000000000000000000000000000000000000000000000000000000000000000000000000000000000000000000
310
00000000000000000000000000000000000000000000000000000000000000000000000000000000000000000000000000000000000000000000000000000000000000000000000000000000000000000000000000000000000000000000000000000000000000002828282800000000000000000000000000000000000000
310
00000000000000000000000000000000000000000000000000000000000000000000000000000000000000282828002828000028282800000000000000002828280028282800282828000000000000000000000000000000000000000000000000000000000000000000000000000000000000000000000000000000000000
310
00000000000000000000000000000000000000000000000000000000000000000000000000000000000000000000000000000000000000000000000000000000000000000000000000000000000000000000000000000000000000000000000000000000000000000028282828282800000000000000000000000000000000
310
00000000000000000000000000000000000000000000000000000000000000000000000000000000000000000000000000002A0000000000000000000000000000000000002A000000000000000000000000000000000000000000000000000000000000000000000000000000000000000000000000000000000000000000
310
00000000000000000000000000000000000000000000000000000000000000000000000000000000000000000000000000000000000000000000000000000000000000000000000000000000000000000000000000000000000000000000000000000000000000000000002800282800282800000000000000000000000000
310
00000000000000000000000000000000002A00000000000000000000000000000000000000000000000000000000000000000000000000000000000000000000000000000000000000000000000000000000000000000000000000000000000000000000000000000000000000000000000000000000000000000000000000
310
00000000000000000000000000000000000000000000000000000000000000000000000000000000000000000000000000000000000000000000000000000000000000000000000000000000000000000000000000000000000000000000000000000000000000000000000028282828282828282800000000000000000000
310
00000000000000000000000000000000000028282828000000000000000000000000000000000000000000000000000000000000000000000000000000000000000000000000000000000000000000000000000000000000000000000000000000000000000000000000000000000000000000000000000000000000000000
310
00000000000000000000000000000000000000000000000000000000000000000000000000000000000000000000000000000000000000000000000000000000000000000000000000000000000000000000000000000000000000000000000000000000000000000000000000282828282828282828282800000000000000
310
00000000000000000000000000000000000028282828282828000000000000000000000000000000000000000000000000000000000000000000000000000000000000000000000000000000000000000000000000000000000000000000000000000000000000000000000000000000000000000000000000000000000000
310
00000000000000000000000000000000000000000000000000000000000000000000000000000000000000000000000000000000000000000000000000000000000000000000000000000000000000000000000000000000000000000000000000000000000000000000000000002A28282828282828282828282A00000000
310
000000000000000000000000000000000000002800280028282828282800000000000000000000000000000000000000000000000000000028002A2800000000000000000000000000000000000000000000000000000000000000000000000000000000000000000000000000000000000000000000000000000000000000
310
00000000000000000000000000000000000000000000000000000000000000000000000000000000000000000000000000000000000000000000000000000000000000000000000000000000000000000000000000000000000000000000000000000000000000000000000000000000002828282828282828282828000000
310
00000000000000000000000000000000000000000028282828282828282828000000000000000000000000000000000000000000000000002828282828282828000000000000000000000000000000000000000000000000000000000000000000000000000000000000000000000000000000000000000000000000000000
310
00000000000000000000000000000000000000000000000000000000000000000000000000000000000000000000000000000000000000000000000000000000000000000000000000000000000000000000000000000000000000000000000000000000000000000000000000000000000000282828282828282828282800
310
00000000000000000000000000000000000000000000282828282828282828282800000000000000000000000000000000000000000000000028282800282828282828280000000000000000000000000000000000000000000000000000000000000000000000000000000000000000000000000000000000000000000000
310
00000000000000000000000000000000000000000000000000000000000000000000000000000000000000000000000000000000000000000000000000000000000000000000000000000000000000000000000000000000000000000000000000000000000000000000000000000000000000000000282828282828282828
310
00000000000000000000000000000000000000000000002A28282828282A28282828280000000000000000000000000000000000000000000000282828282828282828282828000000000000000000000000000000000000000000000000000000000000000000000000000000000000000000000000000000000000000000
310
00000000000000000000000000000000000000000000000000000000000000000000000000000000000000000000000000000000000000000000000000000000000000000000000000000000000000000000000000000000000000000000000000000000000000000000000000000000000000000000000000280028280028
310
28000000000000000000000000000000000000000000000000002828282828282828282828000000000000000000000000000000000000000000000028282828282828282828282828000000000000000000000000000000000000000000000000000000000000000000000000000000000000000000000000000000000000
310
00000000000000000000000000000000000000000000000000000000000000000000000000000000000000000000000000000000000000000000000000000000000000000000000000000000000000000000000000000000000000000000000000000000000000000000000000000000000000000000000000000028002828
310
28280000000000000000000000000000000000000000000000000000282828282828282828282800000000000000000000000000000000000000000000282828282828282828282828282800000000000000000000000000000000000000000000000000000000000000000000000000000000000000000000000000000000
310
00000000000000000000000000000000000000000000000000000000000000000000000000000000000000000000000000000000000000000000000000000000000000000000000000000000000000000000000000000000000000000000000000000000000000000000000000000000000000000000000000000000000028
310
2828280000000000000000000000000000000000000000000000000000000028282828282828282828000000000000000000000000000000000000000000002A2828282828282A2828282828280000000000000000000000000000000000000000000000000000000000000000000000000000000000000000000000000000
310
00000000000000000000000000000000000000000000000000000000000000000000000000000000000000000000000000000000000000000000000000000000000000000000000000000000000000000000000000000000000000000000000000000000000000000000000000000000000000000000000000000000000000
310
00000000000000000000000000000000000000000000000000000000000000000000282828282800280000000000000000000000000000000000000000000000000028282828282828282828282828000000000000000000000000000000000000000000000000000000000000000000000000000000000000000000000000
310
00000000000000000000000000000000000000000000000000000000000000000000000000000000000000000000000000000000000000000000000000000000000000000000000000000000000000000000000000000000000000000000000000000000000000000000000000000000000000000000000000000000000000
310
00000000000000000000000000000000000000000000000000000000000000000000000000002828282800000000000000000000000000000000000000000000000000282828002828282A28282800282800000000000000000000000000000000000000000000000000000000000000000000000000000000000000000000
310
00000000000000000000000000000000000000000000000000000000000000000000000000000000000000000000000000000000000000000000000000000000000000000000000000000000000000000000000000000000000000000000000000000000000000000000000000000000000000000000000000000000000000
310
00000000000000000000000000000000000000000000000000000000000000000000000000000000002A00000000000000000000000000000000000000000000000000000000282828282828282828282828280000000000000000000000000000000000000000000000000000000000000000000000000000000000000000
310
00000000000000000000000000000000000000000000000000000000000000000000000000000000000000000000000000000000000000000000000000000000000000000000000000000000000000000000000000000000000000000000000000000000000000000000000000000000000000000000000000000000000000
310
00000000000000000000000000000000000000000000000000000000000000000000000000000000000000000000000000000000000000000000000000000000000000000000000028282828002828280028282800000000000000000000000000000000000000000000000000000000000000000000000000000000000000
310
00000000000000000000000000000000000000000000000000000000000000000000000000000000000000000000000000000000000000000000000000000000000000000000000000000000000000000000000000000000000000000000000000000000000000000000000000000000000000000000000000000000000000
310
00000000000000000000000000000000000000000000000000000000000000000000000000000000000000000000000000000000000000000000000000000000000000000000000000000000002800282828282800000000000000000000000000000000000000000000000000000000000000000000000000000000000000
310
00000000000000000000000000000000000000000000000000000000000000000000000000000000000000000000000000000000000000000000000000000000000000000000000000000000000000000000000000000000000000000000000000000000000000000000000000000000000000000000000000000000000000
310
00000000000000000000000000000000000000000000000000000000000000000000000000000000000000000000000000000000000000000000000000000000000000000000000000000000000028002828282800280000000000000000000000000000000000000000000000000000000000000000000000000000000000
310
00000000000000000000000000000000000000000000000000000000000000000000000000000000000000000000000000000000000000000000000000000000000000000000000000000000000000000000000000000000000000000000000000000000000000000000000000000000000000000000000000000000000000
310
0000000000000000000000000000000000000000000000000000000000000000000000000000000000000000000000000000000000000000000000000000000000000000000000000000000000000000002828002A282800000000000000000000000000000000000000000000000000000000000000000000000000000000
310
00000000000000000000000000000000000000000000000000000000000000000000000000000000000000000000000000000000000000000000000000000000000000000000000000000000000000000000000000000000000000000000000000000000000000000000000000000000000000000000000000000000000000
310
00000000000000000000000000000000000000000000000000000000000000000000000000000000000000000000000000000000000000000000000000000000000000000000000000000000000000000000000000000000000000000000000000000000000000000000000000000000000000000000000000000000000000
310
00000000000000000000000000000000000000000000000000000000000000000000000000000000000000000000000000000000000000000000000000000000000000000000000000000000000000000000000000000000000000000000000000000000000000000000000000000000000000000000000000000000000000
310
00000000000000000000000000000000000000000000000000000000000000000000000000000000000000000000000000000000000000000000000000000000000000000000000000000000000000000000000000000000000000000000000000000000000000000000000000000000000000000000000000000000000000
310
00000000000000000000000000000000000000000000000000000000000000000000000000000000000000000000000000000000000000000000000000000000000000000000000000000000000000000000000000000000000000000000000000000000000000000000000000000000000000000000000000000000000000
310
00000000000000000000000000000000000000000000000000000000000000000000000000000000000000000000000000000000000000000000000000000000000000000000000000000000000000000000000000000000000000000000000000000000000000000000000000000000000000000000000000000000000000
310
00000000000000000000000000000000000000000000000000000000000000000000000000000000000000000000000000000000000000000000000000000000000000000000000000000000000000000000000000000000000000000000000000000000000000000000000000000000000000000000000000000000000000
310
00000000000000000000000000000000000000000000000000000000000000000000000000000000000000000000000000000000000000000000000000000000000000000000000000000000000000000000000000000000000000000000000000000000000000000000000000000000000000000000000000000000000000
310
00000000000000000000000000000000000000000000000000000000000000000000000000000000000000000000000000000000000000000000000000000000000000000000000000000000000000000000000000000000000000000000000000000000000000000000000000000000000000000000000000000000000000
310
00000000000000000000000000000000000000000000000000000000000000000000000000000000000000000000000000000000000000000000000000000000000000000000000000000000000000000000000000000000000000000000000000000000000000000000000000000000000000000000000000000000000000
310
00000000000000000000000000000000000000000000000000000000000000000000000000000000000000000000000000000000000000000000000000000000000000000000000000000000000000000000000000000000000000000000000000000000000000000000000000000000000000000000000000000000000000
310
00000000000000000000000000000000000000000000000000000000000000000000000000000000000000000000000000000000000000000000000000000000000000000000000000000000000000000000000000000000000000000000000000000000000000000000000000000000000000000000000000000000000000
310
00000000000000000000000000000000000000000000000000000000000000000000000000000000000000000000000000000000000000000000000000000000000000000000000000000000000000000000000000000000000000000000000000000000000000000000000000000000000000000000000000000000000000
310
00000000000000000000000000000000000000000000000000000000000000000000000000000000000000000000000000000000000000000000000000000000000000000000000000000000000000000000000000000000000000000000000000000000000000000000000000000000000000000000000000000000000000
310
00000000000000000000000000000000000000000000000000000000000000000000000000000000000000000000000000000000000000000000000000000000000000000000000000000000000000000000000000000000000000000000000000000000000000000000000000000000000000000000000000000000000000
310
00000000000000000000000000000000000000000000000000000000000000000000000000000000000000000000000000000000000000000000000000000000000000000000000000000000000000000000000000000000000000000000000000000000000000000000000000000000000000000000000000000000000000
310
00000000000000000000000000000000000000000000000000000000000000000000000000000000000000000000000000000000000000000000000000000000000000000000000000000000000000000000000000000000000000000000000000000000000000000000000000000000000000000000000000000000000000
310
00000000000000000000000000000000000000000000000000000000000000000000000000000000000000000000000000000000000000000000000000000000000000000000000000000000000000000000000000000000000000000000000000000000000000000000000000000000000000000000000000000000000000
310
00000000000000000000000000000000000000000000000000000000000000000000000000000000000000000000000000000000000000000000000000000000000000000000000000000000000000000000000000000000000000000000000000000000000000000000000000000000000000000000000000000000000000
310
00000000000000000000000000000000000000000000000000000000000000000000000000000000000000000000000000000000000000000000000000000000000000000000000000000000000000000000000000000000000000000000000000000000000000000000000000000000000000000000000000000000000000
310
00000000000000000000000000000000000000000000000000000000000000000000000000000000000000000000000000000000000000000000000000000000000000000000000000000000000000000000000000000000000000000000000000000000000000000000000000000000000000000000000000000000000000
310
00000000000000000000000000000000000000000000000000000000000000000000000000000000000000000000000000000000000000000000000000000000000000000000000000000000000000000000000000000000000000000000000000000000000000000000000000000000000000000000000000000000000000
310
00000000000000000000000000000000000000000000000000000000000000000000000000000000000000000000000000000000000000000000000000000000000000000000000000000000000000000000000000000000000000000000000000000000000000000000000000000000000000000000000000000000000000
310
00000000000000000000000000000000000000000000000000000000000000000000000000000000000000000000000000000000000000000000000000000000000000000000000000000000000000000000000000000000000000000000000000000000000000000000000000000000000000000000000000000000000000
310
00000000000000000000000000000000000000000000000000000000000000000000000000000000000000000000000000000000000000000000000000000000000000000000000000000000000000000000000000000000000000000000000000000000000000000000000000000000000000000000000000000000000000
310
00000000000000000000000000000000000000000000000000000000000000000000000000000000000000000000000000000000000000000000000000000000000000000000000000000000000000000000000000000000000000000000000000000000000000000000000000000000000000000000000000000000000000
310
00000000000000000000000000000000000000000000000000000000000000000000000000000000000000000000000000000000000000000000000000000000000000000000000000000000000000000000000000000000000000000000000000000000000000000000000000000000000000000000000000000000000000
310
00000000000000000000000000000000000000000000000000000000000000000000000000000000000000000000000000000000000000000000000000000000000000000000000000000000000000000000000000000000000000000000000000000000000000000000000000000000000000000000000000000000000000
310
00000000000000000000000000000000000000000000000000000000000000000000000000000000000000000000000000000000000000000000000000000000000000000000000000000000000000000000000000000000000000000000000000000000000000000000000000000000000000000000000000000000000000
310
00000000000000000000000000000000000000000000000000000000000000000000000000000000000000000000000000000000000000000000000000000000000000000000000000000000000000000000000000000000000000000000000000000000000000000000000000000000000000000000000000000000000000
310
00000000000000000000000000000000000000000000000000000000000000000000000000000000000000000000000000000000000000000000000000000000000000000000000000000000000000000000000000000000000000000000000000000000000000000000000000000000000000000000000000000000000000
310
00000000000000000000000000000000000000000000000000000000000000000000000000000000000000000000000000000000000000000000000000000000000000000000000000000000000000000000000000000000000000000000000000000000000000000000000000000000000000000000000000000000000000
310
00000000000000000000000000000000000000000000000000000000000000000000000000000000000000000000000000000000000000000000000000000000000000000000000000000000000000000000000000000000000000000000000000000000000000000000000000000000000000000000000000000000000000
310
00000000000000000000000000000000000000000000000000000000000000000000000000000000000000000000000000000000000000000000000000000000000000000000000000000000000000000000000000000000000000000000000000000000000000000000000000000000000000000000000000000000000000
310
00000000000000000000000000000000000000000000000000000000000000000000000000000000000000000000000000000000000000000000000000000000000000000000000000000000000000000000000000000000000000000000000000000000000000000000000000000000000000000000000000000000000000
310
00000000000000000000000000000000000000000000000000000000000000000000000000000000000000000000000000000000000000000000000000000000000000000000000000000000000000000000000000000000000000000000000000000000000000000000000000000000000000000000000000000000000000
310
00000000000000000000000000000000000000000000000000000000000000000000000000000000000000000000000000000000000000000000000000000000000000000000000000000000000000000000000000000000000000000000000000000000000000000000000000000000000000000000000000000000000000
310
00000000000000000000000000000000000000000000000000000000000000000000000000000000000000000000000000000000000000000000000000000000000000000000000000000000000000000000000000000000000000000000000000000000000000000000000000000000000000000000000000000000000000
310
00000000000000000000000000000000000000000000000000000000000000000000000000000000000000000000000000000000000000000000000000000000000000000000000000000000000000000000000000000000000000000000000000000000000000000000000000000000000000000000000000000000000000
310
00000000000000000000000000000000000000000000000000000000000000000000000000000000000000000000000000000000000000000000000000000000000000000000000000000000000000000000000000000000000000000000000000000000000000000000000000000000000000000000000000000000000000
310
00000000000000000000000000000000000000000000000000000000000000000000000000000000000000000000000000000000000000000000000000000000000000000000000000000000000000000000000000000000000000000000000000000000000000000000000000000000000000000000000000000000000000
310
00000000000000000000000000000000000000000000000000000000000000000000000000000000000000000000000000000000000000000000000000000000000000000000000000000000000000000000000000000000000000000000000000000000000000000000000000000000000000000000000000000000000000
310
00000000000000000000000000000000000000000000000000000000000000000000000000000000000000000000000000000000000000000000000000000000000000000000000000000000000000000000000000000000000000000000000000000000000000000000000000000000000000000000000000000000000000
310
00000000000000000000000000000000000000000000000000000000000000000000000000000000000000000000000000000000000000000000000000000000000000000000000000000000000000000000000000000000000000000000000000000000000000000000000000000000000000000000000000000000000000
310
00000000000000000000000000000000000000000000000000000000000000000000000000000000000000000000000000000000000000000000000000000000000000000000000000000000000000000000000000000000000000000000000000000000000000000000000000000000000000000000000000000000000000
310
00000000000000000000000000000000000000000000000000000000000000000000000000000000000000000000000000000000000000000000000000000000000000000000000000000000000000000000000000000000000000000000000000000000000000000000000000000000000000000000000000000000000000
310
00000000000000000000000000000000000000000000000000000000000000000000000000000000000000000000000000000000000000000000000000000000000000000000000000000000000000000000000000000000000000000000000000000000000000000000000000000000000000000000000000000000000000
310
00000000000000000000000000000000000000000000000000000000000000000000000000000000000000000000000000000000000000000000000000000000000000000000000000000000000000000000000000000000000000000000000000000000000000000000000000000000000000000000000000000000000000
310
00000000000000000000000000000000000000000000000000000000000000000000000000000000000000000000000000000000000000000000000000000000000000000000000000000000000000000000000000000000000000000000000000000000000000000000000000000000000000000000000000000000000000
310
00000000000000000000000000000000000000000000000000000000000000000000000000000000000000000000000000000000000000000000000000000000000000000000000000000000000000000000000000000000000000000000000000000000000000000000000000000000000000000000000000000000000000
310
00000000000000000000000000000000000000000000000000000000000000000000000000000000000000000000000000000000000000000000000000000000000000000000000000000000000000000000000000000000000000000000000000000000000000000000000000000000000000000000000000000000000000
310
00000000000000000000000000000000000000000000000000000000000000000000000000000000000000000000000000000000000000000000000000000000000000000000000000000000000000000000000000000000000000000000000000000000000000000000000000000000000000000000000000000000000000
310
00000000000000000000000000000000000000000000000000000000000000000000000000000000000000000000000000000000000000000000000000000000000000000000000000000000000000000000000000000000000000000000000000000000000000000000000000000000000000000000000000000000000000
310
00000000000000000000000000000000000000000000000000000000000000000000000000000000000000000000000000000000000000000000000000000000000000000000000000000000000000000000000000000000000000000000000000000000000000000000000000000000000000000000000000000000000000
310
00000000000000000000000000000000000000000000000000000000000000000000000000000000000000000000000000000000000000000000000000000000000000000000000000000000000000000000000000000000000000000000000000000000000000000000000000000000000000000000000000000000000000
310
00000000000000000000000000000000000000000000000000000000000000000000000000000000000000000000000000000000000000000000000000000000000000000000000000000000000000000000000000000000000000000000000000000000000000000000000000000000000000000000000000000000000000
310
00000000000000000000000000000000000000000000000000000000000000000000000000000000000000000000000000000000000000000000000000000000000000000000000000000000000000000000000000000000000000000000000000000000000000000000000000000000000000000000000000000000000000
310
00000000000000000000000000000000000000000000000000000000000000000000000000000000000000000000000000000000000000000000000000000000000000000000000000000000000000000000000000000000000000000000000000000000000000000000000000000000000000000000000000000000000000
310
00000000000000000000000000000000000000000000000000000000000000000000000000000000000000000000000000000000000000000000000000000000000000000000000000000000000000000000000000000000000000000000000000000000000000000000000000000000000000000000000000000000000000
310
00000000000000000000000000000000000000000000000000000000000000000000000000000000000000000000000000000000000000000000000000000000000000000000000000000000000000000000000000000000000000000000000000000000000000000000000000000000000000000000000000000000000000
310
00000000000000000000000000000000000000000000000000000000000000000000000000000000000000000000000000000000000000000000000000000000000000000000000000000000000000000000000000000000000000000000000000000000000000000000000000000000000000000000000000000000000000
310
00000000000000000000000000000000000000000000000000000000000000000000000000000000000000000000000000000000000000000000000000000000000000000000000000000000000000000000000000000000000000000000000000000000000000000000000000000000000000000000000000000000000000
310
00000000000000000000000000000000000000000000000000000000000000000000000000000000000000000000000000000000000000000000000000000000000000000000000000000000000000000000000000000000000000000000000000000000000000000000000000000000000000000000000000000000000000
310
00000000000000000000000000000000000000000000000000000000000000000000000000000000000000000000000000000000000000000000000000000000000000000000000000000000000000000000000000000000000000000000000000000000000000000000000000000000000000000000000000000000000000
310
00000000000000000000000000000000000000000000000000000000000000000000000000000000000000000000000000000000000000000000000000000000000000000000000000000000000000000000000000000000000000000000000000000000000000000000000000000000000000000000000000000000000000
310
00000000000000000000000000000000000000000000000000000000000000000000000000000000000000000000000000000000000000000000000000000000000000000000000000000000000000000000000000000000000000000000000000000000000000000000000000000000000000000000000000000000000000
310
00000000000000000000000000000000000000000000000000000000000000000000000000000000000000000000000000000000000000000000000000000000000000000000000000000000000000000000000000000000000000000000000000000000000000000000000000000000000000000000000000000000000000
310
00000000000000000000000000000000000000000000000000000000000000000000000000000000
  0
XRECORD
  5
F169
102
{ACAD_REACTORS
330
F168
102
}
330
F168
100
AcDbXrecord
280
     1
102
DISPLAYNAME
  1
Metric50
102
FLAGS
 90
        0
  0
CELLSTYLEMAP
  5
F132
102
{ACAD_REACTORS
330
3660
102
}
330
3660
100
AcDbCellStyleMap
 90
        3
300
CELLSTYLE
  1
TABLEFORMAT_BEGIN
 90
        5
170
     1
 91
        0
 92
    32768
 62
   257
 93
        1
300
CONTENTFORMAT
  1
CONTENTFORMAT_BEGIN
 90
        0
 91
        0
 92
      512
 93
        0
300

 40
0.0
140
1.0
 94
        5
 62
     0
340
26
144
6.0
309
CONTENTFORMAT_END
171
     1
301
MARGIN
  1
CELLMARGIN_BEGIN
 40
1.5
 40
1.5
 40
1.5
 40
1.5
 40
0.18
 40
0.18
309
CELLMARGIN_END
 94
        6
 95
        1
302
GRIDFORMAT
  1
GRIDFORMAT_BEGIN
 90
        0
 91
        1
 62
     0
 92
       -2
340
0
 93
        0
 40
0.045
309
GRIDFORMAT_END
 95
        2
302
GRIDFORMAT
  1
GRIDFORMAT_BEGIN
 90
        0
 91
        1
 62
     0
 92
       -2
340
0
 93
        0
 40
0.045
309
GRIDFORMAT_END
 95
        4
302
GRIDFORMAT
  1
GRIDFORMAT_BEGIN
 90
        0
 91
        1
 62
     0
 92
       -2
340
0
 93
        0
 40
0.045
309
GRIDFORMAT_END
 95
        8
302
GRIDFORMAT
  1
GRIDFORMAT_BEGIN
 90
        0
 91
        1
 62
     0
 92
       -2
340
0
 93
        0
 40
0.045
309
GRIDFORMAT_END
 95
       16
302
GRIDFORMAT
  1
GRIDFORMAT_BEGIN
 90
        0
 91
        1
 62
     0
 92
       -2
340
0
 93
        0
 40
0.045
309
GRIDFORMAT_END
 95
       32
302
GRIDFORMAT
  1
GRIDFORMAT_BEGIN
 90
        0
 91
        1
 62
     0
 92
       -2
340
0
 93
        0
 40
0.045
309
GRIDFORMAT_END
309
TABLEFORMAT_END
  1
CELLSTYLE_BEGIN
 90
        1
 91
        1
300
_TITLE
309
CELLSTYLE_END
300
CELLSTYLE
  1
TABLEFORMAT_BEGIN
 90
        5
170
     1
 91
        0
 92
        0
 62
   257
 93
        1
300
CONTENTFORMAT
  1
CONTENTFORMAT_BEGIN
 90
        0
 91
        0
 92
      512
 93
        0
300

 40
0.0
140
1.0
 94
        5
 62
     0
340
26
144
4.5
309
CONTENTFORMAT_END
171
     1
301
MARGIN
  1
CELLMARGIN_BEGIN
 40
1.5
 40
1.5
 40
1.5
 40
1.5
 40
0.18
 40
0.18
309
CELLMARGIN_END
 94
        6
 95
        1
302
GRIDFORMAT
  1
GRIDFORMAT_BEGIN
 90
        0
 91
        1
 62
     0
 92
       -2
340
0
 93
        0
 40
0.045
309
GRIDFORMAT_END
 95
        2
302
GRIDFORMAT
  1
GRIDFORMAT_BEGIN
 90
        0
 91
        1
 62
     0
 92
       -2
340
0
 93
        0
 40
0.045
309
GRIDFORMAT_END
 95
        4
302
GRIDFORMAT
  1
GRIDFORMAT_BEGIN
 90
        0
 91
        1
 62
     0
 92
       -2
340
0
 93
        0
 40
0.045
309
GRIDFORMAT_END
 95
        8
302
GRIDFORMAT
  1
GRIDFORMAT_BEGIN
 90
        0
 91
        1
 62
     0
 92
       -2
340
0
 93
        0
 40
0.045
309
GRIDFORMAT_END
 95
       16
302
GRIDFORMAT
  1
GRIDFORMAT_BEGIN
 90
        0
 91
        1
 62
     0
 92
       -2
340
0
 93
        0
 40
0.045
309
GRIDFORMAT_END
 95
       32
302
GRIDFORMAT
  1
GRIDFORMAT_BEGIN
 90
        0
 91
        1
 62
     0
 92
       -2
340
0
 93
        0
 40
0.045
309
GRIDFORMAT_END
309
TABLEFORMAT_END
  1
CELLSTYLE_BEGIN
 90
        2
 91
        1
300
_HEADER
309
CELLSTYLE_END
300
CELLSTYLE
  1
TABLEFORMAT_BEGIN
 90
        5
170
     1
 91
        0
 92
        0
 62
   257
 93
        1
300
CONTENTFORMAT
  1
CONTENTFORMAT_BEGIN
 90
        0
 91
        0
 92
      512
 93
        0
300

 40
0.0
140
1.0
 94
        2
 62
     0
340
26
144
4.5
309
CONTENTFORMAT_END
171
     1
301
MARGIN
  1
CELLMARGIN_BEGIN
 40
1.5
 40
1.5
 40
1.5
 40
1.5
 40
0.18
 40
0.18
309
CELLMARGIN_END
 94
        6
 95
        1
302
GRIDFORMAT
  1
GRIDFORMAT_BEGIN
 90
        0
 91
        1
 62
     0
 92
       -2
340
0
 93
        0
 40
0.045
309
GRIDFORMAT_END
 95
        2
302
GRIDFORMAT
  1
GRIDFORMAT_BEGIN
 90
        0
 91
        1
 62
     0
 92
       -2
340
0
 93
        0
 40
0.045
309
GRIDFORMAT_END
 95
        4
302
GRIDFORMAT
  1
GRIDFORMAT_BEGIN
 90
        0
 91
        1
 62
     0
 92
       -2
340
0
 93
        0
 40
0.045
309
GRIDFORMAT_END
 95
        8
302
GRIDFORMAT
  1
GRIDFORMAT_BEGIN
 90
        0
 91
        1
 62
     0
 92
       -2
340
0
 93
        0
 40
0.045
309
GRIDFORMAT_END
 95
       16
302
GRIDFORMAT
  1
GRIDFORMAT_BEGIN
 90
        0
 91
        1
 62
     0
 92
       -2
340
0
 93
        0
 40
0.045
309
GRIDFORMAT_END
 95
       32
302
GRIDFORMAT
  1
GRIDFORMAT_BEGIN
 90
        0
 91
        1
 62
     0
 92
       -2
340
0
 93
        0
 40
0.045
309
GRIDFORMAT_END
309
TABLEFORMAT_END
  1
CELLSTYLE_BEGIN
 90
        3
 91
        2
300
_DATA
309
CELLSTYLE_END
  0
XRECORD
  5
F13F
102
{ACAD_REACTORS
330
F13E
102
}
330
F13E
100
AcDbXrecord
280
     1
102
RTVSPost2010Prop28
280
     1
102
RTVSPost2010PropOp28
 70
     1
102
RTVSPost2010Prop29
280
     1
102
RTVSPost2010PropOp29
 70
     1
102
RTVSPost2010Prop30
280
     0
102
RTVSPost2010PropOp30
 70
     1
102
RTVSPost2010Prop31
280
     0
102
RTVSPost2010PropOp31
 70
     1
102
RTVSPost2010Prop32
280
     0
102
RTVSPost2010PropOp32
 70
     1
102
RTVSPost2010Prop33
280
     0
102
RTVSPost2010PropOp33
 70
     1
102
RTVSPost2010Prop34
280
     0
102
RTVSPost2010PropOp34
 70
     1
102
RTVSPost2010Prop35
280
     0
102
RTVSPost2010PropOp35
 70
     1
102
RTVSPost2010Prop36
280
     0
102
RTVSPost2010PropOp36
 70
     1
102
RTVSPost2010Prop37
 90
       50
102
RTVSPost2010PropOp37
 70
     1
102
RTVSPost2010Prop38
140
0.0
102
RTVSPost2010PropOp38
 70
     1
102
RTVSPost2010Prop39
140
1.0
102
RTVSPost2010PropOp39
 70
     1
102
RTVSPost2010Prop40
 90
        0
102
RTVSPost2010PropOp40
 70
     1
102
RTVSPost2010Prop41ColorIndex
 90
       18
102
RTVSPost2010Prop41ColorRGB
 90
        0
102
RTVSPost2010PropOp41
 70
     1
102
RTVSPost2010Prop42
 90
       50
102
RTVSPost2010PropOp42
 70
     1
102
RTVSPost2010Prop43
 90
        3
102
RTVSPost2010PropOp43
 70
     1
102
RTVSPost2010Prop44ColorIndex
 90
        5
102
RTVSPost2010Prop44ColorRGB
 90
      255
102
RTVSPost2010PropOp44
 70
     1
102
RTVSPost2010Prop45
280
     0
102
RTVSPost2010PropOp45
 70
     1
102
RTVSPost2010Prop46
 90
       50
102
RTVSPost2010PropOp46
 70
     1
102
RTVSPost2010Prop47
 90
       50
102
RTVSPost2010PropOp47
 70
     1
102
RTVSPost2010Prop48
 90
       50
102
RTVSPost2010PropOp48
 70
     1
102
RTVSPost2010Prop49
280
     0
102
RTVSPost2010PropOp49
 70
     1
102
RTVSPost2010Prop50
 90
       50
102
RTVSPost2010PropOp50
 70
     1
102
RTVSPost2010Prop51ColorIndex
 90
      256
102
RTVSPost2010Prop51ColorRGB
 90
-16777216
102
RTVSPost2010PropOp51
 70
     0
102
RTVSPost2010Prop52
140
1.0
102
RTVSPost2010PropOp52
 70
     0
102
RTVSPost2010Prop53
 90
        2
102
RTVSPost2010PropOp53
 70
     1
102
RTVSPost2010Prop54
  1
strokes_ogs.tif
102
RTVSPost2010PropOp54
 70
     1
102
RTVSPost2010Prop55
280
     0
102
RTVSPost2010PropOp55
 70
     1
102
RTVSPost2010Prop56
140
1.0
102
RTVSPost2010PropOp56
 70
     1
102
RTVSPost2010Prop57
140
1.0
102
RTVSPost2010PropOp57
 70
     1
  0
XRECORD
  5
F143
102
{ACAD_REACTORS
330
F142
102
}
330
F142
100
AcDbXrecord
280
     1
102
RTVSPost2010Prop28
280
     0
102
RTVSPost2010PropOp28
 70
     1
102
RTVSPost2010Prop29
280
     1
102
RTVSPost2010PropOp29
 70
     1
102
RTVSPost2010Prop30
280
     1
102
RTVSPost2010PropOp30
 70
     1
102
RTVSPost2010Prop31
280
     0
102
RTVSPost2010PropOp31
 70
     1
102
RTVSPost2010Prop32
280
     0
102
RTVSPost2010PropOp32
 70
     1
102
RTVSPost2010Prop33
280
     0
102
RTVSPost2010PropOp33
 70
     1
102
RTVSPost2010Prop34
280
     0
102
RTVSPost2010PropOp34
 70
     1
102
RTVSPost2010Prop35
280
     0
102
RTVSPost2010PropOp35
 70
     1
102
RTVSPost2010Prop36
280
     0
102
RTVSPost2010PropOp36
 70
     1
102
RTVSPost2010Prop37
 90
       50
102
RTVSPost2010PropOp37
 70
     1
102
RTVSPost2010Prop38
140
0.0
102
RTVSPost2010PropOp38
 70
     1
102
RTVSPost2010Prop39
140
1.0
102
RTVSPost2010PropOp39
 70
     1
102
RTVSPost2010Prop40
 90
        0
102
RTVSPost2010PropOp40
 70
     1
102
RTVSPost2010Prop41ColorIndex
 90
       18
102
RTVSPost2010Prop41ColorRGB
 90
        0
102
RTVSPost2010PropOp41
 70
     1
102
RTVSPost2010Prop42
 90
       50
102
RTVSPost2010PropOp42
 70
     1
102
RTVSPost2010Prop43
 90
        3
102
RTVSPost2010PropOp43
 70
     1
102
RTVSPost2010Prop44ColorIndex
 90
        5
102
RTVSPost2010Prop44ColorRGB
 90
      255
102
RTVSPost2010PropOp44
 70
     1
102
RTVSPost2010Prop45
280
     0
102
RTVSPost2010PropOp45
 70
     1
102
RTVSPost2010Prop46
 90
       50
102
RTVSPost2010PropOp46
 70
     1
102
RTVSPost2010Prop47
 90
       50
102
RTVSPost2010PropOp47
 70
     1
102
RTVSPost2010Prop48
 90
       50
102
RTVSPost2010PropOp48
 70
     1
102
RTVSPost2010Prop49
280
     0
102
RTVSPost2010PropOp49
 70
     1
102
RTVSPost2010Prop50
 90
       50
102
RTVSPost2010PropOp50
 70
     1
102
RTVSPost2010Prop51ColorIndex
 90
      256
102
RTVSPost2010Prop51ColorRGB
 90
-16777216
102
RTVSPost2010PropOp51
 70
     0
102
RTVSPost2010Prop52
140
1.0
102
RTVSPost2010PropOp52
 70
     0
102
RTVSPost2010Prop53
 90
        2
102
RTVSPost2010PropOp53
 70
     1
102
RTVSPost2010Prop54
  1
strokes_ogs.tif
102
RTVSPost2010PropOp54
 70
     1
102
RTVSPost2010Prop55
280
     0
102
RTVSPost2010PropOp55
 70
     1
102
RTVSPost2010Prop56
140
1.0
102
RTVSPost2010PropOp56
 70
     1
102
RTVSPost2010Prop57
140
1.0
102
RTVSPost2010PropOp57
 70
     1
  0
XRECORD
  5
F141
102
{ACAD_REACTORS
330
F140
102
}
330
F140
100
AcDbXrecord
280
     1
102
RTVSPost2010Prop28
280
     0
102
RTVSPost2010PropOp28
 70
     1
102
RTVSPost2010Prop29
280
     1
102
RTVSPost2010PropOp29
 70
     1
102
RTVSPost2010Prop30
280
     1
102
RTVSPost2010PropOp30
 70
     1
102
RTVSPost2010Prop31
280
     0
102
RTVSPost2010PropOp31
 70
     1
102
RTVSPost2010Prop32
280
     0
102
RTVSPost2010PropOp32
 70
     1
102
RTVSPost2010Prop33
280
     0
102
RTVSPost2010PropOp33
 70
     1
102
RTVSPost2010Prop34
280
     0
102
RTVSPost2010PropOp34
 70
     1
102
RTVSPost2010Prop35
280
     0
102
RTVSPost2010PropOp35
 70
     1
102
RTVSPost2010Prop36
280
     0
102
RTVSPost2010PropOp36
 70
     1
102
RTVSPost2010Prop37
 90
       50
102
RTVSPost2010PropOp37
 70
     1
102
RTVSPost2010Prop38
140
0.0
102
RTVSPost2010PropOp38
 70
     1
102
RTVSPost2010Prop39
140
1.0
102
RTVSPost2010PropOp39
 70
     1
102
RTVSPost2010Prop40
 90
        0
102
RTVSPost2010PropOp40
 70
     1
102
RTVSPost2010Prop41ColorIndex
 90
       18
102
RTVSPost2010Prop41ColorRGB
 90
        0
102
RTVSPost2010PropOp41
 70
     1
102
RTVSPost2010Prop42
 90
       50
102
RTVSPost2010PropOp42
 70
     1
102
RTVSPost2010Prop43
 90
        3
102
RTVSPost2010PropOp43
 70
     1
102
RTVSPost2010Prop44ColorIndex
 90
        5
102
RTVSPost2010Prop44ColorRGB
 90
      255
102
RTVSPost2010PropOp44
 70
     1
102
RTVSPost2010Prop45
280
     0
102
RTVSPost2010PropOp45
 70
     1
102
RTVSPost2010Prop46
 90
       50
102
RTVSPost2010PropOp46
 70
     1
102
RTVSPost2010Prop47
 90
       50
102
RTVSPost2010PropOp47
 70
     1
102
RTVSPost2010Prop48
 90
       50
102
RTVSPost2010PropOp48
 70
     1
102
RTVSPost2010Prop49
280
     0
102
RTVSPost2010PropOp49
 70
     1
102
RTVSPost2010Prop50
 90
       50
102
RTVSPost2010PropOp50
 70
     1
102
RTVSPost2010Prop51ColorIndex
 90
      256
102
RTVSPost2010Prop51ColorRGB
 90
-16777216
102
RTVSPost2010PropOp51
 70
     0
102
RTVSPost2010Prop52
140
1.0
102
RTVSPost2010PropOp52
 70
     0
102
RTVSPost2010Prop53
 90
        2
102
RTVSPost2010PropOp53
 70
     1
102
RTVSPost2010Prop54
  1
strokes_ogs.tif
102
RTVSPost2010PropOp54
 70
     1
102
RTVSPost2010Prop55
280
     0
102
RTVSPost2010PropOp55
 70
     1
102
RTVSPost2010Prop56
140
1.0
102
RTVSPost2010PropOp56
 70
     1
102
RTVSPost2010Prop57
140
1.0
102
RTVSPost2010PropOp57
 70
     1
  0
XRECORD
  5
F13D
102
{ACAD_REACTORS
330
F13C
102
}
330
F13C
100
AcDbXrecord
280
     1
102
RTVSPost2010Prop28
280
     0
102
RTVSPost2010PropOp28
 70
     1
102
RTVSPost2010Prop29
280
     1
102
RTVSPost2010PropOp29
 70
     1
102
RTVSPost2010Prop30
280
     1
102
RTVSPost2010PropOp30
 70
     1
102
RTVSPost2010Prop31
280
     0
102
RTVSPost2010PropOp31
 70
     1
102
RTVSPost2010Prop32
280
     0
102
RTVSPost2010PropOp32
 70
     1
102
RTVSPost2010Prop33
280
     0
102
RTVSPost2010PropOp33
 70
     1
102
RTVSPost2010Prop34
280
     0
102
RTVSPost2010PropOp34
 70
     1
102
RTVSPost2010Prop35
280
     0
102
RTVSPost2010PropOp35
 70
     1
102
RTVSPost2010Prop36
280
     0
102
RTVSPost2010PropOp36
 70
     1
102
RTVSPost2010Prop37
 90
       50
102
RTVSPost2010PropOp37
 70
     1
102
RTVSPost2010Prop38
140
0.0
102
RTVSPost2010PropOp38
 70
     1
102
RTVSPost2010Prop39
140
1.0
102
RTVSPost2010PropOp39
 70
     1
102
RTVSPost2010Prop40
 90
        0
102
RTVSPost2010PropOp40
 70
     1
102
RTVSPost2010Prop41ColorIndex
 90
       18
102
RTVSPost2010Prop41ColorRGB
 90
        0
102
RTVSPost2010PropOp41
 70
     1
102
RTVSPost2010Prop42
 90
       50
102
RTVSPost2010PropOp42
 70
     1
102
RTVSPost2010Prop43
 90
        3
102
RTVSPost2010PropOp43
 70
     1
102
RTVSPost2010Prop44ColorIndex
 90
        5
102
RTVSPost2010Prop44ColorRGB
 90
      255
102
RTVSPost2010PropOp44
 70
     1
102
RTVSPost2010Prop45
280
     0
102
RTVSPost2010PropOp45
 70
     1
102
RTVSPost2010Prop46
 90
       50
102
RTVSPost2010PropOp46
 70
     1
102
RTVSPost2010Prop47
 90
       50
102
RTVSPost2010PropOp47
 70
     1
102
RTVSPost2010Prop48
 90
       50
102
RTVSPost2010PropOp48
 70
     1
102
RTVSPost2010Prop49
280
     0
102
RTVSPost2010PropOp49
 70
     1
102
RTVSPost2010Prop50
 90
       50
102
RTVSPost2010PropOp50
 70
     1
102
RTVSPost2010Prop51ColorIndex
 90
      256
102
RTVSPost2010Prop51ColorRGB
 90
-16777216
102
RTVSPost2010PropOp51
 70
     0
102
RTVSPost2010Prop52
140
1.0
102
RTVSPost2010PropOp52
 70
     0
102
RTVSPost2010Prop53
 90
        2
102
RTVSPost2010PropOp53
 70
     1
102
RTVSPost2010Prop54
  1
strokes_ogs.tif
102
RTVSPost2010PropOp54
 70
     1
102
RTVSPost2010Prop55
280
     0
102
RTVSPost2010PropOp55
 70
     1
102
RTVSPost2010Prop56
140
1.0
102
RTVSPost2010PropOp56
 70
     1
102
RTVSPost2010Prop57
140
1.0
102
RTVSPost2010PropOp57
 70
     1
  0
XRECORD
  5
F14B
102
{ACAD_REACTORS
330
F14A
102
}
330
F14A
100
AcDbXrecord
280
     1
102
RTVSPost2010Prop28
280
     0
102
RTVSPost2010PropOp28
 70
     1
102
RTVSPost2010Prop29
280
     1
102
RTVSPost2010PropOp29
 70
     1
102
RTVSPost2010Prop30
280
     1
102
RTVSPost2010PropOp30
 70
     1
102
RTVSPost2010Prop31
280
     0
102
RTVSPost2010PropOp31
 70
     1
102
RTVSPost2010Prop32
280
     0
102
RTVSPost2010PropOp32
 70
     1
102
RTVSPost2010Prop33
280
     0
102
RTVSPost2010PropOp33
 70
     1
102
RTVSPost2010Prop34
280
     0
102
RTVSPost2010PropOp34
 70
     1
102
RTVSPost2010Prop35
280
     0
102
RTVSPost2010PropOp35
 70
     1
102
RTVSPost2010Prop36
280
     0
102
RTVSPost2010PropOp36
 70
     1
102
RTVSPost2010Prop37
 90
       50
102
RTVSPost2010PropOp37
 70
     1
102
RTVSPost2010Prop38
140
0.0
102
RTVSPost2010PropOp38
 70
     1
102
RTVSPost2010Prop39
140
1.0
102
RTVSPost2010PropOp39
 70
     1
102
RTVSPost2010Prop40
 90
        0
102
RTVSPost2010PropOp40
 70
     1
102
RTVSPost2010Prop41ColorIndex
 90
       18
102
RTVSPost2010Prop41ColorRGB
 90
        0
102
RTVSPost2010PropOp41
 70
     1
102
RTVSPost2010Prop42
 90
       50
102
RTVSPost2010PropOp42
 70
     1
102
RTVSPost2010Prop43
 90
        3
102
RTVSPost2010PropOp43
 70
     1
102
RTVSPost2010Prop44ColorIndex
 90
        5
102
RTVSPost2010Prop44ColorRGB
 90
      255
102
RTVSPost2010PropOp44
 70
     1
102
RTVSPost2010Prop45
280
     0
102
RTVSPost2010PropOp45
 70
     1
102
RTVSPost2010Prop46
 90
       50
102
RTVSPost2010PropOp46
 70
     1
102
RTVSPost2010Prop47
 90
       50
102
RTVSPost2010PropOp47
 70
     1
102
RTVSPost2010Prop48
 90
       50
102
RTVSPost2010PropOp48
 70
     1
102
RTVSPost2010Prop49
280
     0
102
RTVSPost2010PropOp49
 70
     1
102
RTVSPost2010Prop50
 90
       50
102
RTVSPost2010PropOp50
 70
     1
102
RTVSPost2010Prop51ColorIndex
 90
      256
102
RTVSPost2010Prop51ColorRGB
 90
-16777216
102
RTVSPost2010PropOp51
 70
     0
102
RTVSPost2010Prop52
140
1.0
102
RTVSPost2010PropOp52
 70
     0
102
RTVSPost2010Prop53
 90
        2
102
RTVSPost2010PropOp53
 70
     1
102
RTVSPost2010Prop54
  1
strokes_ogs.tif
102
RTVSPost2010PropOp54
 70
     1
102
RTVSPost2010Prop55
280
     0
102
RTVSPost2010PropOp55
 70
     1
102
RTVSPost2010Prop56
140
1.0
102
RTVSPost2010PropOp56
 70
     1
102
RTVSPost2010Prop57
140
1.0
102
RTVSPost2010PropOp57
 70
     1
  0
XRECORD
  5
F153
102
{ACAD_REACTORS
330
F152
102
}
330
F152
100
AcDbXrecord
280
     1
102
RTVSPost2010Prop28
280
     0
102
RTVSPost2010PropOp28
 70
     1
102
RTVSPost2010Prop29
280
     1
102
RTVSPost2010PropOp29
 70
     1
102
RTVSPost2010Prop30
280
     1
102
RTVSPost2010PropOp30
 70
     1
102
RTVSPost2010Prop31
280
     0
102
RTVSPost2010PropOp31
 70
     1
102
RTVSPost2010Prop32
280
     0
102
RTVSPost2010PropOp32
 70
     1
102
RTVSPost2010Prop33
280
     0
102
RTVSPost2010PropOp33
 70
     1
102
RTVSPost2010Prop34
280
     0
102
RTVSPost2010PropOp34
 70
     1
102
RTVSPost2010Prop35
280
     0
102
RTVSPost2010PropOp35
 70
     1
102
RTVSPost2010Prop36
280
     0
102
RTVSPost2010PropOp36
 70
     1
102
RTVSPost2010Prop37
 90
       50
102
RTVSPost2010PropOp37
 70
     1
102
RTVSPost2010Prop38
140
0.0
102
RTVSPost2010PropOp38
 70
     1
102
RTVSPost2010Prop39
140
1.0
102
RTVSPost2010PropOp39
 70
     1
102
RTVSPost2010Prop40
 90
        0
102
RTVSPost2010PropOp40
 70
     1
102
RTVSPost2010Prop41ColorIndex
 90
       18
102
RTVSPost2010Prop41ColorRGB
 90
        0
102
RTVSPost2010PropOp41
 70
     1
102
RTVSPost2010Prop42
 90
       50
102
RTVSPost2010PropOp42
 70
     1
102
RTVSPost2010Prop43
 90
        3
102
RTVSPost2010PropOp43
 70
     1
102
RTVSPost2010Prop44ColorIndex
 90
        5
102
RTVSPost2010Prop44ColorRGB
 90
      255
102
RTVSPost2010PropOp44
 70
     1
102
RTVSPost2010Prop45
280
     0
102
RTVSPost2010PropOp45
 70
     1
102
RTVSPost2010Prop46
 90
       50
102
RTVSPost2010PropOp46
 70
     1
102
RTVSPost2010Prop47
 90
       50
102
RTVSPost2010PropOp47
 70
     1
102
RTVSPost2010Prop48
 90
       50
102
RTVSPost2010PropOp48
 70
     1
102
RTVSPost2010Prop49
280
     0
102
RTVSPost2010PropOp49
 70
     1
102
RTVSPost2010Prop50
 90
       50
102
RTVSPost2010PropOp50
 70
     1
102
RTVSPost2010Prop51ColorIndex
 90
      256
102
RTVSPost2010Prop51ColorRGB
 90
-16777216
102
RTVSPost2010PropOp51
 70
     0
102
RTVSPost2010Prop52
140
1.0
102
RTVSPost2010PropOp52
 70
     0
102
RTVSPost2010Prop53
 90
        2
102
RTVSPost2010PropOp53
 70
     1
102
RTVSPost2010Prop54
  1
strokes_ogs.tif
102
RTVSPost2010PropOp54
 70
     1
102
RTVSPost2010Prop55
280
     0
102
RTVSPost2010PropOp55
 70
     1
102
RTVSPost2010Prop56
140
1.0
102
RTVSPost2010PropOp56
 70
     1
102
RTVSPost2010Prop57
140
1.0
102
RTVSPost2010PropOp57
 70
     1
  0
XRECORD
  5
F145
102
{ACAD_REACTORS
330
F144
102
}
330
F144
100
AcDbXrecord
280
     1
102
RTVSPost2010Prop28
280
     0
102
RTVSPost2010PropOp28
 70
     1
102
RTVSPost2010Prop29
280
     1
102
RTVSPost2010PropOp29
 70
     1
102
RTVSPost2010Prop30
280
     1
102
RTVSPost2010PropOp30
 70
     1
102
RTVSPost2010Prop31
280
     0
102
RTVSPost2010PropOp31
 70
     1
102
RTVSPost2010Prop32
280
     0
102
RTVSPost2010PropOp32
 70
     1
102
RTVSPost2010Prop33
280
     0
102
RTVSPost2010PropOp33
 70
     1
102
RTVSPost2010Prop34
280
     0
102
RTVSPost2010PropOp34
 70
     1
102
RTVSPost2010Prop35
280
     0
102
RTVSPost2010PropOp35
 70
     1
102
RTVSPost2010Prop36
280
     0
102
RTVSPost2010PropOp36
 70
     1
102
RTVSPost2010Prop37
 90
       50
102
RTVSPost2010PropOp37
 70
     1
102
RTVSPost2010Prop38
140
0.0
102
RTVSPost2010PropOp38
 70
     1
102
RTVSPost2010Prop39
140
1.0
102
RTVSPost2010PropOp39
 70
     1
102
RTVSPost2010Prop40
 90
        0
102
RTVSPost2010PropOp40
 70
     1
102
RTVSPost2010Prop41ColorIndex
 90
       18
102
RTVSPost2010Prop41ColorRGB
 90
        0
102
RTVSPost2010PropOp41
 70
     1
102
RTVSPost2010Prop42
 90
       50
102
RTVSPost2010PropOp42
 70
     1
102
RTVSPost2010Prop43
 90
        3
102
RTVSPost2010PropOp43
 70
     1
102
RTVSPost2010Prop44ColorIndex
 90
        5
102
RTVSPost2010Prop44ColorRGB
 90
      255
102
RTVSPost2010PropOp44
 70
     1
102
RTVSPost2010Prop45
280
     0
102
RTVSPost2010PropOp45
 70
     1
102
RTVSPost2010Prop46
 90
       50
102
RTVSPost2010PropOp46
 70
     1
102
RTVSPost2010Prop47
 90
       50
102
RTVSPost2010PropOp47
 70
     1
102
RTVSPost2010Prop48
 90
       50
102
RTVSPost2010PropOp48
 70
     1
102
RTVSPost2010Prop49
280
     0
102
RTVSPost2010PropOp49
 70
     1
102
RTVSPost2010Prop50
 90
       50
102
RTVSPost2010PropOp50
 70
     1
102
RTVSPost2010Prop51ColorIndex
 90
      256
102
RTVSPost2010Prop51ColorRGB
 90
-16777216
102
RTVSPost2010PropOp51
 70
     0
102
RTVSPost2010Prop52
140
1.0
102
RTVSPost2010PropOp52
 70
     0
102
RTVSPost2010Prop53
 90
        2
102
RTVSPost2010PropOp53
 70
     1
102
RTVSPost2010Prop54
  1
strokes_ogs.tif
102
RTVSPost2010PropOp54
 70
     1
102
RTVSPost2010Prop55
280
     0
102
RTVSPost2010PropOp55
 70
     1
102
RTVSPost2010Prop56
140
1.0
102
RTVSPost2010PropOp56
 70
     1
102
RTVSPost2010Prop57
140
1.0
102
RTVSPost2010PropOp57
 70
     1
  0
XRECORD
  5
F149
102
{ACAD_REACTORS
330
F148
102
}
330
F148
100
AcDbXrecord
280
     1
102
RTVSPost2010Prop28
280
     0
102
RTVSPost2010PropOp28
 70
     1
102
RTVSPost2010Prop29
280
     1
102
RTVSPost2010PropOp29
 70
     1
102
RTVSPost2010Prop30
280
     1
102
RTVSPost2010PropOp30
 70
     1
102
RTVSPost2010Prop31
280
     0
102
RTVSPost2010PropOp31
 70
     1
102
RTVSPost2010Prop32
280
     0
102
RTVSPost2010PropOp32
 70
     1
102
RTVSPost2010Prop33
280
     0
102
RTVSPost2010PropOp33
 70
     1
102
RTVSPost2010Prop34
280
     0
102
RTVSPost2010PropOp34
 70
     1
102
RTVSPost2010Prop35
280
     0
102
RTVSPost2010PropOp35
 70
     1
102
RTVSPost2010Prop36
280
     0
102
RTVSPost2010PropOp36
 70
     1
102
RTVSPost2010Prop37
 90
       50
102
RTVSPost2010PropOp37
 70
     1
102
RTVSPost2010Prop38
140
0.0
102
RTVSPost2010PropOp38
 70
     1
102
RTVSPost2010Prop39
140
1.0
102
RTVSPost2010PropOp39
 70
     1
102
RTVSPost2010Prop40
 90
        0
102
RTVSPost2010PropOp40
 70
     1
102
RTVSPost2010Prop41ColorIndex
 90
       18
102
RTVSPost2010Prop41ColorRGB
 90
        0
102
RTVSPost2010PropOp41
 70
     1
102
RTVSPost2010Prop42
 90
       50
102
RTVSPost2010PropOp42
 70
     1
102
RTVSPost2010Prop43
 90
        3
102
RTVSPost2010PropOp43
 70
     1
102
RTVSPost2010Prop44ColorIndex
 90
        5
102
RTVSPost2010Prop44ColorRGB
 90
      255
102
RTVSPost2010PropOp44
 70
     1
102
RTVSPost2010Prop45
280
     0
102
RTVSPost2010PropOp45
 70
     1
102
RTVSPost2010Prop46
 90
       50
102
RTVSPost2010PropOp46
 70
     1
102
RTVSPost2010Prop47
 90
       50
102
RTVSPost2010PropOp47
 70
     1
102
RTVSPost2010Prop48
 90
       50
102
RTVSPost2010PropOp48
 70
     1
102
RTVSPost2010Prop49
280
     0
102
RTVSPost2010PropOp49
 70
     1
102
RTVSPost2010Prop50
 90
       50
102
RTVSPost2010PropOp50
 70
     1
102
RTVSPost2010Prop51ColorIndex
 90
      256
102
RTVSPost2010Prop51ColorRGB
 90
-16777216
102
RTVSPost2010PropOp51
 70
     0
102
RTVSPost2010Prop52
140
1.0
102
RTVSPost2010PropOp52
 70
     0
102
RTVSPost2010Prop53
 90
        2
102
RTVSPost2010PropOp53
 70
     1
102
RTVSPost2010Prop54
  1
strokes_ogs.tif
102
RTVSPost2010PropOp54
 70
     1
102
RTVSPost2010Prop55
280
     0
102
RTVSPost2010PropOp55
 70
     1
102
RTVSPost2010Prop56
140
1.0
102
RTVSPost2010PropOp56
 70
     1
102
RTVSPost2010Prop57
140
1.0
102
RTVSPost2010PropOp57
 70
     1
  0
XRECORD
  5
F159
102
{ACAD_REACTORS
330
F158
102
}
330
F158
100
AcDbXrecord
280
     1
102
RTVSPost2010Prop28
280
     0
102
RTVSPost2010PropOp28
 70
     1
102
RTVSPost2010Prop29
280
     1
102
RTVSPost2010PropOp29
 70
     1
102
RTVSPost2010Prop30
280
     1
102
RTVSPost2010PropOp30
 70
     1
102
RTVSPost2010Prop31
280
     0
102
RTVSPost2010PropOp31
 70
     1
102
RTVSPost2010Prop32
280
     0
102
RTVSPost2010PropOp32
 70
     1
102
RTVSPost2010Prop33
280
     0
102
RTVSPost2010PropOp33
 70
     1
102
RTVSPost2010Prop34
280
     0
102
RTVSPost2010PropOp34
 70
     1
102
RTVSPost2010Prop35
280
     0
102
RTVSPost2010PropOp35
 70
     1
102
RTVSPost2010Prop36
280
     0
102
RTVSPost2010PropOp36
 70
     1
102
RTVSPost2010Prop37
 90
       50
102
RTVSPost2010PropOp37
 70
     1
102
RTVSPost2010Prop38
140
0.0
102
RTVSPost2010PropOp38
 70
     1
102
RTVSPost2010Prop39
140
1.0
102
RTVSPost2010PropOp39
 70
     1
102
RTVSPost2010Prop40
 90
        0
102
RTVSPost2010PropOp40
 70
     1
102
RTVSPost2010Prop41ColorIndex
 90
       18
102
RTVSPost2010Prop41ColorRGB
 90
        0
102
RTVSPost2010PropOp41
 70
     1
102
RTVSPost2010Prop42
 90
       50
102
RTVSPost2010PropOp42
 70
     1
102
RTVSPost2010Prop43
 90
        3
102
RTVSPost2010PropOp43
 70
     1
102
RTVSPost2010Prop44ColorIndex
 90
        5
102
RTVSPost2010Prop44ColorRGB
 90
      255
102
RTVSPost2010PropOp44
 70
     1
102
RTVSPost2010Prop45
280
     0
102
RTVSPost2010PropOp45
 70
     1
102
RTVSPost2010Prop46
 90
       50
102
RTVSPost2010PropOp46
 70
     1
102
RTVSPost2010Prop47
 90
       50
102
RTVSPost2010PropOp47
 70
     1
102
RTVSPost2010Prop48
 90
       50
102
RTVSPost2010PropOp48
 70
     1
102
RTVSPost2010Prop49
280
     0
102
RTVSPost2010PropOp49
 70
     1
102
RTVSPost2010Prop50
 90
       50
102
RTVSPost2010PropOp50
 70
     1
102
RTVSPost2010Prop51ColorIndex
 90
      256
102
RTVSPost2010Prop51ColorRGB
 90
-16777216
102
RTVSPost2010PropOp51
 70
     0
102
RTVSPost2010Prop52
140
1.0
102
RTVSPost2010PropOp52
 70
     0
102
RTVSPost2010Prop53
 90
        2
102
RTVSPost2010PropOp53
 70
     1
102
RTVSPost2010Prop54
  1
strokes_ogs.tif
102
RTVSPost2010PropOp54
 70
     1
102
RTVSPost2010Prop55
280
     0
102
RTVSPost2010PropOp55
 70
     1
102
RTVSPost2010Prop56
140
1.0
102
RTVSPost2010PropOp56
 70
     1
102
RTVSPost2010Prop57
140
1.0
102
RTVSPost2010PropOp57
 70
     1
  0
XRECORD
  5
F151
102
{ACAD_REACTORS
330
F150
102
}
330
F150
100
AcDbXrecord
280
     1
102
RTVSPost2010Prop28
280
     0
102
RTVSPost2010PropOp28
 70
     1
102
RTVSPost2010Prop29
280
     1
102
RTVSPost2010PropOp29
 70
     1
102
RTVSPost2010Prop30
280
     1
102
RTVSPost2010PropOp30
 70
     1
102
RTVSPost2010Prop31
280
     0
102
RTVSPost2010PropOp31
 70
     1
102
RTVSPost2010Prop32
280
     0
102
RTVSPost2010PropOp32
 70
     1
102
RTVSPost2010Prop33
280
     0
102
RTVSPost2010PropOp33
 70
     1
102
RTVSPost2010Prop34
280
     0
102
RTVSPost2010PropOp34
 70
     1
102
RTVSPost2010Prop35
280
     0
102
RTVSPost2010PropOp35
 70
     1
102
RTVSPost2010Prop36
280
     0
102
RTVSPost2010PropOp36
 70
     1
102
RTVSPost2010Prop37
 90
       50
102
RTVSPost2010PropOp37
 70
     1
102
RTVSPost2010Prop38
140
0.0
102
RTVSPost2010PropOp38
 70
     1
102
RTVSPost2010Prop39
140
1.0
102
RTVSPost2010PropOp39
 70
     1
102
RTVSPost2010Prop40
 90
        0
102
RTVSPost2010PropOp40
 70
     1
102
RTVSPost2010Prop41ColorIndex
 90
       18
102
RTVSPost2010Prop41ColorRGB
 90
        0
102
RTVSPost2010PropOp41
 70
     1
102
RTVSPost2010Prop42
 90
       50
102
RTVSPost2010PropOp42
 70
     1
102
RTVSPost2010Prop43
 90
        3
102
RTVSPost2010PropOp43
 70
     1
102
RTVSPost2010Prop44ColorIndex
 90
        5
102
RTVSPost2010Prop44ColorRGB
 90
      255
102
RTVSPost2010PropOp44
 70
     1
102
RTVSPost2010Prop45
280
     0
102
RTVSPost2010PropOp45
 70
     1
102
RTVSPost2010Prop46
 90
       50
102
RTVSPost2010PropOp46
 70
     1
102
RTVSPost2010Prop47
 90
       50
102
RTVSPost2010PropOp47
 70
     1
102
RTVSPost2010Prop48
 90
       50
102
RTVSPost2010PropOp48
 70
     1
102
RTVSPost2010Prop49
280
     0
102
RTVSPost2010PropOp49
 70
     1
102
RTVSPost2010Prop50
 90
       50
102
RTVSPost2010PropOp50
 70
     1
102
RTVSPost2010Prop51ColorIndex
 90
      256
102
RTVSPost2010Prop51ColorRGB
 90
-16777216
102
RTVSPost2010PropOp51
 70
     0
102
RTVSPost2010Prop52
140
1.0
102
RTVSPost2010PropOp52
 70
     0
102
RTVSPost2010Prop53
 90
        2
102
RTVSPost2010PropOp53
 70
     1
102
RTVSPost2010Prop54
  1
strokes_ogs.tif
102
RTVSPost2010PropOp54
 70
     1
102
RTVSPost2010Prop55
280
     0
102
RTVSPost2010PropOp55
 70
     1
102
RTVSPost2010Prop56
140
1.0
102
RTVSPost2010PropOp56
 70
     1
102
RTVSPost2010Prop57
140
1.0
102
RTVSPost2010PropOp57
 70
     1
  0
XRECORD
  5
F135
102
{ACAD_REACTORS
330
F134
102
}
330
F134
100
AcDbXrecord
280
     1
102
RTVSPost2010Prop28
280
     0
102
RTVSPost2010PropOp28
 70
     1
102
RTVSPost2010Prop29
280
     1
102
RTVSPost2010PropOp29
 70
     1
102
RTVSPost2010Prop30
280
     1
102
RTVSPost2010PropOp30
 70
     1
102
RTVSPost2010Prop31
280
     0
102
RTVSPost2010PropOp31
 70
     1
102
RTVSPost2010Prop32
280
     0
102
RTVSPost2010PropOp32
 70
     1
102
RTVSPost2010Prop33
280
     0
102
RTVSPost2010PropOp33
 70
     1
102
RTVSPost2010Prop34
280
     0
102
RTVSPost2010PropOp34
 70
     1
102
RTVSPost2010Prop35
280
     0
102
RTVSPost2010PropOp35
 70
     1
102
RTVSPost2010Prop36
280
     0
102
RTVSPost2010PropOp36
 70
     1
102
RTVSPost2010Prop37
 90
       50
102
RTVSPost2010PropOp37
 70
     1
102
RTVSPost2010Prop38
140
0.0
102
RTVSPost2010PropOp38
 70
     1
102
RTVSPost2010Prop39
140
1.0
102
RTVSPost2010PropOp39
 70
     1
102
RTVSPost2010Prop40
 90
        0
102
RTVSPost2010PropOp40
 70
     1
102
RTVSPost2010Prop41ColorIndex
 90
       18
102
RTVSPost2010Prop41ColorRGB
 90
        0
102
RTVSPost2010PropOp41
 70
     1
102
RTVSPost2010Prop42
 90
       50
102
RTVSPost2010PropOp42
 70
     1
102
RTVSPost2010Prop43
 90
        3
102
RTVSPost2010PropOp43
 70
     1
102
RTVSPost2010Prop44ColorIndex
 90
        5
102
RTVSPost2010Prop44ColorRGB
 90
      255
102
RTVSPost2010PropOp44
 70
     1
102
RTVSPost2010Prop45
280
     0
102
RTVSPost2010PropOp45
 70
     1
102
RTVSPost2010Prop46
 90
       50
102
RTVSPost2010PropOp46
 70
     1
102
RTVSPost2010Prop47
 90
       50
102
RTVSPost2010PropOp47
 70
     1
102
RTVSPost2010Prop48
 90
       50
102
RTVSPost2010PropOp48
 70
     1
102
RTVSPost2010Prop49
280
     0
102
RTVSPost2010PropOp49
 70
     1
102
RTVSPost2010Prop50
 90
       50
102
RTVSPost2010PropOp50
 70
     1
102
RTVSPost2010Prop51ColorIndex
 90
      256
102
RTVSPost2010Prop51ColorRGB
 90
-16777216
102
RTVSPost2010PropOp51
 70
     0
102
RTVSPost2010Prop52
140
1.0
102
RTVSPost2010PropOp52
 70
     0
102
RTVSPost2010Prop53
 90
        2
102
RTVSPost2010PropOp53
 70
     1
102
RTVSPost2010Prop54
  1
strokes_ogs.tif
102
RTVSPost2010PropOp54
 70
     1
102
RTVSPost2010Prop55
280
     0
102
RTVSPost2010PropOp55
 70
     1
102
RTVSPost2010Prop56
140
1.0
102
RTVSPost2010PropOp56
 70
     1
102
RTVSPost2010Prop57
140
1.0
102
RTVSPost2010PropOp57
 70
     1
  0
XRECORD
  5
F137
102
{ACAD_REACTORS
330
F136
102
}
330
F136
100
AcDbXrecord
280
     1
102
RTVSPost2010Prop28
280
     0
102
RTVSPost2010PropOp28
 70
     1
102
RTVSPost2010Prop29
280
     1
102
RTVSPost2010PropOp29
 70
     1
102
RTVSPost2010Prop30
280
     1
102
RTVSPost2010PropOp30
 70
     1
102
RTVSPost2010Prop31
280
     0
102
RTVSPost2010PropOp31
 70
     1
102
RTVSPost2010Prop32
280
     0
102
RTVSPost2010PropOp32
 70
     1
102
RTVSPost2010Prop33
280
     0
102
RTVSPost2010PropOp33
 70
     1
102
RTVSPost2010Prop34
280
     0
102
RTVSPost2010PropOp34
 70
     1
102
RTVSPost2010Prop35
280
     0
102
RTVSPost2010PropOp35
 70
     1
102
RTVSPost2010Prop36
280
     0
102
RTVSPost2010PropOp36
 70
     1
102
RTVSPost2010Prop37
 90
       50
102
RTVSPost2010PropOp37
 70
     1
102
RTVSPost2010Prop38
140
0.0
102
RTVSPost2010PropOp38
 70
     1
102
RTVSPost2010Prop39
140
1.0
102
RTVSPost2010PropOp39
 70
     1
102
RTVSPost2010Prop40
 90
        0
102
RTVSPost2010PropOp40
 70
     1
102
RTVSPost2010Prop41ColorIndex
 90
       18
102
RTVSPost2010Prop41ColorRGB
 90
        0
102
RTVSPost2010PropOp41
 70
     1
102
RTVSPost2010Prop42
 90
       50
102
RTVSPost2010PropOp42
 70
     1
102
RTVSPost2010Prop43
 90
        3
102
RTVSPost2010PropOp43
 70
     1
102
RTVSPost2010Prop44ColorIndex
 90
        5
102
RTVSPost2010Prop44ColorRGB
 90
      255
102
RTVSPost2010PropOp44
 70
     1
102
RTVSPost2010Prop45
280
     0
102
RTVSPost2010PropOp45
 70
     1
102
RTVSPost2010Prop46
 90
       50
102
RTVSPost2010PropOp46
 70
     1
102
RTVSPost2010Prop47
 90
       50
102
RTVSPost2010PropOp47
 70
     1
102
RTVSPost2010Prop48
 90
       50
102
RTVSPost2010PropOp48
 70
     1
102
RTVSPost2010Prop49
280
     0
102
RTVSPost2010PropOp49
 70
     1
102
RTVSPost2010Prop50
 90
       50
102
RTVSPost2010PropOp50
 70
     1
102
RTVSPost2010Prop51ColorIndex
 90
      256
102
RTVSPost2010Prop51ColorRGB
 90
-16777216
102
RTVSPost2010PropOp51
 70
     0
102
RTVSPost2010Prop52
140
1.0
102
RTVSPost2010PropOp52
 70
     0
102
RTVSPost2010Prop53
 90
        2
102
RTVSPost2010PropOp53
 70
     1
102
RTVSPost2010Prop54
  1
strokes_ogs.tif
102
RTVSPost2010PropOp54
 70
     1
102
RTVSPost2010Prop55
280
     0
102
RTVSPost2010PropOp55
 70
     1
102
RTVSPost2010Prop56
140
1.0
102
RTVSPost2010PropOp56
 70
     1
102
RTVSPost2010Prop57
140
1.0
102
RTVSPost2010PropOp57
 70
     1
  0
XRECORD
  5
F139
102
{ACAD_REACTORS
330
F138
102
}
330
F138
100
AcDbXrecord
280
     1
102
RTVSPost2010Prop28
280
     0
102
RTVSPost2010PropOp28
 70
     1
102
RTVSPost2010Prop29
280
     1
102
RTVSPost2010PropOp29
 70
     1
102
RTVSPost2010Prop30
280
     1
102
RTVSPost2010PropOp30
 70
     1
102
RTVSPost2010Prop31
280
     0
102
RTVSPost2010PropOp31
 70
     1
102
RTVSPost2010Prop32
280
     0
102
RTVSPost2010PropOp32
 70
     1
102
RTVSPost2010Prop33
280
     0
102
RTVSPost2010PropOp33
 70
     1
102
RTVSPost2010Prop34
280
     0
102
RTVSPost2010PropOp34
 70
     1
102
RTVSPost2010Prop35
280
     0
102
RTVSPost2010PropOp35
 70
     1
102
RTVSPost2010Prop36
280
     0
102
RTVSPost2010PropOp36
 70
     1
102
RTVSPost2010Prop37
 90
       50
102
RTVSPost2010PropOp37
 70
     1
102
RTVSPost2010Prop38
140
0.0
102
RTVSPost2010PropOp38
 70
     1
102
RTVSPost2010Prop39
140
1.0
102
RTVSPost2010PropOp39
 70
     1
102
RTVSPost2010Prop40
 90
        0
102
RTVSPost2010PropOp40
 70
     1
102
RTVSPost2010Prop41ColorIndex
 90
       18
102
RTVSPost2010Prop41ColorRGB
 90
        0
102
RTVSPost2010PropOp41
 70
     1
102
RTVSPost2010Prop42
 90
       50
102
RTVSPost2010PropOp42
 70
     1
102
RTVSPost2010Prop43
 90
        3
102
RTVSPost2010PropOp43
 70
     1
102
RTVSPost2010Prop44ColorIndex
 90
        5
102
RTVSPost2010Prop44ColorRGB
 90
      255
102
RTVSPost2010PropOp44
 70
     1
102
RTVSPost2010Prop45
280
     0
102
RTVSPost2010PropOp45
 70
     1
102
RTVSPost2010Prop46
 90
       50
102
RTVSPost2010PropOp46
 70
     1
102
RTVSPost2010Prop47
 90
       50
102
RTVSPost2010PropOp47
 70
     1
102
RTVSPost2010Prop48
 90
       50
102
RTVSPost2010PropOp48
 70
     1
102
RTVSPost2010Prop49
280
     0
102
RTVSPost2010PropOp49
 70
     1
102
RTVSPost2010Prop50
 90
       50
102
RTVSPost2010PropOp50
 70
     1
102
RTVSPost2010Prop51ColorIndex
 90
      256
102
RTVSPost2010Prop51ColorRGB
 90
-16777216
102
RTVSPost2010PropOp51
 70
     0
102
RTVSPost2010Prop52
140
1.0
102
RTVSPost2010PropOp52
 70
     0
102
RTVSPost2010Prop53
 90
        2
102
RTVSPost2010PropOp53
 70
     1
102
RTVSPost2010Prop54
  1
strokes_ogs.tif
102
RTVSPost2010PropOp54
 70
     1
102
RTVSPost2010Prop55
280
     0
102
RTVSPost2010PropOp55
 70
     1
102
RTVSPost2010Prop56
140
1.0
102
RTVSPost2010PropOp56
 70
     1
102
RTVSPost2010Prop57
140
1.0
102
RTVSPost2010PropOp57
 70
     1
  0
XRECORD
  5
F13B
102
{ACAD_REACTORS
330
F13A
102
}
330
F13A
100
AcDbXrecord
280
     1
102
RTVSPost2010Prop28
280
     0
102
RTVSPost2010PropOp28
 70
     1
102
RTVSPost2010Prop29
280
     1
102
RTVSPost2010PropOp29
 70
     1
102
RTVSPost2010Prop30
280
     1
102
RTVSPost2010PropOp30
 70
     1
102
RTVSPost2010Prop31
280
     0
102
RTVSPost2010PropOp31
 70
     1
102
RTVSPost2010Prop32
280
     0
102
RTVSPost2010PropOp32
 70
     1
102
RTVSPost2010Prop33
280
     0
102
RTVSPost2010PropOp33
 70
     1
102
RTVSPost2010Prop34
280
     0
102
RTVSPost2010PropOp34
 70
     1
102
RTVSPost2010Prop35
280
     0
102
RTVSPost2010PropOp35
 70
     1
102
RTVSPost2010Prop36
280
     0
102
RTVSPost2010PropOp36
 70
     1
102
RTVSPost2010Prop37
 90
       50
102
RTVSPost2010PropOp37
 70
     1
102
RTVSPost2010Prop38
140
0.0
102
RTVSPost2010PropOp38
 70
     1
102
RTVSPost2010Prop39
140
1.0
102
RTVSPost2010PropOp39
 70
     1
102
RTVSPost2010Prop40
 90
        0
102
RTVSPost2010PropOp40
 70
     1
102
RTVSPost2010Prop41ColorIndex
 90
       18
102
RTVSPost2010Prop41ColorRGB
 90
        0
102
RTVSPost2010PropOp41
 70
     1
102
RTVSPost2010Prop42
 90
       50
102
RTVSPost2010PropOp42
 70
     1
102
RTVSPost2010Prop43
 90
        3
102
RTVSPost2010PropOp43
 70
     1
102
RTVSPost2010Prop44ColorIndex
 90
        5
102
RTVSPost2010Prop44ColorRGB
 90
      255
102
RTVSPost2010PropOp44
 70
     1
102
RTVSPost2010Prop45
280
     0
102
RTVSPost2010PropOp45
 70
     1
102
RTVSPost2010Prop46
 90
       50
102
RTVSPost2010PropOp46
 70
     1
102
RTVSPost2010Prop47
 90
       50
102
RTVSPost2010PropOp47
 70
     1
102
RTVSPost2010Prop48
 90
       50
102
RTVSPost2010PropOp48
 70
     1
102
RTVSPost2010Prop49
280
     0
102
RTVSPost2010PropOp49
 70
     1
102
RTVSPost2010Prop50
 90
       50
102
RTVSPost2010PropOp50
 70
     1
102
RTVSPost2010Prop51ColorIndex
 90
      256
102
RTVSPost2010Prop51ColorRGB
 90
-16777216
102
RTVSPost2010PropOp51
 70
     0
102
RTVSPost2010Prop52
140
1.0
102
RTVSPost2010PropOp52
 70
     0
102
RTVSPost2010Prop53
 90
        2
102
RTVSPost2010PropOp53
 70
     1
102
RTVSPost2010Prop54
  1
strokes_ogs.tif
102
RTVSPost2010PropOp54
 70
     1
102
RTVSPost2010Prop55
280
     0
102
RTVSPost2010PropOp55
 70
     1
102
RTVSPost2010Prop56
140
1.0
102
RTVSPost2010PropOp56
 70
     1
102
RTVSPost2010Prop57
140
1.0
102
RTVSPost2010PropOp57
 70
     1
  0
XRECORD
  5
F15D
102
{ACAD_REACTORS
330
F15C
102
}
330
F15C
100
AcDbXrecord
280
     1
102
RTVSPost2010Prop28
280
     0
102
RTVSPost2010PropOp28
 70
     1
102
RTVSPost2010Prop29
280
     1
102
RTVSPost2010PropOp29
 70
     1
102
RTVSPost2010Prop30
280
     1
102
RTVSPost2010PropOp30
 70
     1
102
RTVSPost2010Prop31
280
     0
102
RTVSPost2010PropOp31
 70
     1
102
RTVSPost2010Prop32
280
     0
102
RTVSPost2010PropOp32
 70
     1
102
RTVSPost2010Prop33
280
     0
102
RTVSPost2010PropOp33
 70
     1
102
RTVSPost2010Prop34
280
     0
102
RTVSPost2010PropOp34
 70
     1
102
RTVSPost2010Prop35
280
     0
102
RTVSPost2010PropOp35
 70
     1
102
RTVSPost2010Prop36
280
     0
102
RTVSPost2010PropOp36
 70
     1
102
RTVSPost2010Prop37
 90
       50
102
RTVSPost2010PropOp37
 70
     1
102
RTVSPost2010Prop38
140
0.0
102
RTVSPost2010PropOp38
 70
     1
102
RTVSPost2010Prop39
140
1.0
102
RTVSPost2010PropOp39
 70
     1
102
RTVSPost2010Prop40
 90
        0
102
RTVSPost2010PropOp40
 70
     1
102
RTVSPost2010Prop41ColorIndex
 90
       18
102
RTVSPost2010Prop41ColorRGB
 90
        0
102
RTVSPost2010PropOp41
 70
     1
102
RTVSPost2010Prop42
 90
       50
102
RTVSPost2010PropOp42
 70
     1
102
RTVSPost2010Prop43
 90
        3
102
RTVSPost2010PropOp43
 70
     1
102
RTVSPost2010Prop44ColorIndex
 90
        5
102
RTVSPost2010Prop44ColorRGB
 90
      255
102
RTVSPost2010PropOp44
 70
     1
102
RTVSPost2010Prop45
280
     0
102
RTVSPost2010PropOp45
 70
     1
102
RTVSPost2010Prop46
 90
       50
102
RTVSPost2010PropOp46
 70
     1
102
RTVSPost2010Prop47
 90
       50
102
RTVSPost2010PropOp47
 70
     1
102
RTVSPost2010Prop48
 90
       50
102
RTVSPost2010PropOp48
 70
     1
102
RTVSPost2010Prop49
280
     0
102
RTVSPost2010PropOp49
 70
     1
102
RTVSPost2010Prop50
 90
       50
102
RTVSPost2010PropOp50
 70
     1
102
RTVSPost2010Prop51ColorIndex
 90
      256
102
RTVSPost2010Prop51ColorRGB
 90
-16777216
102
RTVSPost2010PropOp51
 70
     0
102
RTVSPost2010Prop52
140
1.0
102
RTVSPost2010PropOp52
 70
     0
102
RTVSPost2010Prop53
 90
        2
102
RTVSPost2010PropOp53
 70
     1
102
RTVSPost2010Prop54
  1
strokes_ogs.tif
102
RTVSPost2010PropOp54
 70
     1
102
RTVSPost2010Prop55
280
     0
102
RTVSPost2010PropOp55
 70
     1
102
RTVSPost2010Prop56
140
1.0
102
RTVSPost2010PropOp56
 70
     1
102
RTVSPost2010Prop57
140
1.0
102
RTVSPost2010PropOp57
 70
     1
  0
XRECORD
  5
F155
102
{ACAD_REACTORS
330
F154
102
}
330
F154
100
AcDbXrecord
280
     1
102
RTVSPost2010Prop28
280
     0
102
RTVSPost2010PropOp28
 70
     1
102
RTVSPost2010Prop29
280
     1
102
RTVSPost2010PropOp29
 70
     1
102
RTVSPost2010Prop30
280
     1
102
RTVSPost2010PropOp30
 70
     1
102
RTVSPost2010Prop31
280
     0
102
RTVSPost2010PropOp31
 70
     1
102
RTVSPost2010Prop32
280
     0
102
RTVSPost2010PropOp32
 70
     1
102
RTVSPost2010Prop33
280
     0
102
RTVSPost2010PropOp33
 70
     1
102
RTVSPost2010Prop34
280
     0
102
RTVSPost2010PropOp34
 70
     1
102
RTVSPost2010Prop35
280
     0
102
RTVSPost2010PropOp35
 70
     1
102
RTVSPost2010Prop36
280
     0
102
RTVSPost2010PropOp36
 70
     1
102
RTVSPost2010Prop37
 90
       50
102
RTVSPost2010PropOp37
 70
     1
102
RTVSPost2010Prop38
140
0.0
102
RTVSPost2010PropOp38
 70
     1
102
RTVSPost2010Prop39
140
1.0
102
RTVSPost2010PropOp39
 70
     1
102
RTVSPost2010Prop40
 90
        0
102
RTVSPost2010PropOp40
 70
     1
102
RTVSPost2010Prop41ColorIndex
 90
       18
102
RTVSPost2010Prop41ColorRGB
 90
        0
102
RTVSPost2010PropOp41
 70
     1
102
RTVSPost2010Prop42
 90
       50
102
RTVSPost2010PropOp42
 70
     1
102
RTVSPost2010Prop43
 90
        3
102
RTVSPost2010PropOp43
 70
     1
102
RTVSPost2010Prop44ColorIndex
 90
        5
102
RTVSPost2010Prop44ColorRGB
 90
      255
102
RTVSPost2010PropOp44
 70
     1
102
RTVSPost2010Prop45
280
     0
102
RTVSPost2010PropOp45
 70
     1
102
RTVSPost2010Prop46
 90
       50
102
RTVSPost2010PropOp46
 70
     1
102
RTVSPost2010Prop47
 90
       50
102
RTVSPost2010PropOp47
 70
     1
102
RTVSPost2010Prop48
 90
       50
102
RTVSPost2010PropOp48
 70
     1
102
RTVSPost2010Prop49
280
     0
102
RTVSPost2010PropOp49
 70
     1
102
RTVSPost2010Prop50
 90
       50
102
RTVSPost2010PropOp50
 70
     1
102
RTVSPost2010Prop51ColorIndex
 90
      256
102
RTVSPost2010Prop51ColorRGB
 90
-16777216
102
RTVSPost2010PropOp51
 70
     0
102
RTVSPost2010Prop52
140
1.0
102
RTVSPost2010PropOp52
 70
     0
102
RTVSPost2010Prop53
 90
        2
102
RTVSPost2010PropOp53
 70
     1
102
RTVSPost2010Prop54
  1
strokes_ogs.tif
102
RTVSPost2010PropOp54
 70
     1
102
RTVSPost2010Prop55
280
     0
102
RTVSPost2010PropOp55
 70
     1
102
RTVSPost2010Prop56
140
1.0
102
RTVSPost2010PropOp56
 70
     1
102
RTVSPost2010Prop57
140
1.0
102
RTVSPost2010PropOp57
 70
     1
  0
XRECORD
  5
F14F
102
{ACAD_REACTORS
330
F14E
102
}
330
F14E
100
AcDbXrecord
280
     1
102
RTVSPost2010Prop28
280
     0
102
RTVSPost2010PropOp28
 70
     1
102
RTVSPost2010Prop29
280
     1
102
RTVSPost2010PropOp29
 70
     1
102
RTVSPost2010Prop30
280
     1
102
RTVSPost2010PropOp30
 70
     1
102
RTVSPost2010Prop31
280
     0
102
RTVSPost2010PropOp31
 70
     1
102
RTVSPost2010Prop32
280
     0
102
RTVSPost2010PropOp32
 70
     1
102
RTVSPost2010Prop33
280
     0
102
RTVSPost2010PropOp33
 70
     1
102
RTVSPost2010Prop34
280
     0
102
RTVSPost2010PropOp34
 70
     1
102
RTVSPost2010Prop35
280
     0
102
RTVSPost2010PropOp35
 70
     1
102
RTVSPost2010Prop36
280
     0
102
RTVSPost2010PropOp36
 70
     1
102
RTVSPost2010Prop37
 90
       50
102
RTVSPost2010PropOp37
 70
     1
102
RTVSPost2010Prop38
140
0.0
102
RTVSPost2010PropOp38
 70
     1
102
RTVSPost2010Prop39
140
1.0
102
RTVSPost2010PropOp39
 70
     1
102
RTVSPost2010Prop40
 90
        0
102
RTVSPost2010PropOp40
 70
     1
102
RTVSPost2010Prop41ColorIndex
 90
       18
102
RTVSPost2010Prop41ColorRGB
 90
        0
102
RTVSPost2010PropOp41
 70
     1
102
RTVSPost2010Prop42
 90
       50
102
RTVSPost2010PropOp42
 70
     1
102
RTVSPost2010Prop43
 90
        3
102
RTVSPost2010PropOp43
 70
     1
102
RTVSPost2010Prop44ColorIndex
 90
        5
102
RTVSPost2010Prop44ColorRGB
 90
      255
102
RTVSPost2010PropOp44
 70
     1
102
RTVSPost2010Prop45
280
     0
102
RTVSPost2010PropOp45
 70
     1
102
RTVSPost2010Prop46
 90
       50
102
RTVSPost2010PropOp46
 70
     1
102
RTVSPost2010Prop47
 90
       50
102
RTVSPost2010PropOp47
 70
     1
102
RTVSPost2010Prop48
 90
       50
102
RTVSPost2010PropOp48
 70
     1
102
RTVSPost2010Prop49
280
     0
102
RTVSPost2010PropOp49
 70
     1
102
RTVSPost2010Prop50
 90
       50
102
RTVSPost2010PropOp50
 70
     1
102
RTVSPost2010Prop51ColorIndex
 90
      256
102
RTVSPost2010Prop51ColorRGB
 90
-16777216
102
RTVSPost2010PropOp51
 70
     0
102
RTVSPost2010Prop52
140
1.0
102
RTVSPost2010PropOp52
 70
     0
102
RTVSPost2010Prop53
 90
        2
102
RTVSPost2010PropOp53
 70
     1
102
RTVSPost2010Prop54
  1
strokes_ogs.tif
102
RTVSPost2010PropOp54
 70
     1
102
RTVSPost2010Prop55
280
     0
102
RTVSPost2010PropOp55
 70
     1
102
RTVSPost2010Prop56
140
1.0
102
RTVSPost2010PropOp56
 70
     1
102
RTVSPost2010Prop57
140
1.0
102
RTVSPost2010PropOp57
 70
     1
  0
XRECORD
  5
F157
102
{ACAD_REACTORS
330
F156
102
}
330
F156
100
AcDbXrecord
280
     1
102
RTVSPost2010Prop28
280
     0
102
RTVSPost2010PropOp28
 70
     1
102
RTVSPost2010Prop29
280
     1
102
RTVSPost2010PropOp29
 70
     1
102
RTVSPost2010Prop30
280
     1
102
RTVSPost2010PropOp30
 70
     1
102
RTVSPost2010Prop31
280
     0
102
RTVSPost2010PropOp31
 70
     1
102
RTVSPost2010Prop32
280
     0
102
RTVSPost2010PropOp32
 70
     1
102
RTVSPost2010Prop33
280
     0
102
RTVSPost2010PropOp33
 70
     1
102
RTVSPost2010Prop34
280
     0
102
RTVSPost2010PropOp34
 70
     1
102
RTVSPost2010Prop35
280
     0
102
RTVSPost2010PropOp35
 70
     1
102
RTVSPost2010Prop36
280
     0
102
RTVSPost2010PropOp36
 70
     1
102
RTVSPost2010Prop37
 90
       50
102
RTVSPost2010PropOp37
 70
     1
102
RTVSPost2010Prop38
140
0.0
102
RTVSPost2010PropOp38
 70
     1
102
RTVSPost2010Prop39
140
1.0
102
RTVSPost2010PropOp39
 70
     1
102
RTVSPost2010Prop40
 90
        0
102
RTVSPost2010PropOp40
 70
     1
102
RTVSPost2010Prop41ColorIndex
 90
       18
102
RTVSPost2010Prop41ColorRGB
 90
        0
102
RTVSPost2010PropOp41
 70
     1
102
RTVSPost2010Prop42
 90
       50
102
RTVSPost2010PropOp42
 70
     1
102
RTVSPost2010Prop43
 90
        3
102
RTVSPost2010PropOp43
 70
     1
102
RTVSPost2010Prop44ColorIndex
 90
        5
102
RTVSPost2010Prop44ColorRGB
 90
      255
102
RTVSPost2010PropOp44
 70
     1
102
RTVSPost2010Prop45
280
     0
102
RTVSPost2010PropOp45
 70
     1
102
RTVSPost2010Prop46
 90
       50
102
RTVSPost2010PropOp46
 70
     1
102
RTVSPost2010Prop47
 90
       50
102
RTVSPost2010PropOp47
 70
     1
102
RTVSPost2010Prop48
 90
       50
102
RTVSPost2010PropOp48
 70
     1
102
RTVSPost2010Prop49
280
     0
102
RTVSPost2010PropOp49
 70
     1
102
RTVSPost2010Prop50
 90
       50
102
RTVSPost2010PropOp50
 70
     1
102
RTVSPost2010Prop51ColorIndex
 90
      256
102
RTVSPost2010Prop51ColorRGB
 90
-16777216
102
RTVSPost2010PropOp51
 70
     0
102
RTVSPost2010Prop52
140
1.0
102
RTVSPost2010PropOp52
 70
     0
102
RTVSPost2010Prop53
 90
        2
102
RTVSPost2010PropOp53
 70
     1
102
RTVSPost2010Prop54
  1
strokes_ogs.tif
102
RTVSPost2010PropOp54
 70
     1
102
RTVSPost2010Prop55
280
     0
102
RTVSPost2010PropOp55
 70
     1
102
RTVSPost2010Prop56
140
1.0
102
RTVSPost2010PropOp56
 70
     1
102
RTVSPost2010Prop57
140
1.0
102
RTVSPost2010PropOp57
 70
     1
  0
XRECORD
  5
F147
102
{ACAD_REACTORS
330
F146
102
}
330
F146
100
AcDbXrecord
280
     1
102
RTVSPost2010Prop28
280
     0
102
RTVSPost2010PropOp28
 70
     1
102
RTVSPost2010Prop29
280
     1
102
RTVSPost2010PropOp29
 70
     1
102
RTVSPost2010Prop30
280
     1
102
RTVSPost2010PropOp30
 70
     1
102
RTVSPost2010Prop31
280
     0
102
RTVSPost2010PropOp31
 70
     1
102
RTVSPost2010Prop32
280
     0
102
RTVSPost2010PropOp32
 70
     1
102
RTVSPost2010Prop33
280
     0
102
RTVSPost2010PropOp33
 70
     1
102
RTVSPost2010Prop34
280
     0
102
RTVSPost2010PropOp34
 70
     1
102
RTVSPost2010Prop35
280
     0
102
RTVSPost2010PropOp35
 70
     1
102
RTVSPost2010Prop36
280
     0
102
RTVSPost2010PropOp36
 70
     1
102
RTVSPost2010Prop37
 90
       50
102
RTVSPost2010PropOp37
 70
     1
102
RTVSPost2010Prop38
140
0.0
102
RTVSPost2010PropOp38
 70
     1
102
RTVSPost2010Prop39
140
1.0
102
RTVSPost2010PropOp39
 70
     1
102
RTVSPost2010Prop40
 90
        0
102
RTVSPost2010PropOp40
 70
     1
102
RTVSPost2010Prop41ColorIndex
 90
       18
102
RTVSPost2010Prop41ColorRGB
 90
        0
102
RTVSPost2010PropOp41
 70
     1
102
RTVSPost2010Prop42
 90
       50
102
RTVSPost2010PropOp42
 70
     1
102
RTVSPost2010Prop43
 90
        3
102
RTVSPost2010PropOp43
 70
     1
102
RTVSPost2010Prop44ColorIndex
 90
        5
102
RTVSPost2010Prop44ColorRGB
 90
      255
102
RTVSPost2010PropOp44
 70
     1
102
RTVSPost2010Prop45
280
     0
102
RTVSPost2010PropOp45
 70
     1
102
RTVSPost2010Prop46
 90
       50
102
RTVSPost2010PropOp46
 70
     1
102
RTVSPost2010Prop47
 90
       50
102
RTVSPost2010PropOp47
 70
     1
102
RTVSPost2010Prop48
 90
       50
102
RTVSPost2010PropOp48
 70
     1
102
RTVSPost2010Prop49
280
     0
102
RTVSPost2010PropOp49
 70
     1
102
RTVSPost2010Prop50
 90
       50
102
RTVSPost2010PropOp50
 70
     1
102
RTVSPost2010Prop51ColorIndex
 90
      256
102
RTVSPost2010Prop51ColorRGB
 90
-16777216
102
RTVSPost2010PropOp51
 70
     0
102
RTVSPost2010Prop52
140
1.0
102
RTVSPost2010PropOp52
 70
     0
102
RTVSPost2010Prop53
 90
        2
102
RTVSPost2010PropOp53
 70
     1
102
RTVSPost2010Prop54
  1
strokes_ogs.tif
102
RTVSPost2010PropOp54
 70
     1
102
RTVSPost2010Prop55
280
     0
102
RTVSPost2010PropOp55
 70
     1
102
RTVSPost2010Prop56
140
1.0
102
RTVSPost2010PropOp56
 70
     1
102
RTVSPost2010Prop57
140
1.0
102
RTVSPost2010PropOp57
 70
     1
  0
XRECORD
  5
F167
102
{ACAD_REACTORS
330
F166
102
}
330
F166
100
AcDbXrecord
280
     1
102
RTVSPost2010Prop28
280
     0
102
RTVSPost2010PropOp28
 70
     1
102
RTVSPost2010Prop29
280
     1
102
RTVSPost2010PropOp29
 70
     1
102
RTVSPost2010Prop30
280
     1
102
RTVSPost2010PropOp30
 70
     1
102
RTVSPost2010Prop31
280
     0
102
RTVSPost2010PropOp31
 70
     1
102
RTVSPost2010Prop32
280
     0
102
RTVSPost2010PropOp32
 70
     1
102
RTVSPost2010Prop33
280
     0
102
RTVSPost2010PropOp33
 70
     1
102
RTVSPost2010Prop34
280
     0
102
RTVSPost2010PropOp34
 70
     1
102
RTVSPost2010Prop35
280
     0
102
RTVSPost2010PropOp35
 70
     1
102
RTVSPost2010Prop36
280
     0
102
RTVSPost2010PropOp36
 70
     1
102
RTVSPost2010Prop37
 90
       50
102
RTVSPost2010PropOp37
 70
     1
102
RTVSPost2010Prop38
140
0.0
102
RTVSPost2010PropOp38
 70
     1
102
RTVSPost2010Prop39
140
1.0
102
RTVSPost2010PropOp39
 70
     1
102
RTVSPost2010Prop40
 90
        0
102
RTVSPost2010PropOp40
 70
     1
102
RTVSPost2010Prop41ColorIndex
 90
       18
102
RTVSPost2010Prop41ColorRGB
 90
        0
102
RTVSPost2010PropOp41
 70
     1
102
RTVSPost2010Prop42
 90
       50
102
RTVSPost2010PropOp42
 70
     1
102
RTVSPost2010Prop43
 90
        3
102
RTVSPost2010PropOp43
 70
     1
102
RTVSPost2010Prop44ColorIndex
 90
        5
102
RTVSPost2010Prop44ColorRGB
 90
      255
102
RTVSPost2010PropOp44
 70
     1
102
RTVSPost2010Prop45
280
     0
102
RTVSPost2010PropOp45
 70
     1
102
RTVSPost2010Prop46
 90
       50
102
RTVSPost2010PropOp46
 70
     1
102
RTVSPost2010Prop47
 90
       50
102
RTVSPost2010PropOp47
 70
     1
102
RTVSPost2010Prop48
 90
       50
102
RTVSPost2010PropOp48
 70
     1
102
RTVSPost2010Prop49
280
     0
102
RTVSPost2010PropOp49
 70
     1
102
RTVSPost2010Prop50
 90
       50
102
RTVSPost2010PropOp50
 70
     1
102
RTVSPost2010Prop51ColorIndex
 90
      256
102
RTVSPost2010Prop51ColorRGB
 90
-16777216
102
RTVSPost2010PropOp51
 70
     0
102
RTVSPost2010Prop52
140
1.0
102
RTVSPost2010PropOp52
 70
     0
102
RTVSPost2010Prop53
 90
        2
102
RTVSPost2010PropOp53
 70
     1
102
RTVSPost2010Prop54
  1
strokes_ogs.tif
102
RTVSPost2010PropOp54
 70
     1
102
RTVSPost2010Prop55
280
     0
102
RTVSPost2010PropOp55
 70
     1
102
RTVSPost2010Prop56
140
1.0
102
RTVSPost2010PropOp56
 70
     1
102
RTVSPost2010Prop57
140
1.0
102
RTVSPost2010PropOp57
 70
     1
  0
XRECORD
  5
F165
102
{ACAD_REACTORS
330
F164
102
}
330
F164
100
AcDbXrecord
280
     1
102
RTVSPost2010Prop28
280
     0
102
RTVSPost2010PropOp28
 70
     1
102
RTVSPost2010Prop29
280
     1
102
RTVSPost2010PropOp29
 70
     1
102
RTVSPost2010Prop30
280
     1
102
RTVSPost2010PropOp30
 70
     1
102
RTVSPost2010Prop31
280
     0
102
RTVSPost2010PropOp31
 70
     1
102
RTVSPost2010Prop32
280
     0
102
RTVSPost2010PropOp32
 70
     1
102
RTVSPost2010Prop33
280
     0
102
RTVSPost2010PropOp33
 70
     1
102
RTVSPost2010Prop34
280
     0
102
RTVSPost2010PropOp34
 70
     1
102
RTVSPost2010Prop35
280
     0
102
RTVSPost2010PropOp35
 70
     1
102
RTVSPost2010Prop36
280
     0
102
RTVSPost2010PropOp36
 70
     1
102
RTVSPost2010Prop37
 90
       50
102
RTVSPost2010PropOp37
 70
     1
102
RTVSPost2010Prop38
140
0.0
102
RTVSPost2010PropOp38
 70
     1
102
RTVSPost2010Prop39
140
1.0
102
RTVSPost2010PropOp39
 70
     1
102
RTVSPost2010Prop40
 90
        0
102
RTVSPost2010PropOp40
 70
     1
102
RTVSPost2010Prop41ColorIndex
 90
       18
102
RTVSPost2010Prop41ColorRGB
 90
        0
102
RTVSPost2010PropOp41
 70
     1
102
RTVSPost2010Prop42
 90
       50
102
RTVSPost2010PropOp42
 70
     1
102
RTVSPost2010Prop43
 90
        3
102
RTVSPost2010PropOp43
 70
     1
102
RTVSPost2010Prop44ColorIndex
 90
        5
102
RTVSPost2010Prop44ColorRGB
 90
      255
102
RTVSPost2010PropOp44
 70
     1
102
RTVSPost2010Prop45
280
     0
102
RTVSPost2010PropOp45
 70
     1
102
RTVSPost2010Prop46
 90
       50
102
RTVSPost2010PropOp46
 70
     1
102
RTVSPost2010Prop47
 90
       50
102
RTVSPost2010PropOp47
 70
     1
102
RTVSPost2010Prop48
 90
       50
102
RTVSPost2010PropOp48
 70
     1
102
RTVSPost2010Prop49
280
     0
102
RTVSPost2010PropOp49
 70
     1
102
RTVSPost2010Prop50
 90
       50
102
RTVSPost2010PropOp50
 70
     1
102
RTVSPost2010Prop51ColorIndex
 90
      256
102
RTVSPost2010Prop51ColorRGB
 90
-16777216
102
RTVSPost2010PropOp51
 70
     0
102
RTVSPost2010Prop52
140
1.0
102
RTVSPost2010PropOp52
 70
     0
102
RTVSPost2010Prop53
 90
        2
102
RTVSPost2010PropOp53
 70
     1
102
RTVSPost2010Prop54
  1
strokes_ogs.tif
102
RTVSPost2010PropOp54
 70
     1
102
RTVSPost2010Prop55
280
     0
102
RTVSPost2010PropOp55
 70
     1
102
RTVSPost2010Prop56
140
1.0
102
RTVSPost2010PropOp56
 70
     1
102
RTVSPost2010Prop57
140
1.0
102
RTVSPost2010PropOp57
 70
     1
  0
XRECORD
  5
F15F
102
{ACAD_REACTORS
330
F15E
102
}
330
F15E
100
AcDbXrecord
280
     1
102
RTVSPost2010Prop28
280
     0
102
RTVSPost2010PropOp28
 70
     1
102
RTVSPost2010Prop29
280
     1
102
RTVSPost2010PropOp29
 70
     1
102
RTVSPost2010Prop30
280
     1
102
RTVSPost2010PropOp30
 70
     1
102
RTVSPost2010Prop31
280
     0
102
RTVSPost2010PropOp31
 70
     1
102
RTVSPost2010Prop32
280
     0
102
RTVSPost2010PropOp32
 70
     1
102
RTVSPost2010Prop33
280
     0
102
RTVSPost2010PropOp33
 70
     1
102
RTVSPost2010Prop34
280
     0
102
RTVSPost2010PropOp34
 70
     1
102
RTVSPost2010Prop35
280
     0
102
RTVSPost2010PropOp35
 70
     1
102
RTVSPost2010Prop36
280
     0
102
RTVSPost2010PropOp36
 70
     1
102
RTVSPost2010Prop37
 90
       50
102
RTVSPost2010PropOp37
 70
     1
102
RTVSPost2010Prop38
140
0.0
102
RTVSPost2010PropOp38
 70
     1
102
RTVSPost2010Prop39
140
1.0
102
RTVSPost2010PropOp39
 70
     1
102
RTVSPost2010Prop40
 90
        0
102
RTVSPost2010PropOp40
 70
     1
102
RTVSPost2010Prop41ColorIndex
 90
       18
102
RTVSPost2010Prop41ColorRGB
 90
        0
102
RTVSPost2010PropOp41
 70
     1
102
RTVSPost2010Prop42
 90
       50
102
RTVSPost2010PropOp42
 70
     1
102
RTVSPost2010Prop43
 90
        3
102
RTVSPost2010PropOp43
 70
     1
102
RTVSPost2010Prop44ColorIndex
 90
        5
102
RTVSPost2010Prop44ColorRGB
 90
      255
102
RTVSPost2010PropOp44
 70
     1
102
RTVSPost2010Prop45
280
     0
102
RTVSPost2010PropOp45
 70
     1
102
RTVSPost2010Prop46
 90
       50
102
RTVSPost2010PropOp46
 70
     1
102
RTVSPost2010Prop47
 90
       50
102
RTVSPost2010PropOp47
 70
     1
102
RTVSPost2010Prop48
 90
       50
102
RTVSPost2010PropOp48
 70
     1
102
RTVSPost2010Prop49
280
     0
102
RTVSPost2010PropOp49
 70
     1
102
RTVSPost2010Prop50
 90
       50
102
RTVSPost2010PropOp50
 70
     1
102
RTVSPost2010Prop51ColorIndex
 90
      256
102
RTVSPost2010Prop51ColorRGB
 90
-16777216
102
RTVSPost2010PropOp51
 70
     0
102
RTVSPost2010Prop52
140
1.0
102
RTVSPost2010PropOp52
 70
     0
102
RTVSPost2010Prop53
 90
        2
102
RTVSPost2010PropOp53
 70
     1
102
RTVSPost2010Prop54
  1
strokes_ogs.tif
102
RTVSPost2010PropOp54
 70
     1
102
RTVSPost2010Prop55
280
     0
102
RTVSPost2010PropOp55
 70
     1
102
RTVSPost2010Prop56
140
1.0
102
RTVSPost2010PropOp56
 70
     1
102
RTVSPost2010Prop57
140
1.0
102
RTVSPost2010PropOp57
 70
     1
  0
XRECORD
  5
F161
102
{ACAD_REACTORS
330
F160
102
}
330
F160
100
AcDbXrecord
280
     1
102
RTVSPost2010Prop28
280
     0
102
RTVSPost2010PropOp28
 70
     1
102
RTVSPost2010Prop29
280
     1
102
RTVSPost2010PropOp29
 70
     1
102
RTVSPost2010Prop30
280
     1
102
RTVSPost2010PropOp30
 70
     1
102
RTVSPost2010Prop31
280
     0
102
RTVSPost2010PropOp31
 70
     1
102
RTVSPost2010Prop32
280
     0
102
RTVSPost2010PropOp32
 70
     1
102
RTVSPost2010Prop33
280
     0
102
RTVSPost2010PropOp33
 70
     1
102
RTVSPost2010Prop34
280
     0
102
RTVSPost2010PropOp34
 70
     1
102
RTVSPost2010Prop35
280
     0
102
RTVSPost2010PropOp35
 70
     1
102
RTVSPost2010Prop36
280
     0
102
RTVSPost2010PropOp36
 70
     1
102
RTVSPost2010Prop37
 90
       50
102
RTVSPost2010PropOp37
 70
     1
102
RTVSPost2010Prop38
140
0.0
102
RTVSPost2010PropOp38
 70
     1
102
RTVSPost2010Prop39
140
1.0
102
RTVSPost2010PropOp39
 70
     1
102
RTVSPost2010Prop40
 90
        0
102
RTVSPost2010PropOp40
 70
     1
102
RTVSPost2010Prop41ColorIndex
 90
       18
102
RTVSPost2010Prop41ColorRGB
 90
        0
102
RTVSPost2010PropOp41
 70
     1
102
RTVSPost2010Prop42
 90
       50
102
RTVSPost2010PropOp42
 70
     1
102
RTVSPost2010Prop43
 90
        3
102
RTVSPost2010PropOp43
 70
     1
102
RTVSPost2010Prop44ColorIndex
 90
        5
102
RTVSPost2010Prop44ColorRGB
 90
      255
102
RTVSPost2010PropOp44
 70
     1
102
RTVSPost2010Prop45
280
     0
102
RTVSPost2010PropOp45
 70
     1
102
RTVSPost2010Prop46
 90
       50
102
RTVSPost2010PropOp46
 70
     1
102
RTVSPost2010Prop47
 90
       50
102
RTVSPost2010PropOp47
 70
     1
102
RTVSPost2010Prop48
 90
       50
102
RTVSPost2010PropOp48
 70
     1
102
RTVSPost2010Prop49
280
     0
102
RTVSPost2010PropOp49
 70
     1
102
RTVSPost2010Prop50
 90
       50
102
RTVSPost2010PropOp50
 70
     1
102
RTVSPost2010Prop51ColorIndex
 90
      256
102
RTVSPost2010Prop51ColorRGB
 90
-16777216
102
RTVSPost2010PropOp51
 70
     0
102
RTVSPost2010Prop52
140
1.0
102
RTVSPost2010PropOp52
 70
     0
102
RTVSPost2010Prop53
 90
        2
102
RTVSPost2010PropOp53
 70
     1
102
RTVSPost2010Prop54
  1
strokes_ogs.tif
102
RTVSPost2010PropOp54
 70
     1
102
RTVSPost2010Prop55
280
     0
102
RTVSPost2010PropOp55
 70
     1
102
RTVSPost2010Prop56
140
1.0
102
RTVSPost2010PropOp56
 70
     1
102
RTVSPost2010Prop57
140
1.0
102
RTVSPost2010PropOp57
 70
     1
  0
XRECORD
  5
F14D
102
{ACAD_REACTORS
330
F14C
102
}
330
F14C
100
AcDbXrecord
280
     1
102
RTVSPost2010Prop28
280
     0
102
RTVSPost2010PropOp28
 70
     1
102
RTVSPost2010Prop29
280
     1
102
RTVSPost2010PropOp29
 70
     1
102
RTVSPost2010Prop30
280
     1
102
RTVSPost2010PropOp30
 70
     1
102
RTVSPost2010Prop31
280
     0
102
RTVSPost2010PropOp31
 70
     1
102
RTVSPost2010Prop32
280
     0
102
RTVSPost2010PropOp32
 70
     1
102
RTVSPost2010Prop33
280
     0
102
RTVSPost2010PropOp33
 70
     1
102
RTVSPost2010Prop34
280
     0
102
RTVSPost2010PropOp34
 70
     1
102
RTVSPost2010Prop35
280
     0
102
RTVSPost2010PropOp35
 70
     1
102
RTVSPost2010Prop36
280
     0
102
RTVSPost2010PropOp36
 70
     1
102
RTVSPost2010Prop37
 90
       50
102
RTVSPost2010PropOp37
 70
     1
102
RTVSPost2010Prop38
140
0.0
102
RTVSPost2010PropOp38
 70
     1
102
RTVSPost2010Prop39
140
1.0
102
RTVSPost2010PropOp39
 70
     1
102
RTVSPost2010Prop40
 90
        0
102
RTVSPost2010PropOp40
 70
     1
102
RTVSPost2010Prop41ColorIndex
 90
       18
102
RTVSPost2010Prop41ColorRGB
 90
        0
102
RTVSPost2010PropOp41
 70
     1
102
RTVSPost2010Prop42
 90
       50
102
RTVSPost2010PropOp42
 70
     1
102
RTVSPost2010Prop43
 90
        3
102
RTVSPost2010PropOp43
 70
     1
102
RTVSPost2010Prop44ColorIndex
 90
        5
102
RTVSPost2010Prop44ColorRGB
 90
      255
102
RTVSPost2010PropOp44
 70
     1
102
RTVSPost2010Prop45
280
     0
102
RTVSPost2010PropOp45
 70
     1
102
RTVSPost2010Prop46
 90
       50
102
RTVSPost2010PropOp46
 70
     1
102
RTVSPost2010Prop47
 90
       50
102
RTVSPost2010PropOp47
 70
     1
102
RTVSPost2010Prop48
 90
       50
102
RTVSPost2010PropOp48
 70
     1
102
RTVSPost2010Prop49
280
     0
102
RTVSPost2010PropOp49
 70
     1
102
RTVSPost2010Prop50
 90
       50
102
RTVSPost2010PropOp50
 70
     1
102
RTVSPost2010Prop51ColorIndex
 90
      256
102
RTVSPost2010Prop51ColorRGB
 90
-16777216
102
RTVSPost2010PropOp51
 70
     0
102
RTVSPost2010Prop52
140
1.0
102
RTVSPost2010PropOp52
 70
     0
102
RTVSPost2010Prop53
 90
        2
102
RTVSPost2010PropOp53
 70
     1
102
RTVSPost2010Prop54
  1
strokes_ogs.tif
102
RTVSPost2010PropOp54
 70
     1
102
RTVSPost2010Prop55
280
     0
102
RTVSPost2010PropOp55
 70
     1
102
RTVSPost2010Prop56
140
1.0
102
RTVSPost2010PropOp56
 70
     1
102
RTVSPost2010Prop57
140
1.0
102
RTVSPost2010PropOp57
 70
     1
  0
XRECORD
  5
F15B
102
{ACAD_REACTORS
330
F15A
102
}
330
F15A
100
AcDbXrecord
280
     1
102
RTVSPost2010Prop28
280
     0
102
RTVSPost2010PropOp28
 70
     1
102
RTVSPost2010Prop29
280
     1
102
RTVSPost2010PropOp29
 70
     1
102
RTVSPost2010Prop30
280
     1
102
RTVSPost2010PropOp30
 70
     1
102
RTVSPost2010Prop31
280
     0
102
RTVSPost2010PropOp31
 70
     1
102
RTVSPost2010Prop32
280
     0
102
RTVSPost2010PropOp32
 70
     1
102
RTVSPost2010Prop33
280
     0
102
RTVSPost2010PropOp33
 70
     1
102
RTVSPost2010Prop34
280
     0
102
RTVSPost2010PropOp34
 70
     1
102
RTVSPost2010Prop35
280
     0
102
RTVSPost2010PropOp35
 70
     1
102
RTVSPost2010Prop36
280
     0
102
RTVSPost2010PropOp36
 70
     1
102
RTVSPost2010Prop37
 90
       50
102
RTVSPost2010PropOp37
 70
     1
102
RTVSPost2010Prop38
140
0.0
102
RTVSPost2010PropOp38
 70
     1
102
RTVSPost2010Prop39
140
1.0
102
RTVSPost2010PropOp39
 70
     1
102
RTVSPost2010Prop40
 90
        0
102
RTVSPost2010PropOp40
 70
     1
102
RTVSPost2010Prop41ColorIndex
 90
       18
102
RTVSPost2010Prop41ColorRGB
 90
        0
102
RTVSPost2010PropOp41
 70
     1
102
RTVSPost2010Prop42
 90
       50
102
RTVSPost2010PropOp42
 70
     1
102
RTVSPost2010Prop43
 90
        3
102
RTVSPost2010PropOp43
 70
     1
102
RTVSPost2010Prop44ColorIndex
 90
        5
102
RTVSPost2010Prop44ColorRGB
 90
      255
102
RTVSPost2010PropOp44
 70
     1
102
RTVSPost2010Prop45
280
     0
102
RTVSPost2010PropOp45
 70
     1
102
RTVSPost2010Prop46
 90
       50
102
RTVSPost2010PropOp46
 70
     1
102
RTVSPost2010Prop47
 90
       50
102
RTVSPost2010PropOp47
 70
     1
102
RTVSPost2010Prop48
 90
       50
102
RTVSPost2010PropOp48
 70
     1
102
RTVSPost2010Prop49
280
     0
102
RTVSPost2010PropOp49
 70
     1
102
RTVSPost2010Prop50
 90
       50
102
RTVSPost2010PropOp50
 70
     1
102
RTVSPost2010Prop51ColorIndex
 90
      256
102
RTVSPost2010Prop51ColorRGB
 90
-16777216
102
RTVSPost2010PropOp51
 70
     0
102
RTVSPost2010Prop52
140
1.0
102
RTVSPost2010PropOp52
 70
     0
102
RTVSPost2010Prop53
 90
        2
102
RTVSPost2010PropOp53
 70
     1
102
RTVSPost2010Prop54
  1
strokes_ogs.tif
102
RTVSPost2010PropOp54
 70
     1
102
RTVSPost2010Prop55
280
     0
102
RTVSPost2010PropOp55
 70
     1
102
RTVSPost2010Prop56
140
1.0
102
RTVSPost2010PropOp56
 70
     1
102
RTVSPost2010Prop57
140
1.0
102
RTVSPost2010PropOp57
 70
     1
  0
XRECORD
  5
F163
102
{ACAD_REACTORS
330
F162
102
}
330
F162
100
AcDbXrecord
280
     1
102
RTVSPost2010Prop28
280
     0
102
RTVSPost2010PropOp28
 70
     1
102
RTVSPost2010Prop29
280
     1
102
RTVSPost2010PropOp29
 70
     1
102
RTVSPost2010Prop30
280
     1
102
RTVSPost2010PropOp30
 70
     1
102
RTVSPost2010Prop31
280
     0
102
RTVSPost2010PropOp31
 70
     1
102
RTVSPost2010Prop32
280
     0
102
RTVSPost2010PropOp32
 70
     1
102
RTVSPost2010Prop33
280
     0
102
RTVSPost2010PropOp33
 70
     1
102
RTVSPost2010Prop34
280
     0
102
RTVSPost2010PropOp34
 70
     1
102
RTVSPost2010Prop35
280
     0
102
RTVSPost2010PropOp35
 70
     1
102
RTVSPost2010Prop36
280
     0
102
RTVSPost2010PropOp36
 70
     1
102
RTVSPost2010Prop37
 90
       50
102
RTVSPost2010PropOp37
 70
     1
102
RTVSPost2010Prop38
140
0.0
102
RTVSPost2010PropOp38
 70
     1
102
RTVSPost2010Prop39
140
1.0
102
RTVSPost2010PropOp39
 70
     1
102
RTVSPost2010Prop40
 90
        0
102
RTVSPost2010PropOp40
 70
     1
102
RTVSPost2010Prop41ColorIndex
 90
       18
102
RTVSPost2010Prop41ColorRGB
 90
        0
102
RTVSPost2010PropOp41
 70
     1
102
RTVSPost2010Prop42
 90
       50
102
RTVSPost2010PropOp42
 70
     1
102
RTVSPost2010Prop43
 90
        3
102
RTVSPost2010PropOp43
 70
     1
102
RTVSPost2010Prop44ColorIndex
 90
        5
102
RTVSPost2010Prop44ColorRGB
 90
      255
102
RTVSPost2010PropOp44
 70
     1
102
RTVSPost2010Prop45
280
     0
102
RTVSPost2010PropOp45
 70
     1
102
RTVSPost2010Prop46
 90
       50
102
RTVSPost2010PropOp46
 70
     1
102
RTVSPost2010Prop47
 90
       50
102
RTVSPost2010PropOp47
 70
     1
102
RTVSPost2010Prop48
 90
       50
102
RTVSPost2010PropOp48
 70
     1
102
RTVSPost2010Prop49
280
     0
102
RTVSPost2010PropOp49
 70
     1
102
RTVSPost2010Prop50
 90
       50
102
RTVSPost2010PropOp50
 70
     1
102
RTVSPost2010Prop51ColorIndex
 90
      256
102
RTVSPost2010Prop51ColorRGB
 90
-16777216
102
RTVSPost2010PropOp51
 70
     0
102
RTVSPost2010Prop52
140
1.0
102
RTVSPost2010PropOp52
 70
     0
102
RTVSPost2010Prop53
 90
        2
102
RTVSPost2010PropOp53
 70
     1
102
RTVSPost2010Prop54
  1
strokes_ogs.tif
102
RTVSPost2010PropOp54
 70
     1
102
RTVSPost2010Prop55
280
     0
102
RTVSPost2010PropOp55
 70
     1
102
RTVSPost2010Prop56
140
1.0
102
RTVSPost2010PropOp56
 70
     1
102
RTVSPost2010Prop57
140
1.0
102
RTVSPost2010PropOp57
 70
     1
  0
ENDSEC
  0
EOF
