  0
SECTION
  2
HEADER
  9
$ACADVER
  1
AC1024
  9
$ACADMAINTVER
 70
   205
  9
$DWGCODEPAGE
  3
ANSI_932
  9
$LASTSAVEDBY
  1
it150
  9
$INSBASE
 10
0.0
 20
0.0
 30
0.0
  9
$EXTMIN
 10
230.7174685840125
 20
87.13412776659163
 30
-0.0015258207003583
  9
$EXTMAX
 10
373.0464237219287
 20
325.0269733864673
 30
0.0000000349246037
  9
$LIMMIN
 10
0.0
 20
0.0
  9
$LIMMAX
 10
297.0
 20
210.0
  9
$ORTHOMODE
 70
     0
  9
$REGENMODE
 70
     1
  9
$FILLMODE
 70
     1
  9
$QTEXTMODE
 70
     0
  9
$MIRRTEXT
 70
     0
  9
$LTSCALE
 40
0.4
  9
$ATTMODE
 70
     1
  9
$TEXTSIZE
 40
5.0
  9
$TRACEWID
 40
1.0
  9
$TEXTSTYLE
  7
Standard
  9
$CLAYER
  8
01_表面形状
  9
$CELTYPE
  6
ByLayer
  9
$CECOLOR
 62
   256
  9
$CELTSCALE
 40
1.0
  9
$DISPSILH
 70
     0
  9
$DIMSCALE
 40
1.0
  9
$DIMASZ
 40
2.5
  9
$DIMEXO
 40
1.0
  9
$DIMDLI
 40
10.0
  9
$DIMRND
 40
0.0
  9
$DIMDLE
 40
0.0
  9
$DIMEXE
 40
1.0
  9
$DIMTP
 40
0.1
  9
$DIMTM
 40
0.1
  9
$DIMTXT
 40
2.5
  9
$DIMCEN
 40
0.0
  9
$DIMTSZ
 40
0.0
  9
$DIMTOL
 70
     0
  9
$DIMLIM
 70
     0
  9
$DIMTIH
 70
     0
  9
$DIMTOH
 70
     0
  9
$DIMSE1
 70
     0
  9
$DIMSE2
 70
     0
  9
$DIMTAD
 70
     3
  9
$DIMZIN
 70
     8
  9
$DIMBLK
  1

  9
$DIMASO
 70
     1
  9
$DIMSHO
 70
     1
  9
$DIMPOST
  1

  9
$DIMAPOST
  1

  9
$DIMALT
 70
     0
  9
$DIMALTD
 70
     2
  9
$DIMALTF
 40
25.4
  9
$DIMLFAC
 40
1.0
  9
$DIMTOFL
 70
     1
  9
$DIMTVP
 40
0.0
  9
$DIMTIX
 70
     0
  9
$DIMSOXD
 70
     0
  9
$DIMSAH
 70
     0
  9
$DIMBLK1
  1

  9
$DIMBLK2
  1

  9
$DIMSTYLE
  2
部品図用_1：1
  9
$DIMCLRD
 70
   256
  9
$DIMCLRE
 70
   256
  9
$DIMCLRT
 70
   256
  9
$DIMTFAC
 40
0.7
  9
$DIMGAP
 40
1.0
  9
$DIMJUST
 70
     0
  9
$DIMSD1
 70
     0
  9
$DIMSD2
 70
     0
  9
$DIMTOLJ
 70
     0
  9
$DIMTZIN
 70
     0
  9
$DIMALTZ
 70
     0
  9
$DIMALTTZ
 70
     0
  9
$DIMUPT
 70
     0
  9
$DIMDEC
 70
     2
  9
$DIMTDEC
 70
     2
  9
$DIMALTU
 70
     2
  9
$DIMALTTD
 70
     2
  9
$DIMTXSTY
  7
Standard
  9
$DIMAUNIT
 70
     0
  9
$DIMADEC
 70
     2
  9
$DIMALTRND
 40
0.0
  9
$DIMAZIN
 70
     2
  9
$DIMDSEP
 70
    46
  9
$DIMATFIT
 70
     3
  9
$DIMFRAC
 70
     0
  9
$DIMLDRBLK
  1

  9
$DIMLUNIT
 70
     2
  9
$DIMLWD
 70
    -1
  9
$DIMLWE
 70
    -1
  9
$DIMTMOVE
 70
     0
  9
$DIMFXL
 40
1.0
  9
$DIMFXLON
 70
     0
  9
$DIMJOGANG
 40
0.7853981633974483
  9
$DIMTFILL
 70
     0
  9
$DIMTFILLCLR
 70
     0
  9
$DIMARCSYM
 70
     1
  9
$DIMLTYPE
  6
ByLayer
  9
$DIMLTEX1
  6
ByLayer
  9
$DIMLTEX2
  6
ByLayer
  9
$DIMTXTDIRECTION
 70
     0
  9
$LUNITS
 70
     2
  9
$LUPREC
 70
     2
  9
$SKETCHINC
 40
1.0
  9
$FILLETRAD
 40
0.0
  9
$AUNITS
 70
     1
  9
$AUPREC
 70
     3
  9
$MENU
  1
.
  9
$ELEVATION
 40
0.0
  9
$PELEVATION
 40
0.0
  9
$THICKNESS
 40
0.0
  9
$LIMCHECK
 70
     0
  9
$CHAMFERA
 40
0.0
  9
$CHAMFERB
 40
0.0
  9
$CHAMFERC
 40
0.0
  9
$CHAMFERD
 40
0.0
  9
$SKPOLY
 70
     0
  9
$TDCREATE
 40
2457987.640277778
  9
$TDUCREATE
 40
2457987.265277778
  9
$TDUPDATE
 40
2457998.418271134
  9
$TDUUPDATE
 40
2457998.043271135
  9
$TDINDWG
 40
0.0118158565
  9
$TDUSRTIMER
 40
0.0118158565
  9
$USRTIMER
 70
     1
  9
$ANGBASE
 50
0.0
  9
$ANGDIR
 70
     0
  9
$PDMODE
 70
     3
  9
$PDSIZE
 40
0.0
  9
$PLINEWID
 40
0.0
  9
$SPLFRAME
 70
     0
  9
$SPLINETYPE
 70
     6
  9
$SPLINESEGS
 70
     8
  9
$HANDSEED
  5
F16C
  9
$SURFTAB1
 70
     6
  9
$SURFTAB2
 70
     6
  9
$SURFTYPE
 70
     6
  9
$SURFU
 70
     6
  9
$SURFV
 70
     6
  9
$UCSBASE
  2

  9
$UCSNAME
  2

  9
$UCSORG
 10
0.0
 20
0.0
 30
0.0
  9
$UCSXDIR
 10
1.0
 20
0.0
 30
0.0
  9
$UCSYDIR
 10
0.0
 20
1.0
 30
0.0
  9
$UCSORTHOREF
  2

  9
$UCSORTHOVIEW
 70
     0
  9
$UCSORGTOP
 10
0.0
 20
0.0
 30
0.0
  9
$UCSORGBOTTOM
 10
0.0
 20
0.0
 30
0.0
  9
$UCSORGLEFT
 10
0.0
 20
0.0
 30
0.0
  9
$UCSORGRIGHT
 10
0.0
 20
0.0
 30
0.0
  9
$UCSORGFRONT
 10
0.0
 20
0.0
 30
0.0
  9
$UCSORGBACK
 10
0.0
 20
0.0
 30
0.0
  9
$PUCSBASE
  2

  9
$PUCSNAME
  2

  9
$PUCSORG
 10
0.0
 20
0.0
 30
0.0
  9
$PUCSXDIR
 10
1.0
 20
0.0
 30
0.0
  9
$PUCSYDIR
 10
0.0
 20
1.0
 30
0.0
  9
$PUCSORTHOREF
  2

  9
$PUCSORTHOVIEW
 70
     0
  9
$PUCSORGTOP
 10
0.0
 20
0.0
 30
0.0
  9
$PUCSORGBOTTOM
 10
0.0
 20
0.0
 30
0.0
  9
$PUCSORGLEFT
 10
0.0
 20
0.0
 30
0.0
  9
$PUCSORGRIGHT
 10
0.0
 20
0.0
 30
0.0
  9
$PUCSORGFRONT
 10
0.0
 20
0.0
 30
0.0
  9
$PUCSORGBACK
 10
0.0
 20
0.0
 30
0.0
  9
$USERI1
 70
     0
  9
$USERI2
 70
     0
  9
$USERI3
 70
     0
  9
$USERI4
 70
     0
  9
$USERI5
 70
     0
  9
$USERR1
 40
0.0
  9
$USERR2
 40
0.0
  9
$USERR3
 40
0.0
  9
$USERR4
 40
0.0
  9
$USERR5
 40
0.0
  9
$WORLDVIEW
 70
     1
  9
$SHADEDGE
 70
     3
  9
$SHADEDIF
 70
    70
  9
$TILEMODE
 70
     1
  9
$MAXACTVP
 70
    64
  9
$PINSBASE
 10
0.0
 20
0.0
 30
0.0
  9
$PLIMCHECK
 70
     0
  9
$PEXTMIN
 10
1.000000000000000E+20
 20
1.000000000000000E+20
 30
1.000000000000000E+20
  9
$PEXTMAX
 10
-1.000000000000000E+20
 20
-1.000000000000000E+20
 30
-1.000000000000000E+20
  9
$PLIMMIN
 10
-5.873748779296875
 20
-5.873749732971191
  9
$PLIMMAX
 10
291.1369018554688
 20
204.0995779037475
  9
$UNITMODE
 70
     0
  9
$VISRETAIN
 70
     1
  9
$PLINEGEN
 70
     0
  9
$PSLTSCALE
 70
     1
  9
$TREEDEPTH
 70
  3020
  9
$CMLSTYLE
  2
Standard
  9
$CMLJUST
 70
     0
  9
$CMLSCALE
 40
20.0
  9
$PROXYGRAPHICS
 70
     1
  9
$MEASUREMENT
 70
     1
  9
$CELWEIGHT
370
    -1
  9
$ENDCAPS
280
     0
  9
$JOINSTYLE
280
     0
  9
$LWDISPLAY
290
     0
  9
$INSUNITS
 70
     4
  9
$HYPERLINKBASE
  1

  9
$STYLESHEET
  1
monochrome.ctb
  9
$XEDIT
290
     1
  9
$CEPSNTYPE
380
     0
  9
$PSTYLEMODE
290
     1
  9
$FINGERPRINTGUID
  2
{57003DB5-EE24-A341-9700-AF92287ACF74}
  9
$VERSIONGUID
  2
{E13BBC1C-C6E3-4240-8433-E2B1450E8BBB}
  9
$EXTNAMES
290
     1
  9
$PSVPSCALE
 40
0.0
  9
$OLESTARTUP
290
     0
  9
$SORTENTS
280
   127
  9
$INDEXCTL
280
     0
  9
$HIDETEXT
280
     1
  9
$XCLIPFRAME
280
     2
  9
$HALOGAP
280
     0
  9
$OBSCOLOR
 70
   257
  9
$OBSLTYPE
280
     0
  9
$INTERSECTIONDISPLAY
280
     0
  9
$INTERSECTIONCOLOR
 70
   257
  9
$DIMASSOC
280
     2
  9
$PROJECTNAME
  1

  9
$CAMERADISPLAY
290
     0
  9
$LENSLENGTH
 40
50.0
  9
$CAMERAHEIGHT
 40
0.0
  9
$STEPSPERSEC
 40
2.0
  9
$STEPSIZE
 40
6.0
  9
$3DDWFPREC
 40
2.0
  9
$PSOLWIDTH
 40
0.25
  9
$PSOLHEIGHT
 40
4.0
  9
$LOFTANG1
 40
1.570796326794896
  9
$LOFTANG2
 40
1.570796326794896
  9
$LOFTMAG1
 40
0.0
  9
$LOFTMAG2
 40
0.0
  9
$LOFTPARAM
 70
     7
  9
$LOFTNORMALS
280
     1
  9
$LATITUDE
 40
37.795
  9
$LONGITUDE
 40
-122.394
  9
$NORTHDIRECTION
 40
0.0
  9
$TIMEZONE
 70
 -8000
  9
$LIGHTGLYPHDISPLAY
280
     1
  9
$TILEMODELIGHTSYNCH
280
     1
  9
$CMATERIAL
347
11
  9
$SOLIDHIST
280
     1
  9
$SHOWHIST
280
     1
  9
$DWFFRAME
280
     2
  9
$DGNFRAME
280
     0
  9
$REALWORLDSCALE
290
     1
  9
$INTERFERECOLOR
 62
     1
  9
$INTERFEREOBJVS
345
1E
  9
$INTERFEREVPVS
346
1B
  9
$CSHADOW
280
     0
  9
$SHADOWPLANELOCATION
 40
0.0
  0
ENDSEC
  0
SECTION
  2
CLASSES
  0
CLASS
  1
ACDBDICTIONARYWDFLT
  2
AcDbDictionaryWithDefault
  3
ObjectDBX Classes
 90
        0
 91
        1
280
     0
281
     0
  0
CLASS
  1
MATERIAL
  2
AcDbMaterial
  3
ObjectDBX Classes
 90
     1153
 91
        3
280
     0
281
     0
  0
CLASS
  1
VISUALSTYLE
  2
AcDbVisualStyle
  3
ObjectDBX Classes
 90
     4095
 91
       26
280
     0
281
     0
  0
CLASS
  1
TABLESTYLE
  2
AcDbTableStyle
  3
ObjectDBX Classes
 90
     4095
 91
        1
280
     0
281
     0
  0
CLASS
  1
DICTIONARYVAR
  2
AcDbDictionaryVar
  3
ObjectDBX Classes
 90
        0
 91
       14
280
     0
281
     0
  0
CLASS
  1
SORTENTSTABLE
  2
AcDbSortentsTable
  3
ObjectDBX Classes
 90
        0
 91
        2
280
     0
281
     0
  0
CLASS
  1
DIMASSOC
  2
AcDbDimAssoc
  3
"AcDbDimAssoc|Product Desc:     AcDim ARX App For Dimension|Company:          Autodesk, Inc.|WEB Address:      www.autodesk.com"
 90
        0
 91
        2
280
     0
281
     0
  0
CLASS
  1
SCALE
  2
AcDbScale
  3
ObjectDBX Classes
 90
     1153
 91
       17
280
     0
281
     0
  0
CLASS
  1
MLEADERSTYLE
  2
AcDbMLeaderStyle
  3
ACDB_MLEADERSTYLE_CLASS
 90
     4095
 91
        5
280
     0
281
     0
  0
CLASS
  1
CELLSTYLEMAP
  2
AcDbCellStyleMap
  3
ObjectDBX Classes
 90
     1152
 91
        1
280
     0
281
     0
  0
CLASS
  1
MULTILEADER
  2
AcDbMLeader
  3
ACDB_MLEADER_CLASS
 90
     1025
 91
        0
280
     0
281
     1
  0
CLASS
  1
ACAD_EVALUATION_GRAPH
  2
AcDbEvalGraph
  3
ObjectDBX Classes
 90
     1153
 91
        0
280
     0
281
     0
  0
CLASS
  1
ACAECUSTOBJ
  2
AcAeEditorObj
  3
AcAeEditorObj
 90
     1024
 91
        0
280
     0
281
     0
  0
CLASS
  1
PLOTSETTINGS
  2
AcDbPlotSettings
  3
ObjectDBX Classes
 90
        0
 91
        2
280
     0
281
     0
  0
CLASS
  1
ACDBSECTIONVIEWSTYLE
  2
AcDbSectionViewStyle
  3
ObjectDBX Classes
 90
     1025
 91
        1
280
     0
281
     0
  0
CLASS
  1
ACDBDETAILVIEWSTYLE
  2
AcDbDetailViewStyle
  3
ObjectDBX Classes
 90
     1025
 91
        1
280
     0
281
     0
  0
ENDSEC
  0
SECTION
  2
TABLES
  0
TABLE
  2
VPORT
  5
8
102
{ACAD_XDICTIONARY
360
366A
102
}
330
0
100
AcDbSymbolTable
 70
     1
  0
VPORT
  5
28
330
8
100
AcDbSymbolTableRecord
100
AcDbViewportTableRecord
  2
*Active
 70
     0
 10
0.0
 20
0.0
 11
1.0
 21
1.0
 12
301.8819461529706
 22
206.0805505765294
 13
0.0
 23
0.0
 14
10.0
 24
10.0
 15
10.0
 25
10.0
 16
0.0
 26
0.0
 36
1.0
 17
0.0
 27
0.0
 37
0.0
 40
239.7345966827391
 41
1.996124031007751
 42
50.0
 43
0.0
 44
0.0
 50
0.0
 51
0.0
 71
     0
 72
  1000
 73
     1
 74
     3
 75
     0
 76
     0
 77
     0
 78
     0
281
     0
 65
     1
110
0.0
120
0.0
130
0.0
111
1.0
121
0.0
131
0.0
112
0.0
122
1.0
132
0.0
 79
     0
146
0.0
348
1A
 60
     3
 61
     5
292
     1
282
     1
141
0.0
142
0.0
 63
   250
421
  3355443
1001
ACAD_NAV_VCDISPLAY
1070
     3
  0
ENDTAB
  0
TABLE
  2
LTYPE
  5
5
330
0
100
AcDbSymbolTable
 70
     4
  0
LTYPE
  5
29
330
5
100
AcDbSymbolTableRecord
100
AcDbLinetypeTableRecord
  2
ByBlock
 70
     0
  3

 72
    65
 73
     0
 40
0.0
  0
LTYPE
  5
2A
330
5
100
AcDbSymbolTableRecord
100
AcDbLinetypeTableRecord
  2
ByLayer
 70
     0
  3

 72
    65
 73
     0
 40
0.0
  0
LTYPE
  5
2B
330
5
100
AcDbSymbolTableRecord
100
AcDbLinetypeTableRecord
  2
Continuous
 70
     0
  3
Solid line
 72
    65
 73
     0
 40
0.0
  0
LTYPE
  5
1829
330
5
100
AcDbSymbolTableRecord
100
AcDbLinetypeTableRecord
  2
CENTER
 70
     0
  3
Center ____ _ ____ _ ____ _ ____ _ ____ _ ____
 72
    65
 73
     4
 40
50.8
 49
31.75
 74
     0
 49
-6.349999999999999
 74
     0
 49
6.349999999999999
 74
     0
 49
-6.349999999999999
 74
     0
  0
ENDTAB
  0
TABLE
  2
LAYER
  5
2
102
{ACAD_XDICTIONARY
360
81
102
}
330
0
100
AcDbSymbolTable
 70
    19
  0
LAYER
  5
25
102
{ACAD_XDICTIONARY
360
3620
102
}
330
2
100
AcDbSymbolTableRecord
100
AcDbLayerTableRecord
  2
0
 70
     0
 62
     7
  6
Continuous
370
    13
390
F
347
13
  0
LAYER
  5
75
102
{ACAD_XDICTIONARY
360
3622
102
}
330
2
100
AcDbSymbolTableRecord
100
AcDbLayerTableRecord
  2
01_表面形状
 70
     0
 62
     7
  6
Continuous
370
    35
390
F
347
13
1001
AcAecLayerStandard
1000

1000

  0
LAYER
  5
77
102
{ACAD_XDICTIONARY
360
3624
102
}
330
2
100
AcDbSymbolTableRecord
100
AcDbLayerTableRecord
  2
04_中心線
 70
     0
 62
     4
  6
CENTER
370
    18
390
F
347
13
1001
AcAecLayerStandard
1000

1000

  0
LAYER
  5
7C
102
{ACAD_XDICTIONARY
360
362E
102
}
330
2
100
AcDbSymbolTableRecord
100
AcDbLayerTableRecord
  2
12_文字
 70
     0
 62
     2
  6
Continuous
370
    25
390
F
347
13
1001
AcAecLayerStandard
1000

1000

  0
LAYER
  5
1EA
102
{ACAD_XDICTIONARY
360
93D8
102
}
330
2
100
AcDbSymbolTableRecord
100
AcDbLayerTableRecord
  2
Defpoints
 70
     0
 62
     7
  6
Continuous
290
     0
370
    -3
390
F
347
13
  0
ENDTAB
  0
TABLE
  2
STYLE
  5
3
330
0
100
AcDbSymbolTable
 70
     2
  0
STYLE
  5
26
330
3
100
AcDbSymbolTableRecord
100
AcDbTextStyleTableRecord
  2
Standard
 70
     0
 40
0.0
 41
1.0
 50
0.0
 71
     0
 42
5.0
  3
isocp.shx
  4
extfont2.shx
  0
STYLE
  5
E28E
330
3
100
AcDbSymbolTableRecord
100
AcDbTextStyleTableRecord
  2
MX_NOTE_STANDARD
 70
     0
 40
0.0
 41
1.0
 50
0.0
 71
     0
 42
3.299999999999999
  3
txt.shx
  4
extfont.shx
  0
ENDTAB
  0
TABLE
  2
VIEW
  5
6
330
0
100
AcDbSymbolTable
 70
     0
  0
ENDTAB
  0
TABLE
  2
UCS
  5
7
330
0
100
AcDbSymbolTable
 70
     0
  0
ENDTAB
  0
TABLE
  2
APPID
  5
9
330
0
100
AcDbSymbolTable
 70
    38
  0
APPID
  5
27
330
9
100
AcDbSymbolTableRecord
100
AcDbRegAppTableRecord
  2
ACAD
 70
     0
  0
APPID
  5
76
330
9
100
AcDbSymbolTableRecord
100
AcDbRegAppTableRecord
  2
AcAecLayerStandard
 70
     0
  0
APPID
  5
117
330
9
100
AcDbSymbolTableRecord
100
AcDbRegAppTableRecord
  2
ACAD_PSEXT
 70
     0
  0
APPID
  5
2A4
330
9
100
AcDbSymbolTableRecord
100
AcDbRegAppTableRecord
  2
ACAD_EXEMPT_FROM_CAD_STANDARDS
 70
     0
  0
APPID
  5
185C
330
9
100
AcDbSymbolTableRecord
100
AcDbRegAppTableRecord
  2
GENIUS_GENODEF_13
 70
     0
  0
APPID
  5
185D
330
9
100
AcDbSymbolTableRecord
100
AcDbRegAppTableRecord
  2
GENIUS_GENOBJ-N-CEN_13
 70
     0
  0
APPID
  5
185E
330
9
100
AcDbSymbolTableRecord
100
AcDbRegAppTableRecord
  2
GENIUS_GENCEN_19
 70
     0
  0
APPID
  5
185F
330
9
100
AcDbSymbolTableRecord
100
AcDbRegAppTableRecord
  2
GENIUS_GENTRA_14
 70
     0
  0
APPID
  5
1860
330
9
100
AcDbSymbolTableRecord
100
AcDbRegAppTableRecord
  2
GENIUS_GENOREF_13
 70
     0
  0
APPID
  5
1861
330
9
100
AcDbSymbolTableRecord
100
AcDbRegAppTableRecord
  2
GENIUS_GENSCREG_15
 70
     0
  0
APPID
  5
1862
330
9
100
AcDbSymbolTableRecord
100
AcDbRegAppTableRecord
  2
GENIUS_GENOBJ-N-SDF_13
 70
     0
  0
APPID
  5
1863
330
9
100
AcDbSymbolTableRecord
100
AcDbRegAppTableRecord
  2
GENIUS_GENOBJ-N-LIB_13
 70
     0
  0
APPID
  5
1864
330
9
100
AcDbSymbolTableRecord
100
AcDbRegAppTableRecord
  2
GENIUS_GENOBJ-N-RSBK_13
 70
     0
  0
APPID
  5
1865
330
9
100
AcDbSymbolTableRecord
100
AcDbRegAppTableRecord
  2
GENIUS_GENSCALE_13
 70
     0
  0
APPID
  5
1866
330
9
100
AcDbSymbolTableRecord
100
AcDbRegAppTableRecord
  2
GENIUS_AMGTXT_16
 70
     0
  0
APPID
  5
1867
330
9
100
AcDbSymbolTableRecord
100
AcDbRegAppTableRecord
  2
GENIUS_GENFIL_13
 70
     0
  0
APPID
  5
1868
330
9
100
AcDbSymbolTableRecord
100
AcDbRegAppTableRecord
  2
GENIUS_GENOBJ-N-CHA_13
 70
     0
  0
APPID
  5
1869
330
9
100
AcDbSymbolTableRecord
100
AcDbRegAppTableRecord
  2
GENIUS_GENOBJ-N-FIL_13
 70
     0
  0
APPID
  5
186A
330
9
100
AcDbSymbolTableRecord
100
AcDbRegAppTableRecord
  2
GENIUS_GENDTOL_13
 70
     0
  0
APPID
  5
186B
330
9
100
AcDbSymbolTableRecord
100
AcDbRegAppTableRecord
  2
ACAD_DIMASSOC_DIMLFAC
 70
     0
  0
APPID
  5
186C
330
9
100
AcDbSymbolTableRecord
100
AcDbRegAppTableRecord
  2
ACAD_DIMASSOC_CALC_DIMLFAC
 70
     0
  0
APPID
  5
186D
330
9
100
AcDbSymbolTableRecord
100
AcDbRegAppTableRecord
  2
ACAD_DIMASSOC_OVERRIDDEN_DIMLFAC
 70
     0
  0
APPID
  5
186E
330
9
100
AcDbSymbolTableRecord
100
AcDbRegAppTableRecord
  2
GENIUS_GENOBJ-N-ZOO_13
 70
     0
  0
APPID
  5
186F
330
9
100
AcDbSymbolTableRecord
100
AcDbRegAppTableRecord
  2
GENIUS_GENZOO_16
 70
     0
  0
APPID
  5
1870
330
9
100
AcDbSymbolTableRecord
100
AcDbRegAppTableRecord
  2
ACAD_DSTYLE_DIMJAG
 70
     0
  0
APPID
  5
1871
330
9
100
AcDbSymbolTableRecord
100
AcDbRegAppTableRecord
  2
ACAD_DSTYLE_DIMTALN
 70
     0
  0
APPID
  5
1872
330
9
100
AcDbSymbolTableRecord
100
AcDbRegAppTableRecord
  2
ACAD_DSTYLE_DIMBREAK
 70
     0
  0
APPID
  5
3696
330
9
100
AcDbSymbolTableRecord
100
AcDbRegAppTableRecord
  2
ACAD_DSTYLE_DIMARC_LENGTH_SYMBOL
 70
     0
  0
APPID
  5
3697
330
9
100
AcDbSymbolTableRecord
100
AcDbRegAppTableRecord
  2
ACAD_DSTYLE_DIMJOGGED_JOGANGLE_SYMBOL
 70
     0
  0
APPID
  5
3698
330
9
100
AcDbSymbolTableRecord
100
AcDbRegAppTableRecord
  2
ACAD_DSTYLE_DIM_LINETYPE
 70
     0
  0
APPID
  5
3699
330
9
100
AcDbSymbolTableRecord
100
AcDbRegAppTableRecord
  2
ACAD_DSTYLE_DIM_EXT1_LINETYPE
 70
     0
  0
APPID
  5
369A
330
9
100
AcDbSymbolTableRecord
100
AcDbRegAppTableRecord
  2
ACAD_DSTYLE_DIM_EXT2_LINETYPE
 70
     0
  0
APPID
  5
369D
330
9
100
AcDbSymbolTableRecord
100
AcDbRegAppTableRecord
  2
AcDbAttr
 70
     0
  0
APPID
  5
36A6
330
9
100
AcDbSymbolTableRecord
100
AcDbRegAppTableRecord
  2
ACAD_MLEADERVER
 70
     0
  0
APPID
  5
3D75
330
9
100
AcDbSymbolTableRecord
100
AcDbRegAppTableRecord
  2
ACAD_DSTYLE_DIMRADIAL_EXTENSION
 70
     0
  0
APPID
  5
75B4
330
9
100
AcDbSymbolTableRecord
100
AcDbRegAppTableRecord
  2
AcadAnnoPO
 70
     0
  0
APPID
  5
7838
330
9
100
AcDbSymbolTableRecord
100
AcDbRegAppTableRecord
  2
ACAUTHENVIRON
 70
     0
  0
APPID
  5
DBA2
330
9
100
AcDbSymbolTableRecord
100
AcDbRegAppTableRecord
  2
ACAD_NAV_VCDISPLAY
 70
     0
  0
ENDTAB
  0
TABLE
  2
DIMSTYLE
  5
A
330
0
100
AcDbSymbolTable
 70
     5
100
AcDbDimStyleTable
 71
     1
340
185B
  0
DIMSTYLE
105
185B
330
A
100
AcDbSymbolTableRecord
100
AcDbDimStyleTableRecord
  2
部品図用_1：1
 70
     0
 41
2.5
 42
1.0
 43
10.0
 44
1.0
 47
0.1
 48
0.1
 73
     0
 74
     0
 77
     3
 78
     8
 79
     2
 90
     1
140
2.5
141
0.0
146
0.7
147
1.0
172
     1
176
   256
177
   256
178
   256
179
     2
271
     2
272
     2
283
     0
340
26
345
2A
346
2A
347
2A
371
    -1
372
    -1
1001
ACAD_DSTYLE_DIMBREAK
1070
   391
1040
3.5
1001
ACAD_DSTYLE_DIMJAG
1070
   388
1040
1.5
1001
ACAD_DSTYLE_DIMTALN
1070
   392
1070
     0
  0
DIMSTYLE
105
94C8
330
A
100
AcDbSymbolTableRecord
100
AcDbDimStyleTableRecord
  2
STANDARD
 70
     0
 73
     0
 74
     0
 77
     1
172
     1
271
     0
272
     0
289
     0
340
26
341
93E9
342
93E9
  0
ENDTAB
  0
TABLE
  2
BLOCK_RECORD
  5
1
330
0
100
AcDbSymbolTable
 70
    89
  0
BLOCK_RECORD
  5
37
102
{ACAD_XDICTIONARY
360
48
102
}
330
1
100
AcDbSymbolTableRecord
100
AcDbBlockTableRecord
  2
*Model_Space
340
3A
 70
     0
280
     1
281
     0
  0
BLOCK_RECORD
  5
33
102
{ACAD_XDICTIONARY
360
B96
102
}
330
1
100
AcDbSymbolTableRecord
100
AcDbBlockTableRecord
  2
*Paper_Space
340
36
 70
     0
280
     1
281
     0
  0
BLOCK_RECORD
  5
93E9
330
1
100
AcDbSymbolTableRecord
100
AcDbBlockTableRecord
  2
_Open30
340
0
 70
     0
280
     1
281
     0
  0
BLOCK_RECORD
  5
B85F
330
1
100
AcDbSymbolTableRecord
100
AcDbBlockTableRecord
  2
寸法表--単位文字
340
0
310
2800000020000000200000000100080000000000000400000000000000000000000000000000000000000000000080000080000000808000800000008000800080800000C0C0C000C0DCC000F0CAA6000020400000206000002080000020A0000020C0000020E00000400000004020000040400000406000004080000040A0
310
000040C0000040E00000600000006020000060400000606000006080000060A0000060C0000060E00000800000008020000080400000806000008080000080A0000080C0000080E00000A0000000A0200000A0400000A0600000A0800000A0A00000A0C00000A0E00000C0000000C0200000C0400000C0600000C0800000C0
310
A00000C0C00000C0E00000E0000000E0200000E0400000E0600000E0800000E0A00000E0C00000E0E00040000000400020004000400040006000400080004000A0004000C0004000E00040200000402020004020400040206000402080004020A0004020C0004020E000404000004040200040404000404060004040800040
310
40A0004040C0004040E00040600000406020004060400040606000406080004060A0004060C0004060E00040800000408020004080400040806000408080004080A0004080C0004080E00040A0000040A0200040A0400040A0600040A0800040A0A00040A0C00040A0E00040C0000040C0200040C0400040C0600040C08000
310
40C0A00040C0C00040C0E00040E0000040E0200040E0400040E0600040E0800040E0A00040E0C00040E0E00080000000800020008000400080006000800080008000A0008000C0008000E00080200000802020008020400080206000802080008020A0008020C0008020E00080400000804020008040400080406000804080
310
008040A0008040C0008040E00080600000806020008060400080606000806080008060A0008060C0008060E00080800000808020008080400080806000808080008080A0008080C0008080E00080A0000080A0200080A0400080A0600080A0800080A0A00080A0C00080A0E00080C0000080C0200080C0400080C0600080C0
310
800080C0A00080C0C00080C0E00080E0000080E0200080E0400080E0600080E0800080E0A00080E0C00080E0E000C0000000C0002000C0004000C0006000C0008000C000A000C000C000C000E000C0200000C0202000C0204000C0206000C0208000C020A000C020C000C020E000C0400000C0402000C0404000C0406000C0
310
408000C040A000C040C000C040E000C0600000C0602000C0604000C0606000C0608000C060A000C060C000C060E000C0800000C0802000C0804000C0806000C0808000C080A000C080C000C080E000C0A00000C0A02000C0A04000C0A06000C0A08000C0A0A000C0A0C000C0A0E000C0C00000C0C02000C0C04000C0C06000
310
C0C08000C0C0A000F0FBFF00A4A0A000808080000000FF0000FF000000FFFF00FF000000FF00FF00FFFF0000FFFFFF0000000000000000000000000000000000000000000000000000000000000000000000000000000000000000000000000000000000000000000000000000000000000000000000000000000000000000
310
00000000000000000000000000000000000000000000000000000000000000000000000000000000000000000000000000000000000000000000000000000000000000000000000000000000000000000000000000000000000000000000000000000000000000000000000000000000000000000000000000000000000000
310
000000000000000000000000000000000000000000000000000000000000000000000000000000000000000000000000000000000000000000000000000000000000000000000000000000000000000000000000000000000000FB00000000000000000000FB0000FBFBFBFBFBFBFBFBFB000000000000000000FB00000000
310
000000000000FB00000000FB0000FB0000000000FBFBFBFBFBFBFBFBFBFBFBFBFBFB00000000FB00000000FB0000FB000000000000000000000000FB00000000000000000000FB00000000FB0000FB00000000000000FBFBFBFBFBFBFBFBFBFB000000000000FB00000000FB0000FB00000000000000FB00000000FB000000
310
FB000000000000FB00000000FB0000FB00000000000000FB00000000FB000000FB000000000000FB000000FB00000000FB000000000000FBFBFBFBFBFBFBFBFBFB00000000FB00FB000000FB00000000FB000000000000FB00000000FB000000FB0000000000FBFB000000FB00000000FB000000000000FB00000000FB0000
310
00FB0000000000FBFB000000FB00000000FB000000000000FBFBFBFBFBFBFBFBFBFB000000000000FB0000FBFBFBFBFBFBFBFB00000000000000FB00FB0000FB000000000000000000FB0000000000FB000000000000000000FB0000FB000000FB000000000000000000FB00000000FB0000000000000000FB0000FB000000
310
00FB00000000000000000000FB000000FB0000000000000000000000000000000000000000000000000000000000000000000000000000000000000000000000000000000000000000000000000000000000000000000000000000000000000000000000000000000000000000000000000000000000000000000000000000
310
00000000000000000000000000000000000000000000000000000000000000000000000000000000000000000000000000000000000000000000000000000000000000000000000000000000000000000000000000000000000000000000000000000000000000000000000000000000000000000000000000000000000000
310
0000000000000000000000000000000000000000000000000000000000000000000000000000000000000000000000000000000000000000
102
{BLKREFS
331
BD3D
102
}
 70
     4
280
     1
281
     0
  0
ENDTAB
  0
ENDSEC
  0
SECTION
  2
BLOCKS
  0
BLOCK
  5
38
330
37
100
AcDbEntity
  8
0
100
AcDbBlockBegin
  2
*Model_Space
 70
     2
 10
0.0
 20
0.0
 30
0.0
  3
*Model_Space
  1

  0
ENDBLK
  5
39
330
37
100
AcDbEntity
  8
0
100
AcDbBlockEnd
  0
BLOCK
  5
34
330
33
100
AcDbEntity
 67
     1
  8
0
100
AcDbBlockBegin
  2
*Paper_Space
 70
     0
 10
0.0
 20
0.0
 30
0.0
  3
*Paper_Space
  1

  0
ENDBLK
  5
35
330
33
100
AcDbEntity
 67
     1
  8
0
100
AcDbBlockEnd
  0
BLOCK
  5
93EA
330
93E9
100
AcDbEntity
  8
0
100
AcDbBlockBegin
  2
_Open30
 70
     0
 10
0.0
 20
0.0
 30
0.0
  3
_Open30
  1

  0
LINE
  5
93EB
330
93E9
100
AcDbEntity
  8
0
  6
ByBlock
 62
     0
370
    -2
100
AcDbLine
 10
-1.0
 20
0.26794919
 30
0.0
 11
0.0
 21
0.0
 31
0.0
  0
LINE
  5
93EC
330
93E9
100
AcDbEntity
  8
0
  6
ByBlock
 62
     0
370
    -2
100
AcDbLine
 10
0.0
 20
0.0
 30
0.0
 11
-1.0
 21
-0.26794919
 31
0.0
  0
LINE
  5
93ED
330
93E9
100
AcDbEntity
  8
0
  6
ByBlock
 62
     0
370
    -2
100
AcDbLine
 10
0.0
 20
0.0
 30
0.0
 11
-1.0
 21
0.0
 31
0.0
  0
ENDBLK
  5
93EE
330
93E9
100
AcDbEntity
  8
0
100
AcDbBlockEnd
  0
BLOCK
  5
B860
330
B85F
100
AcDbEntity
  8
0
100
AcDbBlockBegin
  2
寸法表--単位文字
 70
     2
 10
0.0
 20
0.0
 30
0.0
  3
寸法表--単位文字
  1

  4
寸法表　単位文字
  0
ATTDEF
  5
CB81
330
B85F
100
AcDbEntity
  8
12_文字
100
AcDbText
 10
-11.64
 20
1.0
 30
0.0
 40
1.8
  1
単位（mm）
 72
     2
 11
0.0
 21
1.0
 31
0.0
100
AcDbAttributeDefinition
280
     0
  3
単位を入力
  2
単位
 70
     0
 74
     1
280
     1
  0
ENDBLK
  5
B861
330
B85F
100
AcDbEntity
  8
0
100
AcDbBlockEnd
  0
ENDSEC
  0
SECTION
  2
ENTITIES
  0
INSERT
  5
BD3D
330
37
100
AcDbEntity
  8
01_表面形状
100
AcDbBlockReference
  2
寸法表--単位文字
 10
1495.0
 20
-81.00000000000017
 30
0.0
  0
LINE
  5
EB01
330
37
100
AcDbEntity
  8
04_中心線
 62
   110
100
AcDbLine
 10
233.7405921992433
 20
155.1405006490443
 30
0.0
 11
290.7405921992433
 21
155.1405006490443
 31
0.0
  0
LINE
  5
EB02
330
37
100
AcDbEntity
  8
01_表面形状
 62
     3
100
AcDbLine
 10
269.4648568677061
 20
139.6405006490443
 30
0.0
 11
277.7405921992433
 21
139.6405006490444
 31
0.0
  0
LINE
  5
EB03
330
37
100
AcDbEntity
  8
04_中心線
 62
   110
100
AcDbLine
 10
324.3946080562075
 20
155.1405006490443
 30
0.0
 11
367.5946080562076
 21
155.1405006490444
 31
0.0
  0
LINE
  5
EB04
330
37
100
AcDbEntity
  8
04_中心線
 62
   110
100
AcDbLine
 10
262.2405921992431
 20
131.242642304166
 30
0.0
 11
262.2405921992431
 21
243.1405006490444
 31
0.0
  0
LINE
  5
EB05
330
37
100
AcDbEntity
  8
01_表面形状
 62
     3
100
AcDbLine
 10
272.4405921992432
 20
156.5844944203752
 30
0.0
 11
272.4405921992432
 21
177.8822054229523
 31
0.0
  0
LINE
  5
EB06
330
37
100
AcDbEntity
  8
01_表面形状
 62
     3
100
AcDbLine
 10
252.0405921992431
 20
156.5815910506314
 30
0.0
 11
252.0405921992431
 21
178.1233307900516
 31
0.0
  0
LINE
  5
EB07
330
37
100
AcDbEntity
  8
01_表面形状
 62
     3
100
AcDbLine
 10
272.9788286265719
 20
155.1405006490443
 30
0.0
 11
274.5754932957118
 21
173.3904613272847
 31
0.0
  0
LINE
  5
EB08
330
37
100
AcDbEntity
  8
01_表面形状
 62
     3
100
AcDbLine
 10
274.5754932957118
 20
173.3904613272847
 30
0.0
 11
274.7405921992434
 21
175.2775504297788
 31
0.0
  0
ARC
  5
EB09
330
37
100
AcDbEntity
  8
01_表面形状
 62
     3
100
AcDbCircle
 10
276.6765983809419
 20
174.4587758537226
 30
0.0
 40
2.0
100
AcDbArc
 50
175.0000000000002
 51
270.0
  0
LINE
  5
EB0A
330
37
100
AcDbEntity
  8
01_表面形状
 62
     3
100
AcDbLine
 10
277.2405921992433
 20
174.4587758537226
 30
0.0
 11
277.2405921992433
 21
176.7209261027529
 31
0.0
  0
ARC
  5
EB0B
330
37
100
AcDbEntity
  8
01_表面形状
 62
     3
100
AcDbCircle
 10
279.2405921992433
 20
174.4587758537226
 30
0.0
 40
2.0
100
AcDbArc
 50
180.0
 51
270.0
  0
LINE
  5
EB0C
330
37
100
AcDbEntity
  8
01_表面形状
 62
     3
100
AcDbLine
 10
285.2405921992433
 20
137.8222254443661
 30
0.0
 11
285.2405921992433
 21
172.4587758537226
 31
0.0
  0
LINE
  5
EB0D
330
37
100
AcDbEntity
  8
01_表面形状
 62
     3
100
AcDbLine
 10
277.7405921992433
 20
137.8222254443661
 30
0.0
 11
277.7405921992433
 21
172.4587758537226
 31
0.0
  0
LINE
  5
EB0E
330
37
100
AcDbEntity
  8
04_中心線
 62
   110
100
AcDbLine
 10
345.9946080562073
 20
243.1405006490444
 30
0.0
 11
345.9946080562073
 21
215.5038716270145
 31
0.0
  0
LINE
  5
EB0F
330
37
100
AcDbEntity
  8
04_中心線
 62
   110
100
AcDbLine
 10
345.9946080562076
 20
215.5038716270146
 30
0.0
 11
345.9946080562076
 21
132.0670948583364
 31
0.0
  0
LINE
  5
EB10
330
37
100
AcDbEntity
  8
01_表面形状
 62
     3
100
AcDbLine
 10
344.7446080562075
 20
176.5242697839073
 30
0.0
 11
344.7446080562075
 21
171.9410089007563
 31
0.0
  0
ARC
  5
EB11
330
37
100
AcDbEntity
  8
01_表面形状
 62
     3
100
AcDbCircle
 10
342.7446080562075
 20
176.5242697839073
 30
0.0
 40
2.0
100
AcDbArc
 50
0.0
 51
74.99999999999883
  0
LINE
  5
EB12
330
37
100
AcDbEntity
  8
01_表面形状
 62
     3
100
AcDbLine
 10
356.9946080562075
 20
198.6405006490443
 30
0.0
 11
356.9946080562075
 21
191.6405006490444
 31
0.0
  0
LINE
  5
EB13
330
37
100
AcDbEntity
  8
01_表面形状
 62
     3
100
AcDbLine
 10
334.9946080562073
 20
198.6405006490444
 30
0.0
 11
334.9946080562074
 21
191.6405006490443
 31
0.0
  0
LINE
  5
EB14
330
37
100
AcDbEntity
  8
01_表面形状
 62
     3
100
AcDbLine
 10
329.33454555301
 20
180.0405006490444
 30
0.0
 11
329.7294994545208
 21
157.6830697454251
 31
0.0
  0
LINE
  5
EB15
330
37
100
AcDbEntity
  8
01_表面形状
 62
     3
100
AcDbLine
 10
362.654670559405
 20
180.0405006490443
 30
0.0
 11
362.2597166578942
 21
157.683069745425
 31
0.0
  0
LINE
  5
EB16
330
37
100
AcDbEntity
  8
01_表面形状
 62
     3
100
AcDbLine
 10
285.2405921992433
 20
137.8222254443661
 30
0.0
 11
277.7405921992433
 21
137.8222254443661
 31
0.0
  0
LINE
  5
EB17
330
37
100
AcDbEntity
  8
01_表面形状
 62
     3
100
AcDbLine
 10
285.2405921992433
 20
172.4587758537226
 30
0.0
 11
276.5612642451252
 21
172.4587758537226
 31
0.0
  0
LINE
  5
EB18
330
37
100
AcDbEntity
  8
01_表面形状
 62
     3
100
AcDbLine
 10
364.7446080562076
 20
182.0405006490444
 30
0.0
 11
364.7446080562076
 21
188.6405006490443
 31
0.0
  0
LINE
  5
EB19
330
37
100
AcDbEntity
  8
01_表面形状
 62
     3
100
AcDbLine
 10
364.7446080562076
 20
188.6405006490443
 30
0.0
 11
327.2446080562076
 21
188.6405006490443
 31
0.0
  0
LINE
  5
EB1A
330
37
100
AcDbEntity
  8
01_表面形状
 62
     3
100
AcDbLine
 10
327.2446080562076
 20
188.6405006490443
 30
0.0
 11
327.2446080562076
 21
182.0405006490444
 31
0.0
  0
ARC
  5
EB1B
330
37
100
AcDbEntity
  8
01_表面形状
 62
     3
100
AcDbCircle
 10
362.7446080562076
 20
182.0405006490444
 30
0.0
 40
2.0
100
AcDbArc
 50
270.0
 51
0.0
  0
ARC
  5
EB1C
330
37
100
AcDbEntity
  8
01_表面形状
 62
     3
100
AcDbCircle
 10
329.2446080562076
 20
182.0405006490444
 30
0.0
 40
2.0
100
AcDbArc
 50
180.0
 51
270.0
  0
CIRCLE
  5
EB1D
330
37
100
AcDbEntity
  8
01_表面形状
 62
     3
100
AcDbCircle
 10
345.9946080562076
 20
155.1405006490444
 30
0.0
 40
12.05
  0
CIRCLE
  5
EB1E
330
37
100
AcDbEntity
  8
01_表面形状
 62
     3
100
AcDbCircle
 10
345.9946080562076
 20
155.1405006490444
 30
0.0
 40
13.2
  0
LINE
  5
EB1F
330
37
100
AcDbEntity
  8
01_表面形状
 62
     3
100
AcDbLine
 10
249.4905921992433
 20
198.6405006490444
 30
0.0
 11
249.4905921992433
 21
191.6405006490444
 31
0.0
  0
LINE
  5
EB20
330
37
100
AcDbEntity
  8
01_表面形状
 62
     3
100
AcDbLine
 10
274.9905921992433
 20
198.6405006490444
 30
0.0
 11
274.9905921992433
 21
191.6405006490444
 31
0.0
  0
LINE
  5
EB21
330
37
100
AcDbEntity
  8
01_表面形状
 62
     3
100
AcDbLine
 10
243.4905921992434
 20
188.6405006490443
 30
0.0
 11
280.9905921992434
 21
188.6405006490443
 31
0.0
  0
LINE
  5
EB22
330
37
100
AcDbEntity
  8
01_表面形状
 62
     3
100
AcDbLine
 10
243.4905921992434
 20
191.6405006490444
 30
0.0
 11
280.9905921992434
 21
191.6405006490444
 31
0.0
  0
LINE
  5
EB23
330
37
100
AcDbEntity
  8
01_表面形状
 62
     3
100
AcDbLine
 10
249.4905921992433
 20
198.6405006490444
 30
0.0
 11
274.9905921992433
 21
198.6405006490444
 31
0.0
  0
LINE
  5
EB24
330
37
100
AcDbEntity
  8
01_表面形状
 62
     3
100
AcDbLine
 10
280.9905921992434
 20
181.1953906889725
 30
0.0
 11
280.9905921992434
 21
191.6405006490444
 31
0.0
  0
ARC
  5
EB25
330
37
100
AcDbEntity
  8
01_表面形状
 62
     3
100
AcDbCircle
 10
278.9905921992434
 20
181.1953906889725
 30
0.0
 40
2.0
100
AcDbArc
 50
300.0000000000001
 51
0.0
  0
LINE
  5
EB26
330
37
100
AcDbEntity
  8
01_表面形状
 62
     3
100
AcDbLine
 10
243.4905921992434
 20
181.1953906889726
 30
0.0
 11
243.4905921992434
 21
191.6405006490444
 31
0.0
  0
LINE
  5
EB27
330
37
100
AcDbEntity
  8
01_表面形状
 62
     3
100
AcDbLine
 10
269.7155921992433
 20
206.0038716270145
 30
0.0
 11
269.7155921992433
 21
202.6519586222557
 31
0.0
  0
LINE
  5
EB28
330
37
100
AcDbEntity
  8
01_表面形状
 62
     3
100
AcDbLine
 10
269.7155921992433
 20
206.0038716270145
 30
0.0
 11
269.7155921992433
 21
202.6519586222557
 31
0.0
  0
LINE
  5
EB2A
330
37
100
AcDbEntity
  8
01_表面形状
 62
     3
100
AcDbLine
 10
327.2446080562076
 20
191.6405006490444
 30
0.0
 11
364.7446080562076
 21
191.6405006490444
 31
0.0
  0
LINE
  5
EB2B
330
37
100
AcDbEntity
  8
01_表面形状
 62
     3
100
AcDbLine
 10
334.9946080562073
 20
198.6405006490444
 30
0.0
 11
356.9946080562075
 21
198.6405006490444
 31
0.0
  0
LINE
  5
EB2C
330
37
100
AcDbEntity
  8
01_表面形状
 62
     3
100
AcDbLine
 10
364.7446080562076
 20
188.6405006490443
 30
0.0
 11
364.7446080562076
 21
191.6405006490444
 31
0.0
  0
LINE
  5
EB2D
330
37
100
AcDbEntity
  8
01_表面形状
 62
     3
100
AcDbLine
 10
327.2446080562076
 20
188.6405006490443
 30
0.0
 11
327.2446080562076
 21
191.6405006490444
 31
0.0
  0
LINE
  5
EB2E
330
37
100
AcDbEntity
  8
04_中心線
 62
   110
100
AcDbLine
 10
230.740592199243
 20
293.0232199480507
 30
0.0
 11
293.740592199243
 21
293.0232199480507
 31
0.0
  0
LINE
  5
EB2F
330
37
100
AcDbEntity
  8
04_中心線
 62
   110
100
AcDbLine
 10
262.240592199243
 20
325.0232199480507
 30
0.0
 11
262.240592199243
 21
261.0232199480505
 31
0.0
  0
ARC
  5
EB30
330
37
100
AcDbEntity
  8
01_表面形状
 62
     3
100
AcDbCircle
 10
277.796941385347
 20
308.5795691341549
 30
0.0
 40
5.0
100
AcDbArc
 50
352.8145951381785
 51
97.18540486182149
  0
ARC
  5
EB31
330
37
100
AcDbEntity
  8
01_表面形状
 62
     3
100
AcDbCircle
 10
294.66343351162
 20
306.453200550308
 30
0.0
 40
12.0
100
AcDbArc
 50
172.8145951381785
 51
232.1854048618207
  0
ARC
  5
EB32
330
37
100
AcDbEntity
  8
01_表面形状
 62
     3
100
AcDbCircle
 10
294.66343351162
 20
306.453200550308
 30
0.0
 40
14.5
100
AcDbArc
 50
180.9463175743445
 51
224.0536824256597
  0
ARC
  5
EB33
330
37
100
AcDbEntity
  8
01_表面形状
 62
     3
100
AcDbCircle
 10
279.665479390585
 20
306.2054664522731
 30
0.0
 40
0.5
100
AcDbArc
 50
0.9463175743315806
 51
135.0000000000098
  0
ARC
  5
EB34
330
37
100
AcDbEntity
  8
01_表面形状
 62
     3
100
AcDbCircle
 10
262.240592199243
 20
293.0232199480507
 30
0.0
 40
17.0
100
AcDbArc
 50
188.4565193352759
 51
216.5434806647294
  0
ARC
  5
EB35
330
37
100
AcDbEntity
  8
01_表面形状
 62
     3
100
AcDbCircle
 10
262.240592199243
 20
293.0232199480507
 30
0.0
 40
17.0
100
AcDbArc
 50
233.4565193352665
 51
261.5434806647307
  0
ARC
  5
EB36
330
37
100
AcDbEntity
  8
01_表面形状
 62
     3
100
AcDbCircle
 10
262.240592199243
 20
293.0232199480507
 30
0.0
 40
17.0
100
AcDbArc
 50
278.4565193352693
 51
306.5434806647335
  0
ARC
  5
EB37
330
37
100
AcDbEntity
  8
01_表面形状
 62
     3
100
AcDbCircle
 10
262.240592199243
 20
293.0232199480507
 30
0.0
 40
17.0
100
AcDbArc
 50
323.4565193352706
 51
351.5434806647241
  0
ARC
  5
EB38
330
37
100
AcDbEntity
  8
01_表面形状
 62
     3
100
AcDbCircle
 10
262.240592199243
 20
293.0232199480507
 30
0.0
 40
17.0
100
AcDbArc
 50
8.456519335275904
 51
36.54348066472941
  0
ARC
  5
EB39
330
37
100
AcDbEntity
  8
01_表面形状
 62
     3
100
AcDbCircle
 10
262.240592199243
 20
293.0232199480507
 30
0.0
 40
17.0
100
AcDbArc
 50
53.45651933526651
 51
81.54348066472733
  0
ARC
  5
EB3A
330
37
100
AcDbEntity
  8
01_表面形状
 62
     3
100
AcDbCircle
 10
262.240592199243
 20
293.0232199480507
 30
0.0
 40
17.0
100
AcDbArc
 50
98.45651933526932
 51
126.5434806647335
  0
ARC
  5
EB3B
330
37
100
AcDbEntity
  8
01_表面形状
 62
     3
100
AcDbCircle
 10
262.240592199243
 20
293.0232199480507
 30
0.0
 40
17.0
100
AcDbArc
 50
143.4565193352706
 51
171.5434806647241
  0
LINE
  5
EB3C
330
37
100
AcDbEntity
  8
01_表面形状
 62
     3
100
AcDbLine
 10
275.8984811028035
 20
303.1455749456785
 30
0.0
 11
279.3119259999916
 21
306.5590198428664
 31
0.0
  0
LINE
  5
EB3D
330
37
100
AcDbEntity
  8
01_表面形状
 62
     3
100
AcDbLine
 10
272.3629471968707
 20
306.6811088516113
 30
0.0
 11
275.7763920940586
 21
310.0945537487991
 31
0.0
  0
ARC
  5
EB3E
330
37
100
AcDbEntity
  8
01_表面形状
 62
     3
100
AcDbCircle
 10
262.240592199243
 20
293.0232199480507
 30
0.0
 40
13.25833024919774
100
AcDbArc
 50
265.165250676344
 51
334.8347493236551
  0
ARC
  5
EB3F
330
37
100
AcDbEntity
  8
01_表面形状
 62
     3
100
AcDbCircle
 10
272.8828819081919
 20
288.0232199480507
 30
0.0
 40
1.5
100
AcDbArc
 50
334.8347493236558
 51
78.37408614757464
  0
ARC
  5
EB40
330
37
100
AcDbEntity
  8
01_表面形状
 62
     3
100
AcDbCircle
 10
261.2495743636909
 20
281.3067267056673
 30
0.0
 40
1.5
100
AcDbArc
 50
161.6259138524246
 51
265.165250676344
  0
ARC
  5
EB41
330
37
100
AcDbEntity
  8
01_表面形状
 62
     3
100
AcDbCircle
 10
262.240592199243
 20
293.0232199480507
 30
0.0
 40
13.25833024919774
100
AcDbArc
 50
25.16525067634492
 51
94.83474932365599
  0
ARC
  5
EB42
330
37
100
AcDbEntity
  8
01_表面形状
 62
     3
100
AcDbCircle
 10
272.8828819081919
 20
298.0232199480507
 30
0.0
 40
1.5
100
AcDbArc
 50
281.6259138524253
 51
25.16525067634492
  0
ARC
  5
EB43
330
37
100
AcDbEntity
  8
01_表面形状
 62
     3
100
AcDbCircle
 10
261.2495743636907
 20
304.7397131904341
 30
0.0
 40
1.5
100
AcDbArc
 50
94.83474932365599
 51
198.3740861475769
  0
ARC
  5
EB44
330
37
100
AcDbEntity
  8
01_表面形状
 62
     3
100
AcDbCircle
 10
262.240592199243
 20
293.0232199480507
 30
0.0
 40
13.25833024919774
100
AcDbArc
 50
145.1652506763432
 51
214.8347493236568
  0
ARC
  5
EB45
330
37
100
AcDbEntity
  8
01_表面形状
 62
     3
100
AcDbCircle
 10
252.5893203258465
 20
286.3067267056672
 30
0.0
 40
1.5
100
AcDbArc
 50
214.8347493236568
 51
318.374086147574
  0
ARC
  5
EB46
330
37
100
AcDbEntity
  8
01_表面形状
 62
     3
100
AcDbCircle
 10
252.5893203258464
 20
299.739713190434
 30
0.0
 40
1.5
100
AcDbArc
 50
41.62591385242668
 51
145.1652506763484
  0
ARC
  5
EB47
330
37
100
AcDbEntity
  8
01_表面形状
 62
     3
100
AcDbCircle
 10
275.4228387034654
 20
310.4481071393924
 30
0.0
 40
0.5
100
AcDbArc
 50
314.9999999999914
 51
89.05368242566842
  0
ARC
  5
EB48
330
37
100
AcDbEntity
  8
01_表面形状
 62
     3
100
AcDbCircle
 10
275.6705728015001
 20
325.4460612604276
 30
0.0
 40
12.0
100
AcDbArc
 50
217.8145951381822
 51
277.1854048618215
  0
ARC
  5
EB49
330
37
100
AcDbEntity
  8
01_表面形状
 62
     3
100
AcDbCircle
 10
275.6705728015001
 20
325.4460612604276
 30
0.0
 40
14.5
100
AcDbArc
 50
225.9463175743449
 51
269.0536824256554
  0
ARC
  5
EB4A
330
37
100
AcDbEntity
  8
01_表面形状
 62
     3
100
AcDbCircle
 10
265.2405921992433
 20
314.6657317368676
 30
0.0
 40
0.5
100
AcDbArc
 50
45.94631757433167
 51
180.0
  0
LINE
  5
EB4B
330
37
100
AcDbEntity
  8
01_表面形状
 62
     3
100
AcDbLine
 10
264.7405921992429
 20
309.838391668851
 30
0.0
 11
264.740592199243
 21
314.6657317368673
 31
0.0
  0
LINE
  5
EB4C
330
37
100
AcDbEntity
  8
01_表面形状
 62
     3
100
AcDbLine
 10
259.7405921992431
 20
309.8383916688509
 30
0.0
 11
259.7405921992431
 21
314.6657317368673
 31
0.0
  0
ARC
  5
EB4D
330
37
100
AcDbEntity
  8
01_表面形状
 62
     3
100
AcDbCircle
 10
259.2405921992431
 20
314.6657317368673
 30
0.0
 40
0.5
100
AcDbArc
 50
359.999999999987
 51
134.0536824256683
  0
ARC
  5
EB4E
330
37
100
AcDbEntity
  8
01_表面形状
 62
     3
100
AcDbCircle
 10
248.810611596986
 20
325.4460612604276
 30
0.0
 40
12.0
100
AcDbArc
 50
262.8145951381785
 51
322.1854048618177
  0
ARC
  5
EB4F
330
37
100
AcDbEntity
  8
01_表面形状
 62
     3
100
AcDbCircle
 10
248.810611596986
 20
325.4460612604276
 30
0.0
 40
14.5
100
AcDbArc
 50
270.9463175743446
 51
314.0536824256551
  0
ARC
  5
EB50
330
37
100
AcDbEntity
  8
01_表面形状
 62
     3
100
AcDbCircle
 10
249.0583456950209
 20
310.4481071393926
 30
0.0
 40
0.5
100
AcDbArc
 50
90.94631757433157
 51
225.0000000000086
  0
LINE
  5
EB51
330
37
100
AcDbEntity
  8
01_表面形状
 62
     3
100
AcDbLine
 10
252.1182372016154
 20
306.6811088516113
 30
0.0
 11
248.7047923044276
 21
310.0945537487993
 31
0.0
  0
LINE
  5
EB52
330
37
100
AcDbEntity
  8
01_表面形状
 62
     3
100
AcDbLine
 10
248.5827032956826
 20
303.1455749456784
 30
0.0
 11
245.169258398495
 21
306.5590198428664
 31
0.0
  0
ARC
  5
EB53
330
37
100
AcDbEntity
  8
01_表面形状
 62
     3
100
AcDbCircle
 10
244.8157050079016
 20
306.2054664522731
 30
0.0
 40
0.5
100
AcDbArc
 50
44.99999999999022
 51
179.0536824256684
  0
ARC
  5
EB54
330
37
100
AcDbEntity
  8
01_表面形状
 62
     3
100
AcDbCircle
 10
229.8177508868662
 20
306.453200550308
 30
0.0
 40
12.0
100
AcDbArc
 50
307.8145951381834
 51
7.185404861821498
  0
ARC
  5
EB55
330
37
100
AcDbEntity
  8
01_表面形状
 62
     3
100
AcDbCircle
 10
229.8177508868662
 20
306.453200550308
 30
0.0
 40
14.5
100
AcDbArc
 50
315.9463175743495
 51
359.0536824256684
  0
ARC
  5
EB56
330
37
100
AcDbEntity
  8
01_表面形状
 62
     3
100
AcDbCircle
 10
240.5980804104264
 20
296.0232199480511
 30
0.0
 40
0.5
100
AcDbArc
 50
135.9463175743213
 51
270.0000000000098
  0
LINE
  5
EB57
330
37
100
AcDbEntity
  8
01_表面形状
 62
     3
100
AcDbLine
 10
245.4254204784428
 20
295.5232199480507
 30
0.0
 11
240.5980804104266
 21
295.5232199480507
 31
0.0
  0
LINE
  5
EB58
330
37
100
AcDbEntity
  8
01_表面形状
 62
     3
100
AcDbLine
 10
245.4254204784428
 20
290.5232199480508
 30
0.0
 11
240.5980804104268
 21
290.5232199480508
 31
0.0
  0
ARC
  5
EB59
330
37
100
AcDbEntity
  8
01_表面形状
 62
     3
100
AcDbCircle
 10
240.5980804104266
 20
290.0232199480507
 30
0.0
 40
0.5
100
AcDbArc
 50
89.99999999999023
 51
224.0536824256787
  0
ARC
  5
EB5A
330
37
100
AcDbEntity
  8
01_表面形状
 62
     3
100
AcDbCircle
 10
229.8177508868662
 20
279.5932393457937
 30
0.0
 40
12.0
100
AcDbArc
 50
352.8145951381785
 51
52.18540486182066
  0
ARC
  5
EB5B
330
37
100
AcDbEntity
  8
01_表面形状
 62
     3
100
AcDbCircle
 10
229.8177508868662
 20
279.5932393457937
 30
0.0
 40
14.5
100
AcDbArc
 50
0.9463175743315806
 51
44.05368242565048
  0
ARC
  5
EB5C
330
37
100
AcDbEntity
  8
01_表面形状
 62
     3
100
AcDbCircle
 10
244.8157050079013
 20
279.8409734438286
 30
0.0
 40
0.5
100
AcDbArc
 50
180.9463175743315
 51
315.0000000000236
  0
LINE
  5
EB5D
330
37
100
AcDbEntity
  8
01_表面形状
 62
     3
100
AcDbLine
 10
248.5827032956826
 20
282.900864950423
 30
0.0
 11
245.1692583984946
 21
279.4874200532353
 31
0.0
  0
LINE
  5
EB5E
330
37
100
AcDbEntity
  8
01_表面形状
 62
     3
100
AcDbLine
 10
252.1182372016153
 20
279.3653310444902
 30
0.0
 11
248.7047923044276
 21
275.9518861473026
 31
0.0
  0
ARC
  5
EB5F
330
37
100
AcDbEntity
  8
01_表面形状
 62
     3
100
AcDbCircle
 10
249.0583456950208
 20
275.5983327567093
 30
0.0
 40
0.5
100
AcDbArc
 50
134.9999999999913
 51
269.0536824256684
  0
ARC
  5
EB60
330
37
100
AcDbEntity
  8
01_表面形状
 62
     3
100
AcDbCircle
 10
248.810611596986
 20
260.6003786356738
 30
0.0
 40
12.0
100
AcDbArc
 50
37.81459513818228
 51
97.18540486182149
  0
ARC
  5
EB61
330
37
100
AcDbEntity
  8
01_表面形状
 62
     3
100
AcDbCircle
 10
248.810611596986
 20
260.6003786356738
 30
0.0
 40
14.5
100
AcDbArc
 50
45.94631757434491
 51
89.0536824256554
  0
ARC
  5
EB62
330
37
100
AcDbEntity
  8
01_表面形状
 62
     3
100
AcDbCircle
 10
259.2405921992428
 20
271.3807081592337
 30
0.0
 40
0.5
100
AcDbArc
 50
225.9463175743449
 51
0.0
  0
LINE
  5
EB63
330
37
100
AcDbEntity
  8
01_表面形状
 62
     3
100
AcDbLine
 10
259.7405921992433
 20
276.2080482272505
 30
0.0
 11
259.7405921992433
 21
271.3807081592339
 31
0.0
  0
LINE
  5
EB64
330
37
100
AcDbEntity
  8
01_表面形状
 62
     3
100
AcDbLine
 10
264.7405921992433
 20
276.2080482272505
 30
0.0
 11
264.7405921992433
 21
271.3807081592341
 31
0.0
  0
ARC
  5
EB65
330
37
100
AcDbEntity
  8
01_表面形状
 62
     3
100
AcDbCircle
 10
265.2405921992433
 20
271.3807081592341
 30
0.0
 40
0.5
100
AcDbArc
 50
180.0
 51
314.0536824256551
  0
ARC
  5
EB66
330
37
100
AcDbEntity
  8
01_表面形状
 62
     3
100
AcDbCircle
 10
275.6705728015003
 20
260.6003786356738
 30
0.0
 40
12.0
100
AcDbArc
 50
82.8145951381785
 51
142.1854048618177
  0
ARC
  5
EB67
330
37
100
AcDbEntity
  8
01_表面形状
 62
     3
100
AcDbCircle
 10
275.6705728015003
 20
260.6003786356738
 30
0.0
 40
14.5
100
AcDbArc
 50
90.94631757434461
 51
134.0536824256683
  0
ARC
  5
EB68
330
37
100
AcDbEntity
  8
01_表面形状
 62
     3
100
AcDbCircle
 10
275.4228387034654
 20
275.5983327567088
 30
0.0
 40
0.5
100
AcDbArc
 50
270.9463175743316
 51
45.00000000000865
  0
LINE
  5
EB69
330
37
100
AcDbEntity
  8
01_表面形状
 62
     3
100
AcDbLine
 10
272.3629471968708
 20
279.3653310444902
 30
0.0
 11
275.7763920940587
 21
275.9518861473022
 31
0.0
  0
LINE
  5
EB6A
330
37
100
AcDbEntity
  8
01_表面形状
 62
     3
100
AcDbLine
 10
275.8984811028035
 20
282.9008649504231
 30
0.0
 11
279.3119259999914
 21
279.487420053235
 31
0.0
  0
ARC
  5
EB6B
330
37
100
AcDbEntity
  8
01_表面形状
 62
     3
100
AcDbCircle
 10
279.6654793905847
 20
279.8409734438284
 30
0.0
 40
0.5
100
AcDbArc
 50
224.9999999999902
 51
359.0536824256684
  0
ARC
  5
EB6C
330
37
100
AcDbEntity
  8
01_表面形状
 62
     3
100
AcDbCircle
 10
294.66343351162
 20
279.5932393457937
 30
0.0
 40
12.0
100
AcDbArc
 50
127.8145951381793
 51
187.1854048618215
  0
ARC
  5
EB6D
330
37
100
AcDbEntity
  8
01_表面形状
 62
     3
100
AcDbCircle
 10
294.66343351162
 20
279.5932393457937
 30
0.0
 40
14.5
100
AcDbArc
 50
135.9463175743495
 51
179.0536824256554
  0
ARC
  5
EB6E
330
37
100
AcDbEntity
  8
01_表面形状
 62
     3
100
AcDbCircle
 10
283.8831039880599
 20
290.0232199480507
 30
0.0
 40
0.5
100
AcDbArc
 50
315.9463175743357
 51
90.00000000001303
  0
LINE
  5
EB6F
330
37
100
AcDbEntity
  8
01_表面形状
 62
     3
100
AcDbLine
 10
279.0557639200433
 20
290.523219948051
 30
0.0
 11
283.8831039880599
 21
290.523219948051
 31
0.0
  0
LINE
  5
EB70
330
37
100
AcDbEntity
  8
01_表面形状
 62
     3
100
AcDbLine
 10
279.0557639200433
 20
295.5232199480509
 30
0.0
 11
283.8831039880597
 21
295.5232199480509
 31
0.0
  0
ARC
  5
EB71
330
37
100
AcDbEntity
  8
01_表面形状
 62
     3
100
AcDbCircle
 10
283.8831039880597
 20
296.0232199480509
 30
0.0
 40
0.5
100
AcDbArc
 50
269.999999999987
 51
44.05368242566429
  0
ARC
  5
EB72
330
37
100
AcDbEntity
  8
01_表面形状
 62
     3
100
AcDbCircle
 10
262.2405921992428
 20
315.0232199480507
 30
0.0
 40
5.0
100
AcDbArc
 50
37.81459513818228
 51
142.1854048618177
  0
ARC
  5
EB73
330
37
100
AcDbEntity
  8
01_表面形状
 62
     3
100
AcDbCircle
 10
246.6842430131391
 20
308.5795691341547
 30
0.0
 40
5.0
100
AcDbArc
 50
82.8145951381785
 51
187.1854048618215
  0
ARC
  5
EB74
330
37
100
AcDbEntity
  8
01_表面形状
 62
     3
100
AcDbCircle
 10
240.2405921992432
 20
293.0232199480507
 30
0.0
 40
5.0
100
AcDbArc
 50
127.8145951381834
 51
232.1854048618166
  0
ARC
  5
EB75
330
37
100
AcDbEntity
  8
01_表面形状
 62
     3
100
AcDbCircle
 10
246.6842430131392
 20
277.4668707619468
 30
0.0
 40
5.0
100
AcDbArc
 50
172.8145951381785
 51
277.1854048618215
  0
ARC
  5
EB76
330
37
100
AcDbEntity
  8
01_表面形状
 62
     3
100
AcDbCircle
 10
262.2405921992433
 20
271.0232199480505
 30
0.0
 40
5.0
100
AcDbArc
 50
217.8145951381822
 51
322.1854048618177
  0
ARC
  5
EB77
330
37
100
AcDbEntity
  8
01_表面形状
 62
     3
100
AcDbCircle
 10
277.7969413853472
 20
277.4668707619468
 30
0.0
 40
5.0
100
AcDbArc
 50
262.8145951381785
 51
7.185404861821498
  0
ARC
  5
EB78
330
37
100
AcDbEntity
  8
01_表面形状
 62
     3
100
AcDbCircle
 10
284.2405921992431
 20
293.0232199480512
 30
0.0
 40
5.0
100
AcDbArc
 50
307.8145951381793
 51
52.18540486182066
  0
CIRCLE
  5
EB79
330
37
100
AcDbEntity
  8
01_表面形状
 62
     3
100
AcDbCircle
 10
262.240592199243
 20
293.0232199480507
 30
0.0
 40
2.299999999999999
  0
CIRCLE
  5
EB7A
330
37
100
AcDbEntity
  8
01_表面形状
 62
     3
100
AcDbCircle
 10
262.240592199243
 20
293.0232199480507
 30
0.0
 40
3.0
  0
LINE
  5
EB7B
330
37
100
AcDbEntity
  8
01_表面形状
 62
     3
100
AcDbLine
 10
259.3538491992431
 20
288.0232019480508
 30
0.0
 11
256.467092199243
 21
293.0232119480507
 31
0.0
  0
LINE
  5
EB7C
330
37
100
AcDbEntity
  8
01_表面形状
 62
     3
100
AcDbLine
 10
268.014103199243
 20
293.0232019480508
 30
0.0
 11
265.1273461992431
 21
298.0232119480508
 31
0.0
  0
LINE
  5
EB7D
330
37
100
AcDbEntity
  8
01_表面形状
 62
     3
100
AcDbLine
 10
256.4670811992431
 20
293.0232019480508
 30
0.0
 11
259.3538381992431
 21
298.0232119480508
 31
0.0
  0
LINE
  5
EB7E
330
37
100
AcDbEntity
  8
01_表面形状
 62
     3
100
AcDbLine
 10
265.127335199243
 20
288.0232019480508
 30
0.0
 11
268.0140921992431
 21
293.0232119480507
 31
0.0
  0
LINE
  5
EB7F
330
37
100
AcDbEntity
  8
01_表面形状
 62
     3
100
AcDbLine
 10
259.353841199243
 20
298.0232199480507
 30
0.0
 11
265.127343199243
 21
298.0232199480507
 31
0.0
  0
LINE
  5
EB80
330
37
100
AcDbEntity
  8
01_表面形状
 62
     3
100
AcDbLine
 10
259.353841199243
 20
288.0232199480507
 30
0.0
 11
265.127343199243
 21
288.0232199480507
 31
0.0
  0
ARC
  5
EB81
330
37
100
AcDbEntity
  8
01_表面形状
 62
     3
100
AcDbCircle
 10
262.240592199243
 20
293.0232199480506
 30
0.0
 40
5.488
100
AcDbArc
 50
125.6548071065621
 51
174.3451949466411
  0
ARC
  5
EB82
330
37
100
AcDbEntity
  8
01_表面形状
 62
     3
100
AcDbCircle
 10
262.240592199243
 20
293.0232199480506
 30
0.0
 40
5.488
100
AcDbArc
 50
185.6548930287442
 51
234.3451049180522
  0
ARC
  5
EB83
330
37
100
AcDbEntity
  8
01_表面形状
 62
     3
100
AcDbCircle
 10
262.240592199243
 20
293.0232199480506
 30
0.0
 40
5.488
100
AcDbArc
 50
245.6548504826338
 51
294.3451495173662
  0
ARC
  5
EB84
330
37
100
AcDbEntity
  8
01_表面形状
 62
     3
100
AcDbCircle
 10
262.240592199243
 20
293.0232199480506
 30
0.0
 40
5.488
100
AcDbArc
 50
305.6548950819478
 51
354.3451069712549
  0
ARC
  5
EB85
330
37
100
AcDbEntity
  8
01_表面形状
 62
     3
100
AcDbCircle
 10
262.240592199243
 20
293.0232199480506
 30
0.0
 40
5.488
100
AcDbArc
 50
5.654805053358886
 51
54.34519289343786
  0
ARC
  5
EB86
330
37
100
AcDbEntity
  8
01_表面形状
 62
     3
100
AcDbCircle
 10
262.240592199243
 20
293.0232199480506
 30
0.0
 40
5.488
100
AcDbArc
 50
65.6548504826374
 51
114.3451495173626
  0
CIRCLE
  5
EB87
330
37
100
AcDbEntity
  8
01_表面形状
 62
     3
100
AcDbCircle
 10
262.240592199243
 20
293.0232199480507
 30
0.0
 40
9.6844496896
  0
LWPOLYLINE
  5
EB88
330
37
100
AcDbEntity
  8
01_表面形状
 62
     3
100
AcDbPolyline
 90
       10
 70
     1
 43
0.0
 10
256.1275874911413
 20
288.3005752545299
 10
256.8574989975415
 20
285.8303304208872
 10
257.4067792012414
 20
286.4083712165717
 42
0.3262597201020667
 10
267.0700865113557
 20
286.4052174904151
 10
267.5998061067622
 20
285.8357873957847
 10
268.355875170619
 20
288.2981520958227
 10
265.8453702550758
 20
287.7217447621192
 10
266.3702498226699
 20
287.1575175286235
 42
-0.3164916484887445
 10
258.115559804028
 20
287.1542639336963
 10
258.6318380238433
 20
287.6975747447658
  0
LWPOLYLINE
  5
EB89
330
37
100
AcDbEntity
  8
01_表面形状
 62
     3
100
AcDbPolyline
 90
      110
 70
     1
 43
0.0
 10
254.6519839287882
 20
290.6606515653415
 10
254.3926610122148
 20
290.4848793107506
 10
254.3009797012376
 20
290.4203592608165
 10
254.1836603158397
 20
290.3182121418664
 10
254.1277189048121
 20
290.2232850130753
 10
254.0616773296075
 20
290.1393915310054
 10
254.0106312092867
 20
290.0433471758821
 10
253.959371359652
 20
289.9299320703668
 10
253.9399376790175
 20
289.7638065671119
 10
253.9406252859246
 20
289.6763878526933
 10
253.9373145855606
 20
289.5833735570967
 10
253.9648857584483
 20
289.4636928342866
 10
254.0126398762891
 20
289.3345583446402
 10
254.0549561247936
 20
289.2329215945588
 10
254.115742606122
 20
289.1320863918439
 10
254.1907781650867
 20
289.0195988585782
 10
254.2746687212488
 20
288.9163226830327
 10
254.4011484710857
 20
288.8229016728663
 10
254.5397392473698
 20
288.7361212655958
 10
254.6509657295971
 20
288.7131303430276
 10
254.7469498906664
 20
288.6819076908317
 10
254.8763959791927
 20
288.6694694575339
 10
255.000865070453
 20
288.6824404369231
 10
255.1227492907431
 20
288.7062305102595
 10
255.2417707818922
 20
288.7468978717574
 10
255.3341377842531
 20
288.7939612101537
 10
255.4237096051711
 20
288.856996721936
 10
255.4959771982873
 20
288.902502071193
 10
255.5938773155978
 20
288.9820710639727
 10
255.6479159246986
 20
289.041186321709
 10
255.7226035210405
 20
289.1349416379222
 10
255.7714493793014
 20
289.2641596978493
 10
255.8134247337584
 20
289.3934957550669
 10
255.8080013265308
 20
289.5647587049949
 10
255.7321226413881
 20
290.3093190742858
 10
255.7350193947795
 20
290.3604944108211
 10
255.7570333096801
 20
290.4054075959778
 10
255.7871367039333
 20
290.4398122413353
 10
255.8012361961338
 20
290.4529399699303
 10
255.8383209840964
 20
290.4718356131863
 10
255.8861385936012
 20
290.4876014611994
 10
255.9146395663084
 20
290.4865710110286
 10
255.9868594912461
 20
290.4716426094794
 10
256.0158414073974
 20
290.4643063203529
 10
256.057004239057
 20
290.4272751628337
 10
256.1148657935496
 20
290.372637897471
 10
256.1622570951677
 20
290.2905892152116
 10
256.1873431507586
 20
290.2172159929632
 10
256.2038283215564
 20
290.1511647841778
 10
256.2042611060509
 20
290.0961084348538
 10
256.1847330768309
 20
290.0516049519721
 10
256.1422836274843
 20
289.9902608171122
 10
256.0679974323831
 20
289.9148082717437
 10
255.8750087166173
 20
289.7789938789824
 10
256.1453978531678
 20
289.2483253190139
 10
256.3888669254045
 20
289.3969510320133
 10
256.4823883727175
 20
289.4614659044803
 10
256.5907129650976
 20
289.5361936825925
 10
256.6698804742277
 20
289.6293249564203
 10
256.7275325966271
 20
289.7074676595364
 10
256.7699531670988
 20
289.7830845024629
 10
256.8368161252753
 20
289.8965444335871
 10
256.8488638692605
 20
290.0466052050846
 10
256.8554315149487
 20
290.1417983357896
 10
256.8503973133551
 20
290.2362320389377
 10
256.8294870408398
 20
290.3367197401253
 10
256.7787097859372
 20
290.5059488133903
 10
256.7364042202746
 20
290.6094108436762
 10
256.6535855452638
 20
290.7353182560754
 10
256.5876457456264
 20
290.8269461897065
 10
256.5076774853127
 20
290.9057416082254
 10
256.3666947433201
 20
291.0247979162786
 10
256.2236692859846
 20
291.0789721485505
 10
256.0889285419669
 20
291.1024607424727
 10
255.9773471217243
 20
291.1056295935355
 10
255.8650734490888
 20
291.0970563337662
 10
255.7440730489696
 20
291.073438769608
 10
255.6439787919588
 20
291.0434317224219
 10
255.4901856739032
 20
290.9650702148155
 10
255.4027121781792
 20
290.9020933272428
 10
255.3179915463266
 20
290.8410993884757
 10
255.2393927215866
 20
290.7696675652989
 10
255.1567339980281
 20
290.6646651009982
 10
255.0767303559266
 20
290.5106123034859
 10
255.063293433721
 20
290.3698739518128
 10
255.0717877660488
 20
290.2425012947643
 10
255.1555773375625
 20
289.5093763258685
 10
255.1497126046022
 20
289.4787961020874
 10
255.1188946554871
 20
289.4181924905317
 10
255.0956796896411
 20
289.3787989533962
 10
255.054713100656
 20
289.3534315575733
 10
254.9829993502377
 20
289.3039597884108
 10
254.9468660279048
 20
289.2925453409355
 10
254.8819786582458
 20
289.290315364928
 10
254.8432484009928
 20
289.3029140070634
 10
254.7957842371458
 20
289.3183537189832
 10
254.7212586018886
 20
289.3650192291728
 10
254.6849638615463
 20
289.3988991112245
 10
254.6681154069645
 20
289.4228501573385
 10
254.6386040264207
 20
289.4688070266996
 10
254.5990448899209
 20
289.560108599404
 10
254.5696195931349
 20
289.6320709328713
 10
254.5574368398123
 20
289.6706062917039
 10
254.5614643949566
 20
289.6974925399883
 10
254.5668711666185
 20
289.7594385011438
 10
254.5787590031539
 20
289.8140976016099
 10
254.6518355738574
 20
289.9171615929484
 10
254.6833582345152
 20
289.9531882931782
 10
254.7473344450323
 20
289.9982110819359
 10
254.9287073730563
 20
290.1175512265015
  0
LWPOLYLINE
  5
EB8A
330
37
100
AcDbEntity
  8
01_表面形状
 62
     3
100
AcDbPolyline
 90
       72
 70
     1
 43
0.0
 10
267.7314853464841
 20
289.6894964174072
 10
267.6980535050588
 20
289.8239047878631
 10
267.6934654490586
 20
289.9412254648957
 10
267.689454277146
 20
290.0437847222093
 10
267.6887982890102
 20
290.1758483365535
 10
267.7226488132715
 20
290.3020596462022
 10
267.7585836751751
 20
290.3875073232759
 10
267.7999107704141
 20
290.4806916880976
 10
267.8447699131309
 20
290.5833493728137
 10
267.9148741348869
 20
290.6793997596756
 10
267.9848875514613
 20
290.7789431006733
 10
268.075829054306
 20
290.8869907305691
 10
268.1922893536095
 20
290.9530049431855
 10
268.276649686668
 20
290.9894394284895
 10
268.366405929412
 20
291.0403167465763
 10
268.4800578542247
 20
291.0751054118813
 10
268.6007969831496
 20
291.0992502471955
 10
268.7004236039129
 20
291.1044372073911
 10
268.8052666335937
 20
291.1055843844471
 10
268.9196724644239
 20
291.0916397754552
 10
269.0264497795227
 20
291.0736686484236
 10
269.1167194296123
 20
291.0680821860128
 10
269.1939623896703
 20
291.0516004632175
 10
269.3193579885961
 20
291.0027472600331
 10
269.4242842806854
 20
290.9648383716389
 10
269.502354989177
 20
290.9233274395974
 10
269.6116404861681
 20
290.890575627607
 10
269.7625987906683
 20
290.8003568526535
 10
269.8619805344261
 20
290.722670508997
 10
269.933058123574
 20
290.6775606509677
 10
270.0311710311543
 20
290.6166888875284
 10
270.1191429843401
 20
290.5492617780856
 10
270.2175015260003
 20
290.4420966184559
 10
270.3467545608195
 20
290.2994952208455
 10
270.4297216551662
 20
290.2038819015352
 10
270.5070963608429
 20
290.034692964671
 10
270.5534253696239
 20
289.9036489416761
 10
270.5695485574087
 20
289.8108479464378
 10
270.5900237765813
 20
289.7081039193664
 10
270.6076921672907
 20
289.5825302743629
 10
270.5900650207378
 20
289.4575700448426
 10
270.5519622362684
 20
289.3521708028545
 10
270.5276764943686
 20
289.2616216796767
 10
270.491167059729
 20
289.1527843035041
 10
270.4305924552208
 20
289.0601843449298
 10
270.3849904999247
 20
289.004475189154
 10
270.3310922248853
 20
288.9195310023668
 10
270.288638864125
 20
288.8754694035272
 10
270.2197751747529
 20
288.788266474788
 10
270.0973262324292
 20
288.7285680031094
 10
270.0049522730155
 20
288.6825513897429
 10
269.9165987119664
 20
288.6099928543306
 10
269.7262551159783
 20
288.5662809778659
 10
269.5887818369615
 20
288.5548508010058
 10
269.4719921887158
 20
288.5535737637413
 10
269.3542982728749
 20
288.5808726140038
 10
269.2322163356197
 20
288.5928562749533
 10
269.1176355991636
 20
288.6068230197069
 10
268.9986821587232
 20
288.6407016868698
 10
268.8862163391614
 20
288.6835808940492
 10
268.7456078400713
 20
288.7320550168215
 10
268.6402303586596
 20
288.7880852175729
 10
268.5385974850301
 20
288.8505588639529
 10
268.4155779971206
 20
288.9240802745924
 10
268.3063361439259
 20
288.9906796761056
 10
268.1867068992195
 20
289.0735596213961
 10
268.1070326517692
 20
289.1573617043618
 10
268.0376381306378
 20
289.243710166696
 10
267.953470351363
 20
289.3354097028051
 10
267.8828600180767
 20
289.4138177022435
 10
267.823990234433
 20
289.5231861043738
 10
267.776153278669
 20
289.612058984524
  0
LWPOLYLINE
  5
EB8B
330
37
100
AcDbEntity
  8
01_表面形状
 62
     3
100
AcDbPolyline
 90
       52
 70
     1
 43
0.0
 10
268.5421574651197
 20
289.7851204021575
 10
268.5159537599235
 20
289.8436823786864
 10
268.4968963122696
 20
289.8878886336084
 10
268.4910497122628
 20
289.9356110971202
 10
268.4827456412585
 20
289.9985226297819
 10
268.4924539068823
 20
290.0325738226462
 10
268.5244910461441
 20
290.1186722127724
 10
268.5411543402487
 20
290.166362491984
 10
268.5626958703423
 20
290.1944807244605
 10
268.6232917609171
 20
290.2653773941727
 10
268.6413244272204
 20
290.2801863485713
 10
268.6981955929804
 20
290.3006002174532
 10
268.7830340104898
 20
290.3345033632056
 10
268.8530154592919
 20
290.3470646694303
 10
268.9299524124344
 20
290.3469483718571
 10
269.0529381494998
 20
290.3177178433673
 10
269.1380337715943
 20
290.2965725573809
 10
269.2500055173961
 20
290.2489815185328
 10
269.4724292772656
 20
290.1307167075846
 10
269.5512140624771
 20
290.0781448988428
 10
269.6400830254163
 20
289.9872047474971
 10
269.7035658753003
 20
289.922907529708
 10
269.742049156021
 20
289.8687953302424
 10
269.7719352883232
 20
289.8108597314228
 10
269.7917930139098
 20
289.7458288743941
 10
269.8118591847432
 20
289.6906776597956
 10
269.8138836212931
 20
289.6513497297983
 10
269.8158358922809
 20
289.6014332797061
 10
269.810455832396
 20
289.5834974265211
 10
269.7973627808698
 20
289.5491739393428
 10
269.7630141840321
 20
289.4735445266629
 10
269.7287831398516
 20
289.417386112689
 10
269.7126857482447
 20
289.4020694864776
 10
269.6781099802392
 20
289.3736745412432
 10
269.6389727895768
 20
289.3561316703645
 10
269.5844632921823
 20
289.331698679553
 10
269.5379406576
 20
289.3174580199389
 10
269.4382744992949
 20
289.31992786662
 10
269.3738358014754
 20
289.3098504779183
 10
269.3097162025389
 20
289.3114393768787
 10
269.2116817751268
 20
289.3279387845439
 10
269.1654536876117
 20
289.347783964701
 10
269.0879593718194
 20
289.3810506243135
 10
269.0046647818383
 20
289.4120284650928
 10
268.9436121535607
 20
289.4444907233757
 10
268.8699289289484
 20
289.4836687888572
 10
268.7943117239714
 20
289.5305836416204
 10
268.7456645410605
 20
289.5614578952486
 10
268.6942989723968
 20
289.6130281389355
 10
268.62225022428
 20
289.67370467062
 10
268.597243451595
 20
289.6984589920357
 10
268.5549035587468
 20
289.7614406838531
  0
LINE
  5
EB8C
330
37
100
AcDbEntity
  8
01_表面形状
 62
     3
100
AcDbLine
 10
273.1851633254871
 20
296.5539936398334
 30
0.0
 11
271.2657929788902
 21
296.5352445318842
 31
0.0
  0
LINE
  5
EB8D
330
37
100
AcDbEntity
  8
01_表面形状
 62
     3
100
AcDbLine
 10
273.1851633254871
 20
289.4924462562681
 30
0.0
 11
271.2657929788901
 21
289.5111953642173
 31
0.0
  0
LINE
  5
EB8E
330
37
100
AcDbEntity
  8
01_表面形状
 62
     3
100
AcDbLine
 10
253.7105669240234
 20
300.7361097310123
 30
0.0
 11
254.6864893011042
 21
299.0832608055634
 31
0.0
  0
LINE
  5
EB8F
330
37
100
AcDbEntity
  8
01_表面形状
 62
     3
100
AcDbLine
 10
259.8260463482184
 20
304.2668834227951
 30
0.0
 11
260.7694943177345
 21
302.5952853893969
 31
0.0
  0
LINE
  5
EB90
330
37
100
AcDbEntity
  8
01_表面形状
 62
     3
100
AcDbLine
 10
259.8260463482186
 20
281.7795564733064
 30
0.0
 11
260.7694943177348
 21
283.4511545067045
 31
0.0
  0
LINE
  5
EB91
330
37
100
AcDbEntity
  8
01_表面形状
 62
     3
100
AcDbLine
 10
253.7105669240235
 20
285.3103301650889
 30
0.0
 11
254.6864893011043
 21
286.9631790905378
 31
0.0
  0
ARC
  5
EB92
330
37
100
AcDbEntity
  8
01_表面形状
 62
     3
100
AcDbCircle
 10
262.2405921992431
 20
293.0232199480507
 30
0.0
 40
18.95
100
AcDbArc
 50
142.5809097091571
 51
172.4190902908425
  0
ARC
  5
EB93
330
37
100
AcDbEntity
  8
01_表面形状
 62
     3
100
AcDbCircle
 10
262.2405921992431
 20
293.0232199480507
 30
0.0
 40
18.95
100
AcDbArc
 50
187.5809097091575
 51
217.4190902908429
  0
ARC
  5
EB94
330
37
100
AcDbEntity
  8
01_表面形状
 62
     3
100
AcDbCircle
 10
262.2405921992431
 20
293.0232199480507
 30
0.0
 40
18.95
100
AcDbArc
 50
232.5809097091564
 51
262.4190902908425
  0
ARC
  5
EB95
330
37
100
AcDbEntity
  8
01_表面形状
 62
     3
100
AcDbCircle
 10
262.2405921992431
 20
293.0232199480507
 30
0.0
 40
18.95
100
AcDbArc
 50
277.5809097091575
 51
307.4190902908435
  0
ARC
  5
EB96
330
37
100
AcDbEntity
  8
01_表面形状
 62
     3
100
AcDbCircle
 10
262.2405921992431
 20
293.0232199480507
 30
0.0
 40
18.95
100
AcDbArc
 50
322.5809097091571
 51
352.4190902908433
  0
ARC
  5
EB97
330
37
100
AcDbEntity
  8
01_表面形状
 62
     3
100
AcDbCircle
 10
262.2405921992431
 20
293.0232199480507
 30
0.0
 40
18.95
100
AcDbArc
 50
7.58090970915831
 51
37.41909029084291
  0
ARC
  5
EB98
330
37
100
AcDbEntity
  8
01_表面形状
 62
     3
100
AcDbCircle
 10
262.2405921992431
 20
293.0232199480507
 30
0.0
 40
18.95
100
AcDbArc
 50
52.58090970915823
 51
82.41909029084251
  0
ARC
  5
EB99
330
37
100
AcDbEntity
  8
01_表面形状
 62
     3
100
AcDbCircle
 10
262.2405921992431
 20
293.0232199480507
 30
0.0
 40
18.95
100
AcDbArc
 50
97.58090970915752
 51
127.4190902908417
  0
LINE
  5
EB9A
330
37
100
AcDbEntity
  8
01_表面形状
 62
     3
100
AcDbLine
 10
343.4946080562071
 20
237.2629996482434
 30
0.0
 11
343.4946080562071
 21
232.6405006490444
 31
0.0
  0
ARC
  5
EB9B
330
37
100
AcDbEntity
  8
01_表面形状
 62
     3
100
AcDbCircle
 10
342.9946080562071
 20
232.6405006490444
 30
0.0
 40
0.5
100
AcDbArc
 50
270.0
 51
0.0
  0
LINE
  5
EB9C
330
37
100
AcDbEntity
  8
01_表面形状
 62
     3
100
AcDbLine
 10
353.4946080562072
 20
222.1405006490444
 30
0.0
 11
338.4946080562073
 21
222.1405006490443
 31
0.0
  0
LINE
  5
EB9D
330
37
100
AcDbEntity
  8
01_表面形状
 62
     3
100
AcDbLine
 10
337.9946080562072
 20
228.1405006490444
 30
0.0
 11
337.9946080562072
 21
222.6405006490444
 31
0.0
  0
ARC
  5
EB9E
330
37
100
AcDbEntity
  8
01_表面形状
 62
     3
100
AcDbCircle
 10
338.4946080562073
 20
222.6405006490444
 30
0.0
 40
0.5
100
AcDbArc
 50
180.0
 51
270.0
  0
LINE
  5
EB9F
330
37
100
AcDbEntity
  8
01_表面形状
 62
     3
100
AcDbLine
 10
319.9946080562074
 20
228.1405006490444
 30
0.0
 11
345.9946080562072
 21
228.1405006490444
 31
0.0
  0
ARC
  5
EBA0
330
37
100
AcDbEntity
  8
01_表面形状
 62
     3
100
AcDbCircle
 10
319.9946080562074
 20
229.1405006490444
 30
0.0
 40
1.0
100
AcDbArc
 50
180.0
 51
270.0
  0
LINE
  5
EBA1
330
37
100
AcDbEntity
  8
01_表面形状
 62
     3
100
AcDbLine
 10
324.9585419673677
 20
232.1405006490444
 30
0.0
 11
327.9121164447821
 21
232.1405006490444
 31
0.0
  0
LINE
  5
EBA2
330
37
100
AcDbEntity
  8
01_表面形状
 62
     3
100
AcDbLine
 10
333.2595329332701
 20
232.1405006490444
 30
0.0
 11
342.9946080562071
 21
232.1405006490444
 31
0.0
  0
ARC
  5
EBA3
330
37
100
AcDbEntity
  8
01_表面形状
 62
     3
100
AcDbCircle
 10
326.5224721012075
 20
232.1405006490446
 30
0.0
 40
6.0
100
AcDbArc
 50
52.8487641422125
 51
133.1811650403469
  0
ARC
  5
EBA4
330
37
100
AcDbEntity
  8
01_表面形状
 62
     3
100
AcDbCircle
 10
328.7672437442074
 20
228.7962026797162
 30
0.0
 40
9.996018439199417
100
AcDbArc
 50
129.4433200958759
 51
160.454033283903
  0
LINE
  5
EBA5
330
37
100
AcDbEntity
  8
01_表面形状
 62
     3
100
AcDbLine
 10
318.9946080562074
 20
230.1405006490446
 30
0.0
 11
319.3472620176243
 21
232.1405006490446
 31
0.0
  0
LINE
  5
EBA6
330
37
100
AcDbEntity
  8
01_表面形状
 62
     3
100
AcDbLine
 10
336.5352863832114
 20
236.1405006490446
 30
0.0
 11
343.4946080562071
 21
236.1405006490446
 31
0.0
  0
ARC
  5
EBA7
330
37
100
AcDbEntity
  8
01_表面形状
 62
     3
100
AcDbCircle
 10
345.9946080562072
 20
234.1405006490444
 30
0.0
 40
4.0
100
AcDbArc
 50
51.31781254650645
 51
128.6821874534935
  0
ARC
  5
EBA8
330
37
100
AcDbEntity
  8
01_表面形状
 62
     3
100
AcDbCircle
 10
335.1925732362537
 20
231.6525448151448
 30
0.0
 40
7.296790526548097
100
AcDbArc
 50
132.1090548649599
 51
176.165616994856
  0
ARC
  5
EBA9
330
37
100
AcDbEntity
  8
01_表面形状
 62
     3
100
AcDbCircle
 10
328.2357652292234
 20
228.810914056481
 30
0.0
 40
5.190203588899719
100
AcDbArc
 50
89.46753917726557
 51
132.0794847267307
  0
ARC
  5
EBAA
330
37
100
AcDbEntity
  8
01_表面形状
 62
     3
100
AcDbCircle
 10
324.9585419673677
 20
232.4405006490443
 30
0.0
 40
0.3
100
AcDbArc
 50
132.0794847267353
 51
270.0
  0
ARC
  5
EBAB
330
37
100
AcDbEntity
  8
01_表面形状
 62
     3
100
AcDbCircle
 10
335.6033710547917
 20
230.1004632494211
 30
0.0
 40
3.956207044056985
100
AcDbArc
 50
76.37549603260833
 51
132.6995013409754
  0
ARC
  5
EBAC
330
37
100
AcDbEntity
  8
01_表面形状
 62
     3
100
AcDbCircle
 10
333.2595329332701
 20
232.6405006490442
 30
0.0
 40
0.5
100
AcDbArc
 50
132.6995013409754
 51
270.0
  0
LINE
  5
EBAD
330
37
100
AcDbEntity
  8
01_表面形状
 62
     3
100
AcDbLine
 10
343.4946080562071
 20
233.9453440012916
 30
0.0
 11
336.5352863832113
 21
233.9453440012913
 31
0.0
  0
ARC
  5
EBAE
330
37
100
AcDbEntity
  8
01_表面形状
 62
     3
100
AcDbCircle
 10
333.0446832557536
 20
234.0906679435044
 30
0.0
 40
4.047977805536993
100
AcDbArc
 50
30.42329336058815
 51
132.6952409049223
  0
LINE
  5
EBAF
330
37
100
AcDbEntity
  8
01_表面形状
 62
     3
100
AcDbLine
 10
318.9946080562074
 20
230.1405006490446
 30
0.0
 11
318.9946080562074
 21
229.1405006490444
 31
0.0
  0
LINE
  5
EBB0
330
37
100
AcDbEntity
  8
01_表面形状
 62
     3
100
AcDbLine
 10
348.4946080562074
 20
237.2629996482434
 30
0.0
 11
348.4946080562074
 21
232.6405006490444
 31
0.0
  0
ARC
  5
EBB1
330
37
100
AcDbEntity
  8
01_表面形状
 62
     3
100
AcDbCircle
 10
348.9946080562074
 20
232.6405006490444
 30
0.0
 40
0.5
100
AcDbArc
 50
180.0
 51
270.0
  0
LINE
  5
EBB2
330
37
100
AcDbEntity
  8
01_表面形状
 62
     3
100
AcDbLine
 10
353.9946080562072
 20
228.1405006490444
 30
0.0
 11
353.9946080562072
 21
222.6405006490444
 31
0.0
  0
ARC
  5
EBB3
330
37
100
AcDbEntity
  8
01_表面形状
 62
     3
100
AcDbCircle
 10
353.4946080562072
 20
222.6405006490444
 30
0.0
 40
0.5
100
AcDbArc
 50
270.0
 51
0.0
  0
LINE
  5
EBB4
330
37
100
AcDbEntity
  8
01_表面形状
 62
     3
100
AcDbLine
 10
371.9946080562071
 20
228.1405006490444
 30
0.0
 11
345.9946080562074
 21
228.1405006490444
 31
0.0
  0
ARC
  5
EBB5
330
37
100
AcDbEntity
  8
01_表面形状
 62
     3
100
AcDbCircle
 10
371.9946080562071
 20
229.1405006490444
 30
0.0
 40
1.0
100
AcDbArc
 50
270.0
 51
0.0
  0
LINE
  5
EBB6
330
37
100
AcDbEntity
  8
01_表面形状
 62
     3
100
AcDbLine
 10
367.0306741450468
 20
232.1405006490444
 30
0.0
 11
364.0770996676324
 21
232.1405006490444
 31
0.0
  0
LINE
  5
EBB7
330
37
100
AcDbEntity
  8
01_表面形状
 62
     3
100
AcDbLine
 10
358.7296831791443
 20
232.1405006490444
 30
0.0
 11
348.9946080562074
 21
232.1405006490444
 31
0.0
  0
ARC
  5
EBB8
330
37
100
AcDbEntity
  8
01_表面形状
 62
     3
100
AcDbCircle
 10
365.466744011207
 20
232.1405006490446
 30
0.0
 40
6.0
100
AcDbArc
 50
46.81883495965073
 51
127.1512358577875
  0
ARC
  5
EBB9
330
37
100
AcDbEntity
  8
01_表面形状
 62
     3
100
AcDbCircle
 10
363.221972368207
 20
228.7962026797162
 30
0.0
 40
9.996018439199417
100
AcDbArc
 50
19.545966716097
 51
50.55667990412404
  0
LINE
  5
EBBA
330
37
100
AcDbEntity
  8
01_表面形状
 62
     3
100
AcDbLine
 10
372.9946080562071
 20
230.1405006490446
 30
0.0
 11
372.6419540947902
 21
232.1405006490446
 31
0.0
  0
LINE
  5
EBBB
330
37
100
AcDbEntity
  8
01_表面形状
 62
     3
100
AcDbLine
 10
355.4539297292031
 20
236.1405006490446
 30
0.0
 11
348.4946080562074
 21
236.1405006490446
 31
0.0
  0
ARC
  5
EBBC
330
37
100
AcDbEntity
  8
01_表面形状
 62
     3
100
AcDbCircle
 10
356.7966428761607
 20
231.6525448151448
 30
0.0
 40
7.296790526548097
100
AcDbArc
 50
3.834383005143966
 51
47.89094513504012
  0
ARC
  5
EBBD
330
37
100
AcDbEntity
  8
01_表面形状
 62
     3
100
AcDbCircle
 10
363.753450883191
 20
228.810914056481
 30
0.0
 40
5.190203588899719
100
AcDbArc
 50
47.9205152732716
 51
90.53246082273444
  0
ARC
  5
EBBE
330
37
100
AcDbEntity
  8
01_表面形状
 62
     3
100
AcDbCircle
 10
367.0306741450468
 20
232.4405006490443
 30
0.0
 40
0.3
100
AcDbArc
 50
270.0
 51
47.9205152732647
  0
ARC
  5
EBBF
330
37
100
AcDbEntity
  8
01_表面形状
 62
     3
100
AcDbCircle
 10
356.3858450576228
 20
230.1004632494211
 30
0.0
 40
3.956207044056985
100
AcDbArc
 50
47.3004986590246
 51
103.6245039673916
  0
ARC
  5
EBC0
330
37
100
AcDbEntity
  8
01_表面形状
 62
     3
100
AcDbCircle
 10
358.7296831791443
 20
232.6405006490442
 30
0.0
 40
0.5
100
AcDbArc
 50
270.0
 51
47.3004986590246
  0
LINE
  5
EBC1
330
37
100
AcDbEntity
  8
01_表面形状
 62
     3
100
AcDbLine
 10
348.4946080562074
 20
233.9453440012916
 30
0.0
 11
355.4539297292032
 21
233.9453440012913
 31
0.0
  0
ARC
  5
EBC2
330
37
100
AcDbEntity
  8
01_表面形状
 62
     3
100
AcDbCircle
 10
358.9445328566609
 20
234.0906679435044
 30
0.0
 40
4.047977805536993
100
AcDbArc
 50
47.30475909507536
 51
149.5767066394126
  0
LINE
  5
EBC3
330
37
100
AcDbEntity
  8
01_表面形状
 62
     3
100
AcDbLine
 10
372.9946080562071
 20
230.1405006490446
 30
0.0
 11
372.9946080562071
 21
229.1405006490444
 31
0.0
  0
LINE
  5
EBC4
330
37
100
AcDbEntity
  8
01_表面形状
 62
     3
100
AcDbLine
 10
337.9946080562072
 20
225.323496326395
 30
0.0
 11
334.1662110562071
 21
228.1404986490443
 31
0.0
  0
LINE
  5
EBC5
330
37
100
AcDbEntity
  8
01_表面形状
 62
     3
100
AcDbLine
 10
353.9946080562072
 20
225.323496326395
 30
0.0
 11
357.823014056207
 21
228.1404946490443
 31
0.0
  0
LINE
  5
EBC6
330
37
100
AcDbEntity
  8
01_表面形状
 62
     3
100
AcDbLine
 10
259.740592199243
 20
237.2629996482434
 30
0.0
 11
259.740592199243
 21
232.6405006490444
 31
0.0
  0
ARC
  5
EBC7
330
37
100
AcDbEntity
  8
01_表面形状
 62
     3
100
AcDbCircle
 10
259.240592199243
 20
232.6405006490444
 30
0.0
 40
0.5
100
AcDbArc
 50
270.0
 51
0.0
  0
LINE
  5
EBC8
330
37
100
AcDbEntity
  8
01_表面形状
 62
     3
100
AcDbLine
 10
269.7405921992431
 20
222.1405006490444
 30
0.0
 11
254.7405921992431
 21
222.1405006490443
 31
0.0
  0
LINE
  5
EBC9
330
37
100
AcDbEntity
  8
01_表面形状
 62
     3
100
AcDbLine
 10
254.2405921992431
 20
228.1405006490444
 30
0.0
 11
254.2405921992431
 21
222.6405006490444
 31
0.0
  0
ARC
  5
EBCA
330
37
100
AcDbEntity
  8
01_表面形状
 62
     3
100
AcDbCircle
 10
254.7405921992431
 20
222.6405006490444
 30
0.0
 40
0.5
100
AcDbArc
 50
180.0
 51
270.0
  0
LINE
  5
EBCB
330
37
100
AcDbEntity
  8
01_表面形状
 62
     3
100
AcDbLine
 10
236.2405921992432
 20
228.1405006490444
 30
0.0
 11
262.240592199243
 21
228.1405006490444
 31
0.0
  0
ARC
  5
EBCC
330
37
100
AcDbEntity
  8
01_表面形状
 62
     3
100
AcDbCircle
 10
236.2405921992432
 20
229.1405006490444
 30
0.0
 40
1.0
100
AcDbArc
 50
180.0
 51
270.0
  0
LINE
  5
EBCD
330
37
100
AcDbEntity
  8
01_表面形状
 62
     3
100
AcDbLine
 10
241.2045261104035
 20
232.1405006490444
 30
0.0
 11
244.1581005878179
 21
232.1405006490444
 31
0.0
  0
LINE
  5
EBCE
330
37
100
AcDbEntity
  8
01_表面形状
 62
     3
100
AcDbLine
 10
249.5055170763059
 20
232.1405006490444
 30
0.0
 11
259.240592199243
 21
232.1405006490444
 31
0.0
  0
ARC
  5
EBCF
330
37
100
AcDbEntity
  8
01_表面形状
 62
     3
100
AcDbCircle
 10
242.7684562442433
 20
232.1405006490446
 30
0.0
 40
6.0
100
AcDbArc
 50
52.8487641422125
 51
133.1811650403469
  0
ARC
  5
EBD0
330
37
100
AcDbEntity
  8
01_表面形状
 62
     3
100
AcDbCircle
 10
245.0132278872432
 20
228.7962026797162
 30
0.0
 40
9.996018439199417
100
AcDbArc
 50
129.4433200958759
 51
160.454033283903
  0
LINE
  5
EBD1
330
37
100
AcDbEntity
  8
01_表面形状
 62
     3
100
AcDbLine
 10
235.2405921992432
 20
230.1405006490446
 30
0.0
 11
235.5932461606601
 21
232.1405006490446
 31
0.0
  0
LINE
  5
EBD2
330
37
100
AcDbEntity
  8
01_表面形状
 62
     3
100
AcDbLine
 10
252.7812705262472
 20
236.1405006490446
 30
0.0
 11
259.740592199243
 21
236.1405006490446
 31
0.0
  0
ARC
  5
EBD3
330
37
100
AcDbEntity
  8
01_表面形状
 62
     3
100
AcDbCircle
 10
262.2405921992431
 20
234.1405006490444
 30
0.0
 40
4.0
100
AcDbArc
 50
51.31781254650645
 51
128.6821874534935
  0
ARC
  5
EBD4
330
37
100
AcDbEntity
  8
01_表面形状
 62
     3
100
AcDbCircle
 10
251.4385573792896
 20
231.6525448151448
 30
0.0
 40
7.296790526548097
100
AcDbArc
 50
132.1090548649599
 51
176.165616994856
  0
ARC
  5
EBD5
330
37
100
AcDbEntity
  8
01_表面形状
 62
     3
100
AcDbCircle
 10
244.4817493722593
 20
228.810914056481
 30
0.0
 40
5.190203588899719
100
AcDbArc
 50
89.46753917726557
 51
132.0794847267307
  0
ARC
  5
EBD6
330
37
100
AcDbEntity
  8
01_表面形状
 62
     3
100
AcDbCircle
 10
241.2045261104035
 20
232.4405006490443
 30
0.0
 40
0.3
100
AcDbArc
 50
132.0794847267353
 51
270.0
  0
ARC
  5
EBD7
330
37
100
AcDbEntity
  8
01_表面形状
 62
     3
100
AcDbCircle
 10
251.8493551978275
 20
230.1004632494211
 30
0.0
 40
3.956207044056985
100
AcDbArc
 50
76.37549603260833
 51
132.6995013409754
  0
ARC
  5
EBD8
330
37
100
AcDbEntity
  8
01_表面形状
 62
     3
100
AcDbCircle
 10
249.5055170763059
 20
232.6405006490442
 30
0.0
 40
0.5
100
AcDbArc
 50
132.6995013409754
 51
270.0
  0
LINE
  5
EBD9
330
37
100
AcDbEntity
  8
01_表面形状
 62
     3
100
AcDbLine
 10
259.740592199243
 20
233.9453440012916
 30
0.0
 11
252.7812705262471
 21
233.9453440012913
 31
0.0
  0
ARC
  5
EBDA
330
37
100
AcDbEntity
  8
01_表面形状
 62
     3
100
AcDbCircle
 10
249.2906673987894
 20
234.0906679435044
 30
0.0
 40
4.047977805536993
100
AcDbArc
 50
30.42329336058815
 51
132.6952409049223
  0
LINE
  5
EBDB
330
37
100
AcDbEntity
  8
01_表面形状
 62
     3
100
AcDbLine
 10
235.2405921992432
 20
230.1405006490446
 30
0.0
 11
235.2405921992432
 21
229.1405006490444
 31
0.0
  0
LINE
  5
EBDC
330
37
100
AcDbEntity
  8
01_表面形状
 62
     3
100
AcDbLine
 10
264.7405921992432
 20
237.2629996482434
 30
0.0
 11
264.7405921992432
 21
232.6405006490444
 31
0.0
  0
ARC
  5
EBDD
330
37
100
AcDbEntity
  8
01_表面形状
 62
     3
100
AcDbCircle
 10
265.2405921992432
 20
232.6405006490444
 30
0.0
 40
0.5
100
AcDbArc
 50
180.0
 51
270.0
  0
LINE
  5
EBDE
330
37
100
AcDbEntity
  8
01_表面形状
 62
     3
100
AcDbLine
 10
270.2405921992431
 20
228.1405006490444
 30
0.0
 11
270.2405921992431
 21
222.6405006490444
 31
0.0
  0
ARC
  5
EBDF
330
37
100
AcDbEntity
  8
01_表面形状
 62
     3
100
AcDbCircle
 10
269.7405921992431
 20
222.6405006490444
 30
0.0
 40
0.5
100
AcDbArc
 50
270.0
 51
0.0
  0
LINE
  5
EBE0
330
37
100
AcDbEntity
  8
01_表面形状
 62
     3
100
AcDbLine
 10
288.240592199243
 20
228.1405006490444
 30
0.0
 11
262.2405921992432
 21
228.1405006490444
 31
0.0
  0
ARC
  5
EBE1
330
37
100
AcDbEntity
  8
01_表面形状
 62
     3
100
AcDbCircle
 10
288.240592199243
 20
229.1405006490444
 30
0.0
 40
1.0
100
AcDbArc
 50
270.0
 51
0.0
  0
LINE
  5
EBE2
330
37
100
AcDbEntity
  8
01_表面形状
 62
     3
100
AcDbLine
 10
283.2766582880827
 20
232.1405006490444
 30
0.0
 11
280.3230838106683
 21
232.1405006490444
 31
0.0
  0
LINE
  5
EBE3
330
37
100
AcDbEntity
  8
01_表面形状
 62
     3
100
AcDbLine
 10
274.9756673221802
 20
232.1405006490444
 30
0.0
 11
265.2405921992432
 21
232.1405006490444
 31
0.0
  0
ARC
  5
EBE4
330
37
100
AcDbEntity
  8
01_表面形状
 62
     3
100
AcDbCircle
 10
281.7127281542429
 20
232.1405006490446
 30
0.0
 40
6.0
100
AcDbArc
 50
46.81883495965073
 51
127.1512358577875
  0
ARC
  5
EBE5
330
37
100
AcDbEntity
  8
01_表面形状
 62
     3
100
AcDbCircle
 10
279.467956511243
 20
228.7962026797162
 30
0.0
 40
9.996018439199417
100
AcDbArc
 50
19.545966716097
 51
50.55667990412404
  0
LINE
  5
EBE6
330
37
100
AcDbEntity
  8
01_表面形状
 62
     3
100
AcDbLine
 10
289.240592199243
 20
230.1405006490446
 30
0.0
 11
288.8879382378261
 21
232.1405006490446
 31
0.0
  0
LINE
  5
EBE7
330
37
100
AcDbEntity
  8
01_表面形状
 62
     3
100
AcDbLine
 10
271.699913872239
 20
236.1405006490446
 30
0.0
 11
264.7405921992432
 21
236.1405006490446
 31
0.0
  0
ARC
  5
EBE8
330
37
100
AcDbEntity
  8
01_表面形状
 62
     3
100
AcDbCircle
 10
273.0426270191966
 20
231.6525448151448
 30
0.0
 40
7.296790526548097
100
AcDbArc
 50
3.834383005143966
 51
47.89094513504012
  0
ARC
  5
EBE9
330
37
100
AcDbEntity
  8
01_表面形状
 62
     3
100
AcDbCircle
 10
279.9994350262269
 20
228.810914056481
 30
0.0
 40
5.190203588899719
100
AcDbArc
 50
47.9205152732716
 51
90.53246082273444
  0
ARC
  5
EBEA
330
37
100
AcDbEntity
  8
01_表面形状
 62
     3
100
AcDbCircle
 10
283.2766582880827
 20
232.4405006490443
 30
0.0
 40
0.3
100
AcDbArc
 50
270.0
 51
47.9205152732647
  0
ARC
  5
EBEB
330
37
100
AcDbEntity
  8
01_表面形状
 62
     3
100
AcDbCircle
 10
272.6318292006587
 20
230.1004632494211
 30
0.0
 40
3.956207044056985
100
AcDbArc
 50
47.3004986590246
 51
103.6245039673916
  0
ARC
  5
EBEC
330
37
100
AcDbEntity
  8
01_表面形状
 62
     3
100
AcDbCircle
 10
274.9756673221802
 20
232.6405006490442
 30
0.0
 40
0.5
100
AcDbArc
 50
270.0
 51
47.3004986590246
  0
LINE
  5
EBED
330
37
100
AcDbEntity
  8
01_表面形状
 62
     3
100
AcDbLine
 10
264.7405921992432
 20
233.9453440012916
 30
0.0
 11
271.6999138722391
 21
233.9453440012913
 31
0.0
  0
ARC
  5
EBEE
330
37
100
AcDbEntity
  8
01_表面形状
 62
     3
100
AcDbCircle
 10
275.1905169996968
 20
234.0906679435044
 30
0.0
 40
4.047977805536993
100
AcDbArc
 50
47.30475909507536
 51
149.5767066394126
  0
LINE
  5
EBEF
330
37
100
AcDbEntity
  8
01_表面形状
 62
     3
100
AcDbLine
 10
289.240592199243
 20
230.1405006490446
 30
0.0
 11
289.240592199243
 21
229.1405006490444
 31
0.0
  0
LINE
  5
EBF0
330
37
100
AcDbEntity
  8
01_表面形状
 62
     3
100
AcDbLine
 10
254.2405921992431
 20
225.323496326395
 30
0.0
 11
250.412195199243
 21
228.1404986490443
 31
0.0
  0
LINE
  5
EBF1
330
37
100
AcDbEntity
  8
01_表面形状
 62
     3
100
AcDbLine
 10
270.2405921992431
 20
225.323496326395
 30
0.0
 11
274.068998199243
 21
228.1404946490443
 31
0.0
  0
LINE
  5
EBF3
330
37
100
AcDbEntity
  8
01_表面形状
 62
     3
100
AcDbLine
 10
254.7405691992433
 20
206.0038716270145
 30
0.0
 11
254.7405691992433
 21
202.6519586222557
 31
0.0
  0
LINE
  5
EBF4
330
37
100
AcDbEntity
  8
01_表面形状
 62
     3
100
AcDbLine
 10
254.7405691992433
 20
206.0038716270145
 30
0.0
 11
254.7405691992433
 21
202.6519586222557
 31
0.0
  0
ARC
  5
EBF5
330
37
100
AcDbEntity
  8
01_表面形状
 62
     3
100
AcDbCircle
 10
251.7405691992433
 20
202.6519586222557
 30
0.0
 40
3.0
100
AcDbArc
 50
290.0000000000001
 51
0.0
  0
LINE
  5
EBF6
330
37
100
AcDbEntity
  8
01_表面形状
 62
     3
100
AcDbLine
 10
254.7405691992433
 20
203.0192981270146
 30
0.0
 11
269.7155921992433
 21
203.0192981270145
 31
0.0
  0
LINE
  5
EBF7
330
37
100
AcDbEntity
  8
01_表面形状
 62
     3
100
AcDbLine
 10
269.0905851992433
 20
206.0038716270145
 30
0.0
 11
269.0905851992433
 21
203.0192981270145
 31
0.0
  0
LINE
  5
EBF8
330
37
100
AcDbEntity
  8
01_表面形状
 62
     3
100
AcDbLine
 10
255.3905841992433
 20
206.0038716270145
 30
0.0
 11
255.3905841992433
 21
203.0192981270145
 31
0.0
  0
LINE
  5
EBF9
330
37
100
AcDbEntity
  8
01_表面形状
 62
     3
100
AcDbLine
 10
252.4405841992433
 20
206.0038716270145
 30
0.0
 11
272.0405851992433
 21
206.0038716270145
 31
0.0
  0
LINE
  5
EBFA
330
37
100
AcDbEntity
  8
01_表面形状
 62
     3
100
AcDbLine
 10
257.3331149111313
 20
214.0038716270145
 30
0.0
 11
257.3331149111313
 21
206.0038716270145
 31
0.0
  0
LINE
  5
EBFB
330
37
100
AcDbEntity
  8
01_表面形状
 62
     3
100
AcDbLine
 10
267.148069487355
 20
214.0038716270145
 30
0.0
 11
267.148069487355
 21
206.0038716270145
 31
0.0
  0
LINE
  5
EBFC
330
37
100
AcDbEntity
  8
01_表面形状
 62
     3
100
AcDbLine
 10
252.4405916992433
 20
214.0038716270145
 30
0.0
 11
252.4405916992433
 21
206.0038716270145
 31
0.0
  0
LINE
  5
EBFD
330
37
100
AcDbEntity
  8
01_表面形状
 62
     3
100
AcDbLine
 10
272.0405926992432
 20
214.0038716270145
 30
0.0
 11
272.0405926992433
 21
206.0038716270145
 31
0.0
  0
LINE
  5
EBFE
330
37
100
AcDbEntity
  8
01_表面形状
 62
     3
100
AcDbLine
 10
252.4405916992433
 20
206.0038716270145
 30
0.0
 11
272.0405926992433
 21
206.0038716270145
 31
0.0
  0
LINE
  5
EBFF
330
37
100
AcDbEntity
  8
01_表面形状
 62
     3
100
AcDbLine
 10
252.4405916992433
 20
206.0038716270145
 30
0.0
 11
272.0405926992433
 21
206.0038716270145
 31
0.0
  0
LINE
  5
EC00
330
37
100
AcDbEntity
  8
01_表面形状
 62
     3
100
AcDbLine
 10
252.4405916992431
 20
214.0038716270145
 30
0.0
 11
272.0405926992431
 21
214.0038716270145
 31
0.0
  0
LINE
  5
EC01
330
37
100
AcDbEntity
  8
01_表面形状
 62
     3
100
AcDbLine
 10
252.4405916992431
 20
214.0038716270145
 30
0.0
 11
272.0405926992431
 21
214.0038716270145
 31
0.0
  0
LINE
  5
EC02
330
37
100
AcDbEntity
  8
01_表面形状
 62
     3
100
AcDbLine
 10
252.4405916992433
 20
214.0038716270145
 30
0.0
 11
272.0405926992433
 21
214.0038716270145
 31
0.0
  0
LINE
  5
EC03
330
37
100
AcDbEntity
  8
01_表面形状
 62
     3
100
AcDbLine
 10
338.4945850562074
 20
203.0192981270145
 30
0.0
 11
353.4696080562075
 21
203.0192981270145
 31
0.0
  0
LINE
  5
EC04
330
37
100
AcDbEntity
  8
01_表面形状
 62
     3
100
AcDbLine
 10
345.994608056207
 20
214.0038716270145
 30
0.0
 11
345.9946080562072
 21
206.0038716270145
 31
0.0
  0
LINE
  5
EC05
330
37
100
AcDbEntity
  8
01_表面形状
 62
     3
100
AcDbLine
 10
354.494608056207
 20
214.0038716270145
 30
0.0
 11
354.494608056207
 21
206.0038716270145
 31
0.0
  0
LINE
  5
EC06
330
37
100
AcDbEntity
  8
01_表面形状
 62
     3
100
AcDbLine
 10
337.494608056207
 20
214.0038716270145
 30
0.0
 11
337.494608056207
 21
206.0038716270145
 31
0.0
  0
LINE
  5
EC07
330
37
100
AcDbEntity
  8
01_表面形状
 62
     3
100
AcDbLine
 10
337.494608056207
 20
206.0038716270146
 30
0.0
 11
354.494608056207
 21
206.0038716270145
 31
0.0
  0
LINE
  5
EC08
330
37
100
AcDbEntity
  8
01_表面形状
 62
     3
100
AcDbLine
 10
337.4946080562073
 20
206.0038716270146
 30
0.0
 11
354.4946080562072
 21
206.0038716270145
 31
0.0
  0
LINE
  5
EC09
330
37
100
AcDbEntity
  8
01_表面形状
 62
     3
100
AcDbLine
 10
337.4946080562069
 20
214.0038716270145
 30
0.0
 11
354.494608056207
 21
214.0038716270145
 31
0.0
  0
LINE
  5
EC0A
330
37
100
AcDbEntity
  8
01_表面形状
 62
     3
100
AcDbLine
 10
337.4946080562069
 20
214.0038716270145
 30
0.0
 11
354.494608056207
 21
214.0038716270145
 31
0.0
  0
LINE
  5
EC0B
330
37
100
AcDbEntity
  8
01_表面形状
 62
     3
100
AcDbLine
 10
337.4946080562069
 20
214.0038716270145
 30
0.0
 11
354.494608056207
 21
214.0038716270145
 31
0.0
  0
TEXT
  5
EC0C
330
37
100
AcDbEntity
  8
12_文字
 62
   110
100
AcDbText
 10
237.6354466398377
 20
103.1569161490444
 30
0.0
 40
4.167180999999999
  1
        GATE VALVE  3/4
 41
0.9722519999999999
  7
MX_NOTE_STANDARD
 11
237.6354466398377
 21
105.2405066490444
 31
0.0
100
AcDbText
 73
     2
  0
TEXT
  5
EC0D
330
37
100
AcDbEntity
  8
12_文字
 62
   110
100
AcDbText
 10
237.5939366398377
 20
87.15691614904439
 30
0.0
 40
4.167180999999999
  1
TOA
 41
0.9124859999999999
  7
MX_NOTE_STANDARD
 11
237.5939366398377
 21
89.2405066490444
 31
0.0
100
AcDbText
 73
     2
  0
TEXT
  5
EC0E
330
37
100
AcDbEntity
  8
12_文字
 62
   110
100
AcDbText
 10
237.6352196398377
 20
95.15691614904438
 30
0.0
 40
4.167180999999999
  1
FIG   FR3/4
 41
0.971926
  7
MX_NOTE_STANDARD
 11
237.6352196398377
 21
97.24050664904439
 31
0.0
100
AcDbText
 73
     2
  0
TEXT
  5
EC0F
330
37
100
AcDbEntity
  8
12_文字
 62
   110
100
AcDbText
 10
237.5939366398377
 20
111.1569161490444
 30
0.0
 40
4.167180999999999
  1
NAME  CLASS 125 BRASS
 41
0.9124859999999999
  7
MX_NOTE_STANDARD
 11
237.5939366398377
 21
113.2405066490444
 31
0.0
100
AcDbText
 73
     2
  0
LINE
  5
EC10
330
37
100
AcDbEntity
  8
01_表面形状
 62
     3
100
AcDbLine
 10
257.3606140747293
 20
158.7392191444445
 30
0.0
 11
260.3405044675796
 21
158.7349037979669
 31
0.0
  0
ARC
  5
EC11
330
37
100
AcDbEntity
  8
01_表面形状
 62
     3
100
AcDbCircle
 10
260.3400733334215
 20
158.4371913101407
 30
0.0
 40
0.2977128
100
AcDbArc
 50
345.0000000000056
 51
89.91702682484527
1001
GENIUS_GENOBJ-N-FIL_13
1002
{
1000
OWNER
1000
GEN
1002
}
1001
GENIUS_GENODEF_13
1002
{
1000
HIER
1070
     0
1002
}
1002
{
1000
MANEDIT
1070
     0
1002
}
1002
{
1000
NOSEL
1070
     0
1002
}
1002
{
1000
BEHIND
1070
     0
1002
}
1002
{
1000
OTHER
1070
     0
1002
}
1002
{
1000
REACTOR
1002
}
  0
LINE
  5
EC12
330
37
100
AcDbEntity
  8
01_表面形状
 62
     3
100
AcDbLine
 10
259.3211388146133
 20
157.8395395205965
 30
0.0
 11
260.2580318375294
 21
157.8395395205965
 31
0.0
  0
ARC
  5
EC13
330
37
100
AcDbEntity
  8
01_表面形状
 62
     3
100
AcDbCircle
 10
257.2802579318436
 20
158.1394327285441
 30
0.0
 40
0.29989320795
100
AcDbArc
 50
165.0000000000055
 51
270.0
  0
ARC
  5
EC14
330
37
100
AcDbEntity
  8
01_表面形状
 62
     3
100
AcDbCircle
 10
258.1377012246976
 20
155.4403938569947
 30
0.0
 40
0.29989320795
100
AcDbArc
 50
270.0
 51
345.0000000000056
  0
ARC
  5
EC15
330
37
100
AcDbEntity
  8
01_表面形状
 62
     3
100
AcDbCircle
 10
257.9541779727292
 20
155.4403938569947
 30
0.0
 40
0.29989320795
100
AcDbArc
 50
165.0000000000055
 51
270.0
  0
LINE
  5
EC16
330
37
100
AcDbEntity
  8
01_表面形状
 62
     3
100
AcDbLine
 10
257.9541779727292
 20
155.1405006490443
 30
0.0
 11
258.1377012246976
 21
155.1405006490443
 31
0.0
  0
LINE
  5
EC17
330
37
100
AcDbEntity
  8
01_表面形状
 62
     3
100
AcDbLine
 10
257.2802579318436
 20
157.8395395205965
 30
0.0
 11
257.8957263832153
 21
157.8395395205965
 31
0.0
  0
LINE
  5
EC18
330
37
100
AcDbEntity
  8
01_表面形状
 62
     3
100
AcDbLine
 10
258.1854009779036
 20
157.4620282389308
 30
0.0
 11
257.6645033780414
 21
155.5180119307086
 31
0.0
  0
ARC
  5
EC19
330
37
100
AcDbEntity
  8
01_表面形状
 62
     3
100
AcDbCircle
 10
259.3211388146133
 20
157.5396463126443
 30
0.0
 40
0.29989320795
100
AcDbArc
 50
90.0
 51
165.0000000000055
  0
ARC
  5
EC1A
330
37
100
AcDbEntity
  8
01_表面形状
 62
     3
100
AcDbCircle
 10
257.8957263832153
 20
157.5396463126443
 30
0.0
 40
0.29989320795
100
AcDbArc
 50
345.0000000000056
 51
90.0
  0
LINE
  5
EC1B
330
37
100
AcDbEntity
  8
01_表面形状
 62
     3
100
AcDbLine
 10
259.0314642199255
 20
157.6172643863586
 30
0.0
 11
258.4273758193853
 21
155.3627757832808
 31
0.0
  0
LINE
  5
EC1C
330
37
100
AcDbEntity
  8
01_表面形状
 62
     3
100
AcDbLine
 10
257.0709394800415
 20
158.5169440102089
 30
0.0
 11
256.9905833371554
 21
158.2170508022608
 31
0.0
  0
ARC
  5
EC1D
330
37
100
AcDbEntity
  8
01_表面形状
 62
     3
100
AcDbCircle
 10
257.3606140747293
 20
158.439325936495
 30
0.0
 40
0.29989320795
100
AcDbArc
 50
90.0
 51
165.0000000000055
  0
ARC
  5
EC1E
330
37
100
AcDbEntity
  8
01_表面形状
 62
     3
100
AcDbCircle
 10
266.8424224111472
 20
157.5396463126443
 30
0.0
 40
1.199572831799999
100
AcDbArc
 50
0.0
 51
90.0
  0
ARC
  5
EC1F
330
37
100
AcDbEntity
  8
01_表面形状
 62
     3
100
AcDbCircle
 10
267.4231631111634
 20
155.4403938569947
 30
0.0
 40
0.29989320795
100
AcDbArc
 50
194.4775121859299
 51
270.0
  0
ARC
  5
EC20
330
37
100
AcDbEntity
  8
01_表面形状
 62
     3
100
AcDbCircle
 10
266.3280150700653
 20
157.5396463126443
 30
0.0
 40
1.199572831799999
100
AcDbArc
 50
90.0
 51
165.0000000000055
  0
ARC
  5
EC21
330
37
100
AcDbEntity
  8
01_表面形状
 62
     3
100
AcDbCircle
 10
260.2580318375294
 20
158.1394327285441
 30
0.0
 40
0.29989320795
100
AcDbArc
 50
270.0
 51
345.0000000000056
  0
LINE
  5
EC22
330
37
100
AcDbEntity
  8
01_表面形状
 62
     3
100
AcDbLine
 10
261.1375377014533
 20
157.3896997086707
 30
0.0
 11
264.1153116071373
 21
157.3896997086707
 31
0.0
  0
LINE
  5
EC23
330
37
100
AcDbEntity
  8
01_表面形状
 62
     3
100
AcDbLine
 10
260.6955789155813
 20
155.1405006490443
 30
0.0
 11
263.6733528212671
 21
155.1405006490443
 31
0.0
  0
ARC
  5
EC24
330
37
100
AcDbEntity
  8
01_表面形状
 62
     3
100
AcDbCircle
 10
260.6955789155813
 20
155.4403938569947
 30
0.0
 40
0.29989320795
100
AcDbArc
 50
165.0000000000055
 51
270.0
  0
ARC
  5
EC25
330
37
100
AcDbEntity
  8
01_表面形状
 62
     3
100
AcDbCircle
 10
261.7475300144815
 20
155.8902336689205
 30
0.0
 40
0.29989320795
100
AcDbArc
 50
165.0000000000055
 51
270.0
  0
LINE
  5
EC26
330
37
100
AcDbEntity
  8
01_表面形状
 62
     3
100
AcDbLine
 10
261.6587457770092
 20
156.7175847625106
 30
0.0
 11
261.4578554197956
 21
155.9678517426344
 31
0.0
  0
ARC
  5
EC27
330
37
100
AcDbEntity
  8
01_表面形状
 62
     3
100
AcDbCircle
 10
261.1375377014533
 20
157.0898065007207
 30
0.0
 40
0.29989320795
100
AcDbArc
 50
90.0
 51
165.0000000000055
  0
LINE
  5
EC28
330
37
100
AcDbEntity
  8
01_表面形状
 62
     3
100
AcDbLine
 10
249.4905921992433
 20
198.6405006490444
 30
0.0
 11
252.7666296292203
 21
199.8328807598979
 31
0.0
  0
LINE
  5
EC29
330
37
100
AcDbEntity
  8
01_表面形状
 62
     3
100
AcDbLine
 10
260.8478631067651
 20
157.1674245744346
 30
0.0
 11
260.4059043208936
 21
155.5180119307086
 31
0.0
  0
ARC
  5
EC2A
330
37
100
AcDbEntity
  8
01_表面形状
 62
     3
100
AcDbCircle
 10
261.9484203716952
 20
156.6399666887945
 30
0.0
 40
0.29989320795
100
AcDbArc
 50
90.0
 51
165.0000000000055
  0
LINE
  5
EC2B
330
37
100
AcDbEntity
  8
01_表面形状
 62
     3
100
AcDbLine
 10
261.9484203716952
 20
156.9398598967444
 30
0.0
 11
263.0633605082376
 21
156.9398598967444
 31
0.0
  0
LINE
  5
EC2C
330
37
100
AcDbEntity
  8
01_表面形状
 62
     3
100
AcDbLine
 10
263.3530351029254
 20
156.5623486150806
 30
0.0
 11
263.1521447457117
 21
155.8126155952066
 31
0.0
  0
ARC
  5
EC2D
330
37
100
AcDbEntity
  8
01_表面形状
 62
     3
100
AcDbCircle
 10
262.8624701510235
 20
155.8902336689205
 30
0.0
 40
0.29989320795
100
AcDbArc
 50
270.0
 51
345.0000000000056
  0
LINE
  5
EC2E
330
37
100
AcDbEntity
  8
01_表面形状
 62
     3
100
AcDbLine
 10
261.7475300144815
 20
155.5903404609706
 30
0.0
 11
262.8624701510235
 21
155.5903404609706
 31
0.0
  0
ARC
  5
EC2F
330
37
100
AcDbEntity
  8
01_表面形状
 62
     3
100
AcDbCircle
 10
263.0633605082376
 20
156.6399666887945
 30
0.0
 40
0.29989320795
100
AcDbArc
 50
345.0000000000056
 51
90.0
  0
ARC
  5
EC30
330
37
100
AcDbEntity
  8
01_表面形状
 62
     3
100
AcDbCircle
 10
265.1445774801496
 20
155.4403938569947
 30
0.0
 40
0.29989320795
100
AcDbArc
 50
270.0
 51
345.0000000000056
  0
ARC
  5
EC31
330
37
100
AcDbEntity
  8
01_表面形状
 62
     3
100
AcDbCircle
 10
263.6733528212671
 20
155.4403938569947
 30
0.0
 40
0.29989320795
100
AcDbArc
 50
270.0
 51
345.0000000000056
  0
LINE
  5
EC32
330
37
100
AcDbEntity
  8
01_表面形状
 62
     3
100
AcDbLine
 10
264.8302936551395
 20
155.1405006490443
 30
0.0
 11
265.1445774801496
 21
155.1405006490443
 31
0.0
  0
ARC
  5
EC33
330
37
100
AcDbEntity
  8
01_表面形状
 62
     3
100
AcDbCircle
 10
265.7253439984215
 20
155.2904472530206
 30
0.0
 40
0.29989320795
100
AcDbArc
 50
90.0
 51
165.0000000000055
  0
ARC
  5
EC34
330
37
100
AcDbEntity
  8
01_表面形状
 62
     3
100
AcDbCircle
 10
264.1153116071373
 20
157.0898065007207
 30
0.0
 40
0.29989320795
100
AcDbArc
 50
345.0000000000056
 51
90.0
  0
LINE
  5
EC35
330
37
100
AcDbEntity
  8
01_表面形状
 62
     3
100
AcDbLine
 10
265.4356694037333
 20
155.3680653267346
 30
0.0
 11
265.4342520748373
 21
155.3627757832808
 31
0.0
  0
LINE
  5
EC36
330
37
100
AcDbEntity
  8
01_表面形状
 62
     3
100
AcDbLine
 10
264.4049862018255
 20
157.0121884270064
 30
0.0
 11
263.9630274159535
 21
155.3627757832808
 31
0.0
  0
LINE
  5
EC37
330
37
100
AcDbEntity
  8
01_表面形状
 62
     3
100
AcDbLine
 10
265.1693166913133
 20
157.8501186075026
 30
0.0
 11
264.5434440940094
 21
155.5143302752984
 31
0.0
  0
ARC
  5
EC38
330
37
100
AcDbEntity
  8
01_表面形状
 62
     3
100
AcDbCircle
 10
264.8302936551395
 20
155.4374691670444
 30
0.0
 40
0.296968518
100
AcDbArc
 50
164.9999999999921
 51
270.0
1001
GENIUS_GENODEF_13
1002
{
1000
HIER
1070
     0
1002
}
1002
{
1000
MANEDIT
1070
     0
1002
}
1002
{
1000
NOSEL
1070
     0
1002
}
1002
{
1000
BEHIND
1070
     0
1002
}
1002
{
1000
OTHER
1070
     0
1002
}
1002
{
1000
REACTOR
1002
}
1001
GENIUS_GENOBJ-N-FIL_13
1002
{
1000
OWNER
1000
GEN
1002
}
  0
LINE
  5
EC39
330
37
100
AcDbEntity
  8
01_表面形状
 62
     3
100
AcDbLine
 10
266.3280150700653
 20
157.8395395205965
 30
0.0
 11
266.8424224111472
 21
157.8395395205965
 31
0.0
  0
ARC
  5
EC3A
330
37
100
AcDbEntity
  8
01_表面形状
 62
     3
100
AcDbCircle
 10
266.3280150700653
 20
157.5396463126443
 30
0.0
 40
0.29989320795
100
AcDbArc
 50
90.0
 51
165.0000000000055
  0
ARC
  5
EC3B
330
37
100
AcDbEntity
  8
01_表面形状
 62
     3
100
AcDbCircle
 10
266.8424224111472
 20
157.5396463126443
 30
0.0
 40
0.29989320795
100
AcDbArc
 50
0.0
 51
90.0
  0
ARC
  5
EC3C
330
37
100
AcDbEntity
  8
01_表面形状
 62
     3
100
AcDbCircle
 10
266.8424224111472
 20
155.2904472530206
 30
0.0
 40
0.29989320795
100
AcDbArc
 50
14.47751218592986
 51
90.0
  0
LINE
  5
EC3D
330
37
100
AcDbEntity
  8
01_表面形状
 62
     3
100
AcDbLine
 10
265.7253439984215
 20
155.5903404609706
 30
0.0
 11
266.8424224111472
 21
155.5903404609706
 31
0.0
  0
LINE
  5
EC3E
330
37
100
AcDbEntity
  8
01_表面形状
 62
     3
100
AcDbLine
 10
266.0065904985213
 20
156.0401802728946
 30
0.0
 11
266.8424224111472
 21
156.0401802728946
 31
0.0
  0
ARC
  5
EC3F
330
37
100
AcDbEntity
  8
01_表面形状
 62
     3
100
AcDbCircle
 10
266.8424224111472
 20
156.3400734808445
 30
0.0
 40
0.29989320795
100
AcDbArc
 50
270.0
 51
0.0
  0
ARC
  5
EC40
330
37
100
AcDbEntity
  8
01_表面形状
 62
     3
100
AcDbCircle
 10
266.0065904985213
 20
156.3400734808445
 30
0.0
 40
0.29989320795
100
AcDbArc
 50
165.0000000000055
 51
270.0
  0
LINE
  5
EC41
330
37
100
AcDbEntity
  8
01_表面形状
 62
     3
100
AcDbLine
 10
267.1423156190976
 20
157.5396463126443
 30
0.0
 11
267.1423156190976
 21
156.3400734808445
 31
0.0
  0
LINE
  5
EC42
330
37
100
AcDbEntity
  8
01_表面形状
 62
     3
100
AcDbLine
 10
266.0383404753775
 20
157.6172643863586
 30
0.0
 11
265.7169159038335
 21
156.4176915545589
 31
0.0
  0
LINE
  5
EC43
330
37
100
AcDbEntity
  8
01_表面形状
 62
     3
100
AcDbLine
 10
260.6276418157572
 20
158.3601375675305
 30
0.0
 11
260.5477064322154
 21
158.0618146548307
 31
0.0
  0
LINE
  5
EC44
330
37
100
AcDbEntity
  8
01_表面形状
 62
     3
100
AcDbLine
 10
266.3280150700653
 20
158.7392191444445
 30
0.0
 11
266.8424224111472
 21
158.7392191444445
 31
0.0
  0
ARC
  5
EC45
330
37
100
AcDbEntity
  8
01_表面形状
 62
     3
100
AcDbCircle
 10
267.7421020349975
 20
155.4403938569947
 30
0.0
 40
0.29989320795
100
AcDbArc
 50
270.0
 51
0.0
  0
LINE
  5
EC46
330
37
100
AcDbEntity
  8
01_表面形状
 62
     3
100
AcDbLine
 10
267.4231631111634
 20
155.1405006490443
 30
0.0
 11
267.7421020349975
 21
155.1405006490443
 31
0.0
  0
LINE
  5
EC47
330
37
100
AcDbEntity
  8
01_表面形状
 62
     3
100
AcDbLine
 10
268.0419952429493
 20
157.5396463126443
 30
0.0
 11
268.0419952429493
 21
155.4403938569947
 31
0.0
  0
LINE
  5
EC48
330
37
100
AcDbEntity
  8
01_表面形状
 62
     3
100
AcDbLine
 10
255.6155921992433
 20
198.6405006490444
 30
0.0
 11
255.6155921992433
 21
191.6405006490443
 31
0.0
  0
LINE
  5
EC49
330
37
100
AcDbEntity
  8
01_表面形状
 62
     3
100
AcDbLine
 10
268.8655921992433
 20
198.6405006490444
 30
0.0
 11
268.8655921992433
 21
191.6405006490443
 31
0.0
  0
ARC
  5
EC4A
330
37
100
AcDbEntity
  8
01_表面形状
 62
     3
100
AcDbCircle
 10
345.9946080562076
 20
154.1405006490444
 30
0.0
 40
16.2
100
AcDbArc
 50
295.7355346977736
 51
313.9675922589765
  0
ARC
  5
EC4B
330
37
100
AcDbEntity
  8
01_表面形状
 62
     3
100
AcDbCircle
 10
272.7856212711312
 20
202.710611677072
 30
0.0
 40
3.070589305504061
100
AcDbArc
 50
181.094505502872
 51
249.5851696914507
  0
LINE
  5
EC4C
330
37
100
AcDbEntity
  8
01_表面形状
 62
     3
100
AcDbLine
 10
274.9905921992433
 20
198.6405006490444
 30
0.0
 11
271.7145547692663
 21
199.8328807598979
 31
0.0
  0
LINE
  5
EC4D
330
37
100
AcDbEntity
  8
01_表面形状
 62
     3
100
AcDbLine
 10
353.4696080562075
 20
206.0038716270145
 30
0.0
 11
353.4696080562075
 21
202.6519586222557
 31
0.0
  0
LINE
  5
EC4E
330
37
100
AcDbEntity
  8
01_表面形状
 62
     3
100
AcDbLine
 10
353.4696080562075
 20
206.0038716270145
 30
0.0
 11
353.4696080562075
 21
202.6519586222557
 31
0.0
  0
LINE
  5
EC4F
330
37
100
AcDbEntity
  8
01_表面形状
 62
     3
100
AcDbLine
 10
338.4945850562074
 20
206.0038716270145
 30
0.0
 11
338.4945850562075
 21
202.6519586222557
 31
0.0
  0
LINE
  5
EC50
330
37
100
AcDbEntity
  8
01_表面形状
 62
     3
100
AcDbLine
 10
338.4945850562074
 20
206.0038716270145
 30
0.0
 11
338.4945850562075
 21
202.6519586222557
 31
0.0
  0
ARC
  5
EC51
330
37
100
AcDbEntity
  8
01_表面形状
 62
     3
100
AcDbCircle
 10
335.4945850562075
 20
202.6519586222557
 30
0.0
 40
3.0
100
AcDbArc
 50
304.9834872760629
 51
0.0
  0
LINE
  5
EC52
330
37
100
AcDbEntity
  8
01_表面形状
 62
     3
100
AcDbLine
 10
338.4945850562074
 20
203.0192981270145
 30
0.0
 11
353.4696080562075
 21
203.0192981270145
 31
0.0
  0
LINE
  5
EC53
330
37
100
AcDbEntity
  8
01_表面形状
 62
     3
100
AcDbLine
 10
352.8446010562076
 20
206.0038716270145
 30
0.0
 11
352.8446010562076
 21
203.0192981270145
 31
0.0
  0
LINE
  5
EC54
330
37
100
AcDbEntity
  8
01_表面形状
 62
     3
100
AcDbLine
 10
339.1446000562075
 20
206.0038716270146
 30
0.0
 11
339.1446000562075
 21
203.0192981270146
 31
0.0
  0
ARC
  5
EC55
330
37
100
AcDbEntity
  8
01_表面形状
 62
     3
100
AcDbCircle
 10
356.5396371280955
 20
202.710611677072
 30
0.0
 40
3.070589305504061
100
AcDbArc
 50
181.094505502872
 51
234.9473317211827
  0
LINE
  5
EC56
330
37
100
AcDbEntity
  8
01_表面形状
 62
     3
100
AcDbLine
 10
345.9946080562074
 20
198.6405006490444
 30
0.0
 11
345.9946080562076
 21
191.6405006490444
 31
0.0
  0
LINE
  5
EC57
330
37
100
AcDbEntity
  8
01_表面形状
 62
     3
100
AcDbLine
 10
258.4405921992431
 20
222.1405006490443
 30
0.0
 11
258.440592199243
 21
214.0038716270145
 31
0.0
  0
LINE
  5
EC58
330
37
100
AcDbEntity
  8
01_表面形状
 62
     3
100
AcDbLine
 10
266.0405921992431
 20
222.1405006490444
 30
0.0
 11
266.0405921992432
 21
214.0038716270146
 31
0.0
  0
LINE
  5
EC59
330
37
100
AcDbEntity
  8
01_表面形状
 62
     3
100
AcDbLine
 10
342.1946080562073
 20
222.1405006490443
 30
0.0
 11
342.1946080562073
 21
214.0038716270145
 31
0.0
  0
LINE
  5
EC5A
330
37
100
AcDbEntity
  8
01_表面形状
 62
     3
100
AcDbLine
 10
349.7946080562074
 20
222.1405006490444
 30
0.0
 11
349.7946080562073
 21
214.0038716270146
 31
0.0
  0
LINE
  5
EC5B
330
37
100
AcDbEntity
  8
01_表面形状
 62
     3
100
AcDbLine
 10
277.7405921992433
 20
167.3863704847272
 30
0.0
 11
285.2405921992433
 21
167.3863704847272
 31
0.0
  0
LINE
  5
EC5C
330
37
100
AcDbEntity
  8
01_表面形状
 62
     3
100
AcDbLine
 10
277.7405921992433
 20
142.8946308133614
 30
0.0
 11
285.2405921992433
 21
142.8946308133614
 31
0.0
  0
LWPOLYLINE
  5
EC5D
330
37
100
AcDbEntity
  8
01_表面形状
 62
     3
100
AcDbPolyline
 90
        8
 70
     1
 43
0.0
 10
333.7487382205246
 20
167.3863704847272
 10
328.6763328515292
 20
155.1405006490444
 10
333.7487382205246
 20
142.8946308133614
 10
345.9946080562075
 20
137.8222254443661
 10
358.2404778918903
 20
142.8946308133615
 10
363.3128832608857
 20
155.1405006490443
 10
358.2404778918904
 20
167.3863704847272
 10
345.9946080562075
 20
172.4587758537226
  0
ARC
  5
EC5E
330
37
100
AcDbEntity
  8
01_表面形状
 62
     3
100
AcDbCircle
 10
345.9946080562076
 20
154.1405006490444
 30
0.0
 40
16.2
100
AcDbArc
 50
187.0863015884451
 51
217.9136984115553
  0
ARC
  5
EC5F
330
37
100
AcDbEntity
  8
01_表面形状
 62
     3
100
AcDbCircle
 10
345.9946080562076
 20
154.1405006490444
 30
0.0
 40
16.2
100
AcDbArc
 50
226.032407741024
 51
244.264465302226
  0
ARC
  5
EC60
330
37
100
AcDbEntity
  8
01_表面形状
 62
     3
100
AcDbCircle
 10
345.9946080562076
 20
154.1405006490444
 30
0.0
 40
16.2
100
AcDbArc
 50
226.032407741024
 51
268.9675922589755
  0
ARC
  5
EC61
330
37
100
AcDbEntity
  8
01_表面形状
 62
     3
100
AcDbCircle
 10
345.9946080562076
 20
154.1405006490444
 30
0.0
 40
16.2
100
AcDbArc
 50
271.0324077410228
 51
313.9675922589765
  0
LINE
  5
EC62
330
37
100
AcDbEntity
  8
01_表面形状
 62
     3
100
AcDbLine
 10
279.9905921992433
 20
179.4633398814037
 30
0.0
 11
275.7405921992433
 21
177.0096012373477
 31
0.0
  0
ARC
  5
EC63
330
37
100
AcDbEntity
  8
01_表面形状
 62
     3
100
AcDbCircle
 10
345.9946080562076
 20
154.1405006490444
 30
0.0
 40
16.2
100
AcDbArc
 50
322.086301588444
 51
352.9136984115557
  0
ARC
  5
EC64
330
37
100
AcDbEntity
  8
01_表面形状
 62
     3
100
AcDbCircle
 10
345.9946080562076
 20
154.1405006490444
 30
0.0
 40
16.2
100
AcDbArc
 50
350.9875485007477
 51
352.9136984115557
  0
ARC
  5
EC65
330
37
100
AcDbEntity
  8
01_表面形状
 62
     3
100
AcDbCircle
 10
345.9946080562076
 20
154.1405006490444
 30
0.0
 40
16.2
100
AcDbArc
 50
187.0863015884451
 51
189.0124514992523
  0
ARC
  5
EC66
330
37
100
AcDbEntity
  8
01_表面形状
 62
     3
100
AcDbCircle
 10
276.7405921992434
 20
175.2775504297789
 30
0.0
 40
2.0
100
AcDbArc
 50
120.0000000000001
 51
180.0000000000008
  0
LINE
  5
EC67
330
37
100
AcDbEntity
  8
01_表面形状
 62
     3
100
AcDbLine
 10
329.2446080562076
 20
180.0405006490444
 30
0.0
 11
362.7446080562076
 21
180.0405006490444
 31
0.0
  0
ARC
  5
EC68
330
37
100
AcDbEntity
  8
01_表面形状
 62
     3
100
AcDbCircle
 10
279.2405921992433
 20
176.7209261027529
 30
0.0
 40
2.0
100
AcDbArc
 50
120.0000000000001
 51
180.0
  0
ARC
  5
EC69
330
37
100
AcDbEntity
  8
01_表面形状
 62
     3
100
AcDbCircle
 10
262.2405921992434
 20
154.1405006490444
 30
0.0
 40
16.2
100
AcDbArc
 50
243.5163597171182
 51
296.4836402828818
  0
LINE
  5
EC6A
330
37
100
AcDbEntity
  8
01_表面形状
 62
     3
100
AcDbLine
 10
347.2446080562075
 20
176.5242697839073
 30
0.0
 11
347.2446080562075
 21
171.9410089007562
 31
0.0
  0
LINE
  5
EC6B
330
37
100
AcDbEntity
  8
01_表面形状
 62
     3
100
AcDbLine
 10
337.3492624266863
 20
180.0405006490444
 30
0.0
 11
343.2622461464125
 21
178.4561214364854
 31
0.0
  0
LINE
  5
EC6C
330
37
100
AcDbEntity
  8
01_表面形状
 62
     3
100
AcDbLine
 10
334.9946080562074
 20
198.6405006490444
 30
0.0
 11
337.2146060515076
 21
200.1940066748559
 31
0.0
  0
ARC
  5
EC6D
330
37
100
AcDbEntity
  8
01_表面形状
 62
     3
100
AcDbCircle
 10
349.2446080562075
 20
176.5242697839073
 30
0.0
 40
2.0
100
AcDbArc
 50
105.0000000000011
 51
180.0
  0
LINE
  5
EC6E
330
37
100
AcDbEntity
  8
01_表面形状
 62
     3
100
AcDbLine
 10
354.6399536857288
 20
180.0405006490444
 30
0.0
 11
348.7269699660026
 21
178.4561214364854
 31
0.0
  0
LINE
  5
EC6F
330
37
100
AcDbEntity
  8
01_表面形状
 62
     3
100
AcDbLine
 10
356.9946080562075
 20
198.6405006490444
 30
0.0
 11
334.9946080562074
 21
198.6405006490444
 31
0.0
  0
LINE
  5
EC70
330
37
100
AcDbEntity
  8
01_表面形状
 62
     3
100
AcDbLine
 10
356.9946080562074
 20
198.6405006490442
 30
0.0
 11
354.7746100609072
 21
200.1940066748558
 31
0.0
  0
LINE
  5
EC71
330
37
100
AcDbEntity
  8
01_表面形状
 62
     3
100
AcDbLine
 10
255.0163275307802
 20
139.6405006490444
 30
0.0
 11
246.740592199243
 21
139.6405006490444
 31
0.0
  0
LINE
  5
EC72
330
37
100
AcDbEntity
  8
01_表面形状
 62
     3
100
AcDbLine
 10
251.5023557719145
 20
155.1405006490443
 30
0.0
 11
249.9056911027747
 21
173.3904613272847
 31
0.0
  0
LINE
  5
EC73
330
37
100
AcDbEntity
  8
01_表面形状
 62
     3
100
AcDbLine
 10
249.9056911027747
 20
173.3904613272847
 30
0.0
 11
249.7405921992432
 21
175.2775504297789
 31
0.0
  0
LINE
  5
EC74
330
37
100
AcDbEntity
  8
01_表面形状
 62
     3
100
AcDbLine
 10
247.2405921992432
 20
174.4587758537226
 30
0.0
 11
247.2405921992432
 21
176.720926102753
 31
0.0
  0
ARC
  5
EC75
330
37
100
AcDbEntity
  8
01_表面形状
 62
     3
100
AcDbCircle
 10
245.4905921992432
 20
181.1953906889726
 30
0.0
 40
2.0
100
AcDbArc
 50
180.0
 51
239.9999999999998
  0
LINE
  5
EC76
330
37
100
AcDbEntity
  8
01_表面形状
 62
     3
100
AcDbLine
 10
244.4905921992432
 20
179.4633398814037
 30
0.0
 11
248.7405921992432
 21
177.0096012373478
 31
0.0
  0
ARC
  5
EC77
330
37
100
AcDbEntity
  8
01_表面形状
 62
     3
100
AcDbCircle
 10
247.7405921992432
 20
175.2775504297789
 30
0.0
 40
2.0
100
AcDbArc
 50
359.9999999999992
 51
59.99999999999986
  0
ARC
  5
EC78
330
37
100
AcDbEntity
  8
01_表面形状
 62
     3
100
AcDbCircle
 10
245.2405921992432
 20
176.720926102753
 30
0.0
 40
2.0
100
AcDbArc
 50
0.0
 51
59.99999999999986
  0
LINE
  5
EC79
330
37
100
AcDbEntity
  8
01_表面形状
 62
     3
100
AcDbLine
 10
244.4905921992429
 20
180.0405006490444
 30
0.0
 11
279.9905921992433
 21
180.0405006490444
 31
0.0
  0
LINE
  5
EC7A
330
37
100
AcDbEntity
  8
01_表面形状
 62
     3
100
AcDbLine
 10
277.7405921992433
 20
155.1405006490443
 30
0.0
 11
285.2405921992433
 21
155.1405006490443
 31
0.0
  0
ARC
  5
EC7B
330
37
100
AcDbEntity
  8
01_表面形状
 62
     3
100
AcDbCircle
 10
247.8045860175444
 20
174.4587758537226
 30
0.0
 40
2.0
100
AcDbArc
 50
270.0
 51
4.999999999999743
  0
ARC
  5
EC7C
330
37
100
AcDbEntity
  8
01_表面形状
 62
     3
100
AcDbCircle
 10
245.2405921992429
 20
174.4587758537226
 30
0.0
 40
2.0
100
AcDbArc
 50
270.0
 51
0.0
  0
LINE
  5
EC7D
330
37
100
AcDbEntity
  8
01_表面形状
 62
     3
100
AcDbLine
 10
239.240592199243
 20
137.8222254443661
 30
0.0
 11
239.240592199243
 21
172.4587758537226
 31
0.0
  0
LINE
  5
EC7E
330
37
100
AcDbEntity
  8
01_表面形状
 62
     3
100
AcDbLine
 10
246.7405921992429
 20
137.8222254443661
 30
0.0
 11
246.7405921992429
 21
172.4587758537226
 31
0.0
  0
LINE
  5
EC7F
330
37
100
AcDbEntity
  8
01_表面形状
 62
     3
100
AcDbLine
 10
239.240592199243
 20
137.8222254443661
 30
0.0
 11
246.7405921992429
 21
137.8222254443661
 31
0.0
  0
LINE
  5
EC80
330
37
100
AcDbEntity
  8
01_表面形状
 62
     3
100
AcDbLine
 10
239.240592199243
 20
172.4587758537226
 30
0.0
 11
247.9199201533611
 21
172.4587758537226
 31
0.0
  0
LINE
  5
EC81
330
37
100
AcDbEntity
  8
01_表面形状
 62
     3
100
AcDbLine
 10
246.7405921992429
 20
167.3863704847272
 30
0.0
 11
239.240592199243
 21
167.3863704847272
 31
0.0
  0
LINE
  5
EC82
330
37
100
AcDbEntity
  8
01_表面形状
 62
     3
100
AcDbLine
 10
246.7405921992429
 20
142.8946308133614
 30
0.0
 11
239.240592199243
 21
142.8946308133614
 31
0.0
  0
LINE
  5
EC83
330
37
100
AcDbEntity
  8
01_表面形状
 62
     3
100
AcDbLine
 10
246.7405921992429
 20
155.1405006490443
 30
0.0
 11
239.240592199243
 21
155.1405006490443
 31
0.0
  0
LINE
  5
EC84
330
37
100
AcDbEntity
  8
01_表面形状
 62
     3
100
AcDbLine
 10
285.240592199243
 20
275.7049447433725
 30
0.0
 11
285.240592199243
 21
287.0235866863803
 31
0.0
  0
LINE
  5
EC85
330
37
100
AcDbEntity
  8
01_表面形状
 62
     3
100
AcDbLine
 10
285.240592199243
 20
299.0228532097214
 30
0.0
 11
285.240592199243
 21
310.341495152729
 31
0.0
  0
LINE
  5
EC86
330
37
100
AcDbEntity
  8
01_表面形状
 62
     3
100
AcDbLine
 10
277.7405921992431
 20
281.0587538539835
 30
0.0
 11
277.7405921992431
 21
282.1212705810797
 31
0.0
  0
LINE
  5
EC87
330
37
100
AcDbEntity
  8
01_表面形状
 62
     3
100
AcDbLine
 10
277.740592199243
 20
303.9251693150218
 30
0.0
 11
277.740592199243
 21
304.9876860421179
 31
0.0
  0
LINE
  5
EC88
330
37
100
AcDbEntity
  8
01_表面形状
 62
     3
100
AcDbLine
 10
285.240592199243
 20
275.7049447433725
 30
0.0
 11
282.4762166182301
 21
275.7049447433725
 31
0.0
  0
LINE
  5
EC89
330
37
100
AcDbEntity
  8
01_表面形状
 62
     3
100
AcDbLine
 10
285.240592199243
 20
310.341495152729
 30
0.0
 11
282.47621661823
 21
310.341495152729
 31
0.0
  0
LINE
  5
EC8A
330
37
100
AcDbEntity
  8
01_表面形状
 62
     3
100
AcDbLine
 10
278.0219959408588
 20
305.2690897837336
 30
0.0
 11
280.2118632961562
 21
305.2690897837337
 31
0.0
  0
LINE
  5
EC8B
330
37
100
AcDbEntity
  8
01_表面形状
 62
     3
100
AcDbLine
 10
282.7219980161495
 20
305.2690897837337
 30
0.0
 11
285.240592199243
 21
305.2690897837337
 31
0.0
  0
LINE
  5
EC8C
330
37
100
AcDbEntity
  8
01_表面形状
 62
     3
100
AcDbLine
 10
278.0219959408587
 20
280.7773501123678
 30
0.0
 11
280.2118632961561
 21
280.7773501123678
 31
0.0
  0
LINE
  5
EC8D
330
37
100
AcDbEntity
  8
01_表面形状
 62
     3
100
AcDbLine
 10
282.7219980161494
 20
280.7773501123678
 30
0.0
 11
285.240592199243
 21
280.7773501123678
 31
0.0
  0
LINE
  5
EC8E
330
37
100
AcDbEntity
  8
01_表面形状
 62
     3
100
AcDbLine
 10
239.2405921992426
 20
275.7049447433725
 30
0.0
 11
239.2405921992426
 21
287.023586686381
 31
0.0
  0
LINE
  5
EC8F
330
37
100
AcDbEntity
  8
01_表面形状
 62
     3
100
AcDbLine
 10
239.2405921992426
 20
299.0228532097207
 30
0.0
 11
239.2405921992426
 21
310.341495152729
 31
0.0
  0
LINE
  5
EC90
330
37
100
AcDbEntity
  8
01_表面形状
 62
     3
100
AcDbLine
 10
246.7405921992427
 20
281.0587538539832
 30
0.0
 11
246.7405921992426
 21
282.1212705810804
 31
0.0
  0
LINE
  5
EC91
330
37
100
AcDbEntity
  8
01_表面形状
 62
     3
100
AcDbLine
 10
246.7405921992427
 20
303.9251693150212
 30
0.0
 11
246.7405921992427
 21
304.9876860421185
 31
0.0
  0
LINE
  5
EC92
330
37
100
AcDbEntity
  8
01_表面形状
 62
     3
100
AcDbLine
 10
239.2405921992426
 20
275.7049447433725
 30
0.0
 11
242.0049677802564
 21
275.7049447433725
 31
0.0
  0
LINE
  5
EC93
330
37
100
AcDbEntity
  8
01_表面形状
 62
     3
100
AcDbLine
 10
239.2405921992426
 20
310.341495152729
 30
0.0
 11
242.0049677802563
 21
310.341495152729
 31
0.0
  0
LINE
  5
EC94
330
37
100
AcDbEntity
  8
01_表面形状
 62
     3
100
AcDbLine
 10
246.4591884576276
 20
305.2690897837337
 30
0.0
 11
244.2693211023301
 21
305.2690897837337
 31
0.0
  0
LINE
  5
EC95
330
37
100
AcDbEntity
  8
01_表面形状
 62
     3
100
AcDbLine
 10
241.7591863823367
 20
305.2690897837337
 30
0.0
 11
239.2405921992426
 21
305.2690897837337
 31
0.0
  0
LINE
  5
EC96
330
37
100
AcDbEntity
  8
01_表面形状
 62
     3
100
AcDbLine
 10
246.4591884576272
 20
280.7773501123678
 30
0.0
 11
244.2693211023301
 21
280.7773501123678
 31
0.0
  0
LINE
  5
EC97
330
37
100
AcDbEntity
  8
01_表面形状
 62
     3
100
AcDbLine
 10
241.7591863823368
 20
280.7773501123678
 30
0.0
 11
239.2405921992426
 21
280.7773501123678
 31
0.0
  0
LINE
  5
EC98
330
37
100
AcDbEntity
  8
01_表面形状
 62
     3
100
AcDbLine
 10
255.4468869224522
 20
299.3814147964272
 30
0.0
 11
257.7009082961856
 21
301.2727632997926
 31
0.0
  0
LINE
  5
EC99
330
37
100
AcDbEntity
  8
01_表面形状
 62
     3
100
AcDbLine
 10
256.0558543777569
 20
298.6556756437949
 30
0.0
 11
256.426252207719
 21
298.966476326305
 31
0.0
  0
LINE
  5
EC9A
330
37
100
AcDbEntity
  8
01_表面形状
 62
     3
100
AcDbLine
 10
257.7397443026711
 20
300.0686270587336
 30
0.0
 11
258.3098757514903
 21
300.5470241471603
 31
0.0
  0
LINE
  5
EC9B
330
37
100
AcDbEntity
  8
01_表面形状
 62
     3
100
AcDbLine
 10
257.6149167473448
 20
299.5055663434321
 30
0.0
 11
258.5512113262732
 21
297.4976761392848
 31
0.0
  0
ARC
  5
EC9C
330
37
100
AcDbEntity
  8
01_表面形状
 62
     3
100
AcDbCircle
 10
255.7513706501045
 20
299.0185452201111
 30
0.0
 40
0.4736925899999999
100
AcDbArc
 50
130.0000000000018
 51
310.0000000000001
  0
ARC
  5
EC9D
330
37
100
AcDbEntity
  8
01_表面形状
 62
     3
100
AcDbCircle
 10
258.005392023838
 20
300.9098937234764
 30
0.0
 40
0.4736925899999999
100
AcDbArc
 50
310.0000000000001
 51
130.0000000000018
  0
ARC
  5
EC9E
330
37
100
AcDbEntity
  8
01_表面形状
 62
     3
100
AcDbCircle
 10
258.1219000432945
 20
297.2974850002995
 30
0.0
 40
0.4736925899999999
100
AcDbArc
 50
204.2944179854851
 51
25.00000000000003
  0
ARC
  5
EC9F
330
37
100
AcDbEntity
  8
01_表面形状
 62
     3
100
AcDbCircle
 10
258.0442280303234
 20
299.7057574824174
 30
0.0
 40
0.4736925899999999
100
AcDbArc
 50
130.0000000000018
 51
205.0
  0
LINE
  5
ECA0
330
37
100
AcDbEntity
  8
01_表面形状
 62
     3
100
AcDbLine
 10
256.8665292140977
 20
298.8688692639066
 30
0.0
 11
257.695086550358
 21
297.0920223222572
 31
0.0
  0
ARC
  5
ECA1
330
37
100
AcDbEntity
  8
01_表面形状
 62
     3
100
AcDbCircle
 10
256.6089424443104
 20
298.7487545805152
 30
0.0
 40
0.284215554
100
AcDbArc
 50
25.00000000000003
 51
130.0000000000018
  0
LINE
  5
ECA2
330
37
100
AcDbEntity
  8
01_表面形状
 62
     3
100
AcDbLine
 10
261.6005479914028
 20
302.3544733086683
 30
0.0
 11
262.7321110622203
 21
302.4137760163285
 31
0.0
  0
LINE
  5
ECA3
330
37
100
AcDbEntity
  8
01_表面形状
 62
     3
100
AcDbLine
 10
260.957697338343
 20
298.5260416524898
 30
0.0
 11
262.0892604091605
 21
298.58534436015
 31
0.0
  0
LINE
  5
ECA4
330
37
100
AcDbEntity
  8
01_表面形状
 62
     3
100
AcDbLine
 10
261.5459331942223
 20
299.031212447521
 30
0.0
 11
261.6473344741427
 21
299.0365266634183
 31
0.0
  0
ARC
  5
ECA5
330
37
100
AcDbEntity
  8
01_表面形状
 62
     3
100
AcDbCircle
 10
261.5878357029518
 20
300.1718308492625
 30
0.0
 40
1.136862215999999
100
AcDbArc
 50
272.9999999999991
 51
348.0000000000038
  0
ARC
  5
ECA6
330
37
100
AcDbEntity
  8
01_表面形状
 62
     3
100
AcDbCircle
 10
262.7916098334113
 20
301.2784718304845
 30
0.0
 40
1.136862215999999
100
AcDbArc
 50
348.0000000000038
 51
92.9999999999991
  0
ARC
  5
ECA7
330
37
100
AcDbEntity
  8
01_表面形状
 62
     3
100
AcDbCircle
 10
261.6897961481891
 20
300.6515170299021
 30
0.0
 40
1.705293323999999
100
AcDbArc
 50
92.9999999999991
 51
168.0000000000037
  0
LINE
  5
ECA8
330
37
100
AcDbEntity
  8
01_表面形状
 62
     3
100
AcDbLine
 10
262.0424739264208
 20
301.9032910054
 30
0.0
 11
262.1438752063408
 21
301.9086052212971
 31
0.0
  0
ARC
  5
ECA9
330
37
100
AcDbEntity
  8
01_表面形状
 62
     3
100
AcDbCircle
 10
262.1019726976116
 20
300.767986819556
 30
0.0
 40
1.136862215999999
100
AcDbArc
 50
92.9999999999991
 51
167.9999999999836
  0
LINE
  5
ECAA
330
37
100
AcDbEntity
  8
01_表面形状
 62
     3
100
AcDbLine
 10
260.0217675747713
 20
301.0060674482352
 30
0.0
 11
259.7861795182069
 21
299.8977127838894
 31
0.0
  0
ARC
  5
ECAB
330
37
100
AcDbEntity
  8
01_表面形状
 62
     3
100
AcDbCircle
 10
260.8981985671523
 20
299.6613458383339
 30
0.0
 40
1.136862215999999
100
AcDbArc
 50
168.0000000000037
 51
272.9999999999991
  0
LINE
  5
ECAC
330
37
100
AcDbEntity
  8
01_表面形状
 62
     3
100
AcDbLine
 10
260.9899536486665
 20
301.0043537651116
 30
0.0
 11
260.7649213141317
 21
299.9456598684544
 31
0.0
  0
ARC
  5
ECAD
330
37
100
AcDbEntity
  8
01_表面形状
 62
     3
100
AcDbCircle
 10
261.5062673467618
 20
299.7880819047507
 30
0.0
 40
0.757908144
100
AcDbArc
 50
167.9999999999836
 51
272.9999999999991
  0
LINE
  5
ECAE
330
37
100
AcDbEntity
  8
01_表面形状
 62
     3
100
AcDbLine
 10
263.9036288823565
 20
301.0421048849289
 30
0.0
 11
263.6680408257922
 21
299.9337502205829
 31
0.0
  0
ARC
  5
ECAF
330
37
100
AcDbEntity
  8
01_表面形状
 62
     3
100
AcDbCircle
 10
262.0000122523742
 20
300.2883006389161
 30
0.0
 40
1.705293323999999
100
AcDbArc
 50
272.9999999999991
 51
348.0000000000038
  0
LINE
  5
ECB0
330
37
100
AcDbEntity
  8
01_表面形状
 62
     3
100
AcDbLine
 10
262.9248870864316
 20
300.9941578003641
 30
0.0
 11
262.699854751897
 21
299.9354639037069
 31
0.0
  0
ARC
  5
ECB1
330
37
100
AcDbEntity
  8
01_表面形状
 62
     3
100
AcDbCircle
 10
262.1835410538013
 20
301.1517357640676
 30
0.0
 40
0.757908144
100
AcDbArc
 50
348.0000000000038
 51
92.9999999999991
  0
LINE
  5
ECB2
330
37
100
AcDbEntity
  8
01_表面形状
 62
     3
100
AcDbLine
 10
265.780841336114
 20
300.40410304261
 30
0.0
 11
264.1446871530588
 21
299.2584555499611
 31
0.0
  0
ARC
  5
ECB3
330
37
100
AcDbEntity
  8
01_表面形状
 62
     3
100
AcDbCircle
 10
264.4163860607567
 20
298.870429296498
 30
0.0
 40
0.4736925899999008
100
AcDbArc
 50
124.9999999999874
 51
304.9999999999875
  0
LINE
  5
ECB4
330
37
100
AcDbEntity
  8
01_表面形状
 62
     3
100
AcDbLine
 10
264.6880849684547
 20
298.482403043035
 30
0.0
 11
264.7920562897125
 21
298.5552045459371
 31
0.0
  0
LINE
  5
ECB5
330
37
100
AcDbEntity
  8
01_表面形状
 62
     3
100
AcDbLine
 10
264.7920562897125
 20
298.5552045459371
 30
0.0
 11
266.3075378581744
 21
297.2835645207844
 31
0.0
  0
ARC
  5
ECB6
330
37
100
AcDbEntity
  8
01_表面形状
 62
     3
100
AcDbCircle
 10
266.6704074344906
 20
296.979080793132
 30
0.0
 40
0.4736925900000289
100
AcDbArc
 50
140.0000000000045
 51
320.0000000000045
  0
LINE
  5
ECB7
330
37
100
AcDbEntity
  8
01_表面形状
 62
     3
100
AcDbLine
 10
267.0332770108069
 20
296.6745970654797
 30
0.0
 11
268.0685216848249
 21
297.9083536249548
 31
0.0
  0
ARC
  5
ECB8
330
37
100
AcDbEntity
  8
01_表面形状
 62
     3
100
AcDbCircle
 10
266.7621912100869
 20
299.0044950445033
 30
0.0
 40
1.705293324000005
100
AcDbArc
 50
319.9999999999889
 51
50.0709175439673
  0
ARC
  5
ECB9
330
37
100
AcDbEntity
  8
01_表面形状
 62
     3
100
AcDbCircle
 10
266.7589574038272
 20
299.0072085301431
 30
0.0
 40
1.705293323999941
100
AcDbArc
 50
49.92908245603887
 51
125.3312556800357
  0
LWPOLYLINE
  5
ECBA
330
37
100
AcDbEntity
  8
01_表面形状
 62
     3
100
AcDbPolyline
 90
        8
 70
     0
 43
0.0
 10
266.3623502575999
 20
299.6547362194574
 10
265.6994562861381
 20
299.190572863606
 42
0.4931454260313034
 10
265.6666714661838
 20
298.4396770338267
 10
266.2491520095109
 20
297.9509178247529
 42
0.4142135623731421
 10
266.9165053134794
 20
298.0093036734166
 10
267.3427825321927
 20
298.5173210802593
 42
0.4150294844298411
 10
267.2477463819839
 20
299.5864408579475
 42
0.3426517265994233
 10
266.3188714575188
 20
299.6242572434575
  0
VIEWPORT
  5
542
330
33
100
AcDbEntity
 67
     1
  8
0
100
AcDbViewport
 10
185.623303891547
 20
148.4223392912986
 30
0.0
 40
450.4060917083241
 41
309.2814998667928
 68
     1
 69
     1
 12
185.623303891547
 22
148.4223392912986
 13
0.0
 23
0.0
 14
10.0
 24
10.0
 15
10.0
 25
10.0
 16
0.0
 26
0.0
 36
1.0
 17
0.0
 27
0.0
 37
0.0
 42
50.0
 43
0.0
 44
0.0
 45
309.2814998667928
 50
0.0
 51
0.0
 72
  1000
 90
   557088
  1

281
     0
 71
     1
 74
     0
110
0.0
120
0.0
130
0.0
111
1.0
121
0.0
131
0.0
112
0.0
122
1.0
132
0.0
 79
     0
146
0.0
170
     0
 61
     5
348
1A
292
     1
282
     1
141
0.0
142
0.0
 63
   250
421
  3355443
  0
ENDSEC
  0
SECTION
  2
OBJECTS
  0
DICTIONARY
  5
C
330
0
100
AcDbDictionary
281
     1
  3
ACAD_CIP_PREVIOUS_PRODUCT_INFO
350
DB99
  3
ACAD_COLOR
350
30
  3
ACAD_DETAILVIEWSTYLE
350
DB91
  3
ACAD_GROUP
350
D
  3
ACAD_LAYOUT
350
2F
  3
ACAD_MATERIAL
350
10
  3
ACAD_MLEADERSTYLE
350
C40
  3
ACAD_MLINESTYLE
350
2C
  3
ACAD_PLOTSETTINGS
350
2E
  3
ACAD_PLOTSTYLENAME
350
E
  3
ACAD_SCALELIST
350
C2E
  3
ACAD_SECTIONVIEWSTYLE
350
DB8F
  3
ACAD_TABLESTYLE
350
31
  3
ACAD_VISUALSTYLE
350
14
  3
ACDB_RECOMPOSE_DATA
350
F133
  3
AcDbVariableDictionary
350
42
  0
DICTIONARY
  5
366A
330
8
100
AcDbDictionary
280
     1
281
     1
  0
DICTIONARY
  5
81
330
2
100
AcDbDictionary
280
     1
281
     1
  3
ACAD_LAYERFILTERS
360
C1F
  3
ACAD_LAYERSTATES
360
559
  3
ACLYDICTIONARY
360
C1E
  0
DICTIONARY
  5
3620
330
25
100
AcDbDictionary
280
     1
281
     1
  3
ADSK_XREC_LAYER_RECONCILED
360
BCDA
  0
DICTIONARY
  5
3622
330
75
100
AcDbDictionary
280
     1
281
     1
  3
ADSK_XREC_LAYER_RECONCILED
360
BCDB
  0
DICTIONARY
  5
3624
330
77
100
AcDbDictionary
280
     1
281
     1
  3
ADSK_XREC_LAYER_RECONCILED
360
BCDC
  0
DICTIONARY
  5
362E
330
7C
100
AcDbDictionary
280
     1
281
     1
  3
ADSK_XREC_LAYER_RECONCILED
360
BCE1
  0
DICTIONARY
  5
93D8
330
1EA
100
AcDbDictionary
280
     1
281
     1
  3
ADSK_XREC_LAYER_RECONCILED
360
BCE4
  0
DICTIONARY
  5
48
330
37
100
AcDbDictionary
280
     1
281
     1
  3
ACAD_SORTENTS
360
49
  0
DICTIONARY
  5
B96
330
33
100
AcDbDictionary
280
     1
281
     1
  3
ACAD_SORTENTS
360
B97
  0
XRECORD
  5
DB99
102
{ACAD_REACTORS
330
C
102
}
330
C
100
AcDbXrecord
280
     1
300
ACD
300
2016
300
ACD_F_S
  0
DICTIONARY
  5
30
102
{ACAD_REACTORS
330
C
102
}
330
C
100
AcDbDictionary
281
     1
  0
DICTIONARY
  5
DB91
102
{ACAD_REACTORS
330
C
102
}
330
C
100
AcDbDictionary
281
     1
  3
Metric50
350
DB92
  0
DICTIONARY
  5
D
102
{ACAD_REACTORS
330
C
102
}
330
C
100
AcDbDictionary
281
     1
  0
DICTIONARY
  5
2F
102
{ACAD_REACTORS
330
C
102
}
330
C
100
AcDbDictionary
281
     1
  3
Model
350
3A
  3
レイアウト1
350
36
  0
DICTIONARY
  5
10
102
{ACAD_REACTORS
330
C
102
}
330
C
100
AcDbDictionary
281
     1
  3
ByBlock
350
12
  3
ByLayer
350
11
  3
Global
350
13
  0
DICTIONARY
  5
C40
102
{ACAD_REACTORS
330
C
102
}
330
C
100
AcDbDictionary
281
     1
  3
Standard
350
C41
  3
部品図用_1：1
350
84CA
  0
DICTIONARY
  5
2C
102
{ACAD_REACTORS
330
C
102
}
330
C
100
AcDbDictionary
281
     1
  3
Standard
350
2D
  0
DICTIONARY
  5
2E
102
{ACAD_REACTORS
330
C
102
}
330
C
100
AcDbDictionary
281
     1
  3
A4横
350
7876
  3
A4縦
350
786D
  0
ACDBDICTIONARYWDFLT
  5
E
102
{ACAD_REACTORS
330
C
102
}
330
C
100
AcDbDictionary
281
     1
  3
Normal
350
F
100
AcDbDictionaryWithDefault
340
F
  0
DICTIONARY
  5
C2E
102
{ACAD_REACTORS
330
C
102
}
330
C
100
AcDbDictionary
281
     1
  3
A0
350
3737
  3
A1
350
3738
  3
A2
350
3739
  3
A3
350
373A
  3
A4
350
373B
  3
A5
350
373C
  3
A6
350
373D
  3
A7
350
373E
  3
A8
350
373F
  3
A9
350
3740
  3
B0
350
C2F
  3
B1
350
3741
  3
B2
350
3742
  3
B3
350
3743
  3
B4
350
3744
  3
B5
350
3745
  3
B6
350
3746
  0
DICTIONARY
  5
DB8F
102
{ACAD_REACTORS
330
C
102
}
330
C
100
AcDbDictionary
281
     1
  3
Metric50
350
DB90
  0
DICTIONARY
  5
31
102
{ACAD_REACTORS
330
C
102
}
330
C
100
AcDbDictionary
281
     1
  3
Standard
350
32
  0
DICTIONARY
  5
14
102
{ACAD_REACTORS
330
C
102
}
330
C
100
AcDbDictionary
281
     1
  3
2dWireframe
350
1A
  3
3D Hidden
350
1C
  3
3dWireframe
350
1B
  3
Basic
350
19
  3
Brighten
350
20
  3
ColorChange
350
24
  3
Conceptual
350
1D
  3
Dim
350
1F
  3
EdgeColorOff
350
C2D
  3
Facepattern
350
23
  3
Flat
350
15
  3
FlatWithEdges
350
16
  3
Gouraud
350
17
  3
GouraudWithEdges
350
18
  3
Hidden
350
DB89
  3
JitterOff
350
C2B
  3
Linepattern
350
22
  3
OverhangOff
350
C2C
  3
Realistic
350
1E
  3
Shaded
350
DB8E
  3
Shaded with edges
350
DB8D
  3
Shades of Gray
350
DB8A
  3
Sketchy
350
DB8B
  3
Thicken
350
21
  3
Wireframe
350
DB88
  3
X-Ray
350
DB8C
  0
XRECORD
  5
F133
102
{ACAD_REACTORS
330
C
102
}
330
C
100
AcDbXrecord
280
     1
 90
        1
330
32
  0
DICTIONARY
  5
42
102
{ACAD_REACTORS
330
C
102
}
330
C
100
AcDbDictionary
281
     1
  3
CANNOSCALE
350
3714
  3
CMLEADERSTYLE
350
3713
  3
CTABLESTYLE
350
43
  3
CVIEWDETAILSTYLE
350
DBE1
  3
CVIEWSECTIONSTYLE
350
DBE2
  3
DIMASSOC
350
3719
  3
HIDETEXT
350
3717
  3
INDEXCTL
350
3716
  3
LAYEREVAL
350
93DF
  3
LAYERNOTIFY
350
93E0
  3
LIGHTINGUNITS
350
93DE
  3
MLEADERSCALE
350
B1DD
  3
MSLTSCALE
350
93DD
  3
SORTENTS
350
3715
  0
DICTIONARY
  5
C1F
102
{ACAD_REACTORS
330
81
102
}
330
81
100
AcDbDictionary
281
     1
  0
DICTIONARY
  5
559
102
{ACAD_REACTORS
330
81
102
}
330
81
100
AcDbDictionary
281
     1
  0
DICTIONARY
  5
C1E
102
{ACAD_REACTORS
330
81
102
}
330
81
100
AcDbDictionary
281
     1
1001
ACAD
1000
<All
  0
XRECORD
  5
BCDA
102
{ACAD_REACTORS
330
3620
102
}
330
3620
100
AcDbXrecord
280
     1
290
     1
  0
XRECORD
  5
BCDB
102
{ACAD_REACTORS
330
3622
102
}
330
3622
100
AcDbXrecord
280
     1
290
     1
  0
XRECORD
  5
BCDC
102
{ACAD_REACTORS
330
3624
102
}
330
3624
100
AcDbXrecord
280
     1
290
     1
  0
XRECORD
  5
BCE1
102
{ACAD_REACTORS
330
362E
102
}
330
362E
100
AcDbXrecord
280
     1
290
     1
  0
XRECORD
  5
BCE4
102
{ACAD_REACTORS
330
93D8
102
}
330
93D8
100
AcDbXrecord
280
     1
290
     1
  0
SORTENTSTABLE
  5
49
102
{ACAD_REACTORS
330
48
102
}
330
48
100
AcDbSortentsTable
330
37
331
BD3D
  5
BD3D
  0
SORTENTSTABLE
  5
B97
102
{ACAD_REACTORS
330
B96
102
}
330
B96
100
AcDbSortentsTable
330
33
  0
ACDBDETAILVIEWSTYLE
  5
DB92
102
{ACAD_XDICTIONARY
360
F16A
102
}
102
{ACAD_REACTORS
330
DB91
102
}
330
DB91
100
AcDbModelDocViewStyle
 70
     0
  3
Metric50
290
     0
100
AcDbDetailViewStyle
 70
     0
 71
     0
 90
        3
 71
     1
340
26
 62
   256
 40
5.0
340
0
 62
   256
 40
5.0
300

 40
0.0
280
     1
 71
     2
340
2B
 90
       25
 62
   256
 71
     3
340
26
 62
   256
 40
5.0
 90
        0
 40
15.0
 90
        1
300
%<\AcVar ViewDetailId>% (%<\AcVar ViewScale \f "%sn">%)
 71
     4
340
2B
 90
       25
 62
   256
340
2B
 90
       25
 62
   256
280
     0
  0
LAYOUT
  5
3A
102
{ACAD_XDICTIONARY
360
92F1
102
}
102
{ACAD_REACTORS
330
2F
102
}
330
2F
100
AcDbPlotSettings
  1
A4縦
  2
Canon MP770 Series Printer
  4
A4
  6

 40
4.180416584014892
 41
5.831417560577392
 42
4.180404663085937
 43
3.757080078125
 44
209.9733276367187
 45
296.9683227539062
 46
-4.19374680519104
 47
-4.810087442398071
 48
0.0
 49
0.0
140
210.0
141
297.0
142
1.0
143
1.0
 70
 11940
 72
     1
 73
     0
 74
     4
  7
monochrome.ctb
 75
     0
147
0.7684300128340094
 76
     0
 77
     2
 78
   300
148
0.0
149
0.0
100
AcDbLayout
  1
Model
 70
     1
 71
     0
 10
0.0
 20
0.0
 11
12.0
 21
9.0
 12
0.0
 22
0.0
 32
0.0
 14
0.0
 24
0.0
 34
0.0
 15
0.0
 25
0.0
 35
0.0
146
0.0
 13
0.0
 23
0.0
 33
0.0
 16
1.0
 26
0.0
 36
0.0
 17
0.0
 27
1.0
 37
0.0
 76
     0
330
37
331
28
1001
ACAD_PSEXT
1000
Canon MP770 Series Printer
1000
Canon MP770 Series Printer
1000
USB001
1000

1070
     0
  0
LAYOUT
  5
36
102
{ACAD_XDICTIONARY
360
55B
102
}
102
{ACAD_REACTORS
330
2F
102
}
330
2F
100
AcDbPlotSettings
  1

  2
LP-8300F
  4
A4
  6

 40
5.873749732971191
 41
5.873717308044433
 42
5.873748779296875
 43
5.873748779296875
 44
209.9733276367187
 45
297.0106506347656
 46
0.0
 47
0.0
 48
0.0
 49
0.0
140
0.0
141
0.0
142
1.0
143
1.0
 70
   688
 72
     1
 73
     1
 74
     5
  7
monochrome.ctb
 75
    16
147
1.0
 76
     0
 77
     2
 78
   300
148
0.0
149
0.0
100
AcDbLayout
  1
レイアウト1
 70
     1
 71
     1
 10
-5.873748779296875
 20
-5.873749732971191
 11
291.1369018554688
 21
204.0995779037475
 12
0.0
 22
0.0
 32
0.0
 14
1.000000000000000E+20
 24
1.000000000000000E+20
 34
1.000000000000000E+20
 15
-1.000000000000000E+20
 25
-1.000000000000000E+20
 35
-1.000000000000000E+20
146
0.0
 13
0.0
 23
0.0
 33
0.0
 16
1.0
 26
0.0
 36
0.0
 17
0.0
 27
1.0
 37
0.0
 76
     0
330
33
331
542
1001
ACAD_PSEXT
1000
LP-8300F
1000
EPSON LP-8300F
1000
IP_192.168.252.91
1000

1070
     0
  0
MATERIAL
  5
12
102
{ACAD_REACTORS
330
10
102
}
330
10
100
AcDbMaterial
  1
ByBlock
 73
     1
 78
     1
172
     1
176
     1
270
     1
274
     1
 94
       63
  0
MATERIAL
  5
11
102
{ACAD_REACTORS
330
10
102
}
330
10
100
AcDbMaterial
  1
ByLayer
 73
     1
 78
     1
172
     1
176
     1
270
     1
274
     1
 94
       63
  0
MATERIAL
  5
13
102
{ACAD_REACTORS
330
10
102
}
330
10
100
AcDbMaterial
  1
Global
 73
     1
 78
     1
172
     1
176
     1
270
     1
274
     1
 94
       63
  0
MLEADERSTYLE
  5
C41
102
{ACAD_REACTORS
330
C40
102
}
330
C40
100
AcDbMLeaderStyle
179
     2
170
     2
171
     1
172
     0
 90
        2
 40
0.0
 41
0.0
173
     1
 91
-1073741824
340
2A
 92
       -1
290
     1
 42
1.0
291
     0
 43
-0.5
  3
Standard
 44
2.5
300

342
26
174
     5
178
     5
175
     1
176
     0
 93
-1073741824
 45
3.0
292
     0
297
     0
 46
4.0
 94
-1056964608
 47
1.0
 49
1.0
140
1.0
293
     1
141
0.0
294
     1
177
     0
142
1.0
295
     0
296
     0
143
0.15
271
     0
272
     9
273
     9
  0
MLEADERSTYLE
  5
84CA
102
{ACAD_REACTORS
330
C40
102
}
330
C40
100
AcDbMLeaderStyle
179
     2
170
     2
171
     1
172
     0
 90
        2
 40
0.0
 41
0.0
173
     1
 91
-1073741824
340
2A
 92
       -1
290
     1
 42
1.0
291
     0
 43
-0.5
  3
Standard
 44
2.5
300

342
26
174
     5
178
     5
175
     1
176
     0
 93
-1073741824
 45
3.5
292
     0
297
     0
 46
4.0
 94
-1056964608
 47
1.0
 49
1.0
140
1.0
293
     1
141
0.0
294
     1
177
     0
142
1.0
295
     0
296
     0
143
0.15
271
     0
272
     9
273
     9
  0
MLINESTYLE
  5
2D
102
{ACAD_REACTORS
330
2C
102
}
330
2C
100
AcDbMlineStyle
  2
STANDARD
 70
     0
  3

 62
   256
 51
90.0
 52
90.0
 71
     2
 49
0.5
 62
   256
  6
BYLAYER
 49
-0.5
 62
   256
  6
BYLAYER
  0
PLOTSETTINGS
  5
7876
102
{ACAD_REACTORS
330
2E
102
}
330
2E
100
AcDbPlotSettings
  1
A4横
  2
Canon MP770 Series Printer
  4
A4
  6

 40
4.180416584014892
 41
5.831417560577392
 42
4.180404663085937
 43
3.757080078125
 44
209.9733276367187
 45
296.9683227539062
 46
-4.19374680519104
 47
-4.810087442398071
 48
0.0
 49
350.0
140
297.0
141
560.0
142
1.0
143
1.0
 70
 11940
 72
     1
 73
     1
 74
     4
  7
monochrome.ctb
 75
     0
147
0.7684300128340094
 76
     0
 77
     2
 78
   300
148
0.0
149
-350.0
1001
ACAD_PSEXT
1000
Canon MP770 Series Printer
1000
Canon MP770 Series Printer
1000
USB001
1000

1070
     0
  0
PLOTSETTINGS
  5
786D
102
{ACAD_REACTORS
330
2E
102
}
330
2E
100
AcDbPlotSettings
  1
A4縦
  2
Canon MP770 Series Printer
  4
A4
  6

 40
4.180416584014892
 41
5.831417560577392
 42
4.180404663085937
 43
3.757080078125
 44
209.9733276367187
 45
296.9683227539062
 46
-4.19374680519104
 47
-4.810087442398071
 48
0.0
 49
0.0
140
210.0
141
297.0
142
1.0
143
1.0
 70
 11940
 72
     1
 73
     0
 74
     4
  7
monochrome.ctb
 75
     0
147
0.7684300128340094
 76
     0
 77
     2
 78
   300
148
0.0
149
0.0
1001
ACAD_PSEXT
1000
Canon MP770 Series Printer
1000
Canon MP770 Series Printer
1000
USB001
1000

1070
     0
  0
ACDBPLACEHOLDER
  5
F
102
{ACAD_REACTORS
330
E
102
}
330
E
  0
SCALE
  5
3737
102
{ACAD_REACTORS
330
C2E
102
}
330
C2E
100
AcDbScale
 70
     0
300
1:20
140
1.0
141
20.0
290
     0
  0
SCALE
  5
3738
102
{ACAD_REACTORS
330
C2E
102
}
330
C2E
100
AcDbScale
 70
     0
300
1:15
140
1.0
141
15.0
290
     0
  0
SCALE
  5
3739
102
{ACAD_REACTORS
330
C2E
102
}
330
C2E
100
AcDbScale
 70
     0
300
1:10
140
1.0
141
10.0
290
     0
  0
SCALE
  5
373A
102
{ACAD_REACTORS
330
C2E
102
}
330
C2E
100
AcDbScale
 70
     0
300
1:6
140
1.0
141
6.0
290
     0
  0
SCALE
  5
373B
102
{ACAD_REACTORS
330
C2E
102
}
330
C2E
100
AcDbScale
 70
     0
300
1:5
140
1.0
141
5.0
290
     0
  0
SCALE
  5
373C
102
{ACAD_REACTORS
330
C2E
102
}
330
C2E
100
AcDbScale
 70
     0
300
1:4
140
1.0
141
4.0
290
     0
  0
SCALE
  5
373D
102
{ACAD_REACTORS
330
C2E
102
}
330
C2E
100
AcDbScale
 70
     0
300
1:3
140
1.0
141
3.0
290
     0
  0
SCALE
  5
373E
102
{ACAD_REACTORS
330
C2E
102
}
330
C2E
100
AcDbScale
 70
     0
300
1:2.5
140
1.0
141
2.5
290
     0
  0
SCALE
  5
373F
102
{ACAD_REACTORS
330
C2E
102
}
330
C2E
100
AcDbScale
 70
     0
300
1:2
140
1.0
141
2.0
290
     0
  0
SCALE
  5
3740
102
{ACAD_REACTORS
330
C2E
102
}
330
C2E
100
AcDbScale
 70
     0
300
1:1.5
140
1.0
141
1.5
290
     0
  0
SCALE
  5
C2F
102
{ACAD_REACTORS
330
C2E
102
}
330
C2E
100
AcDbScale
 70
     0
300
1:1
140
1.0
141
1.0
290
     1
  0
SCALE
  5
3741
102
{ACAD_REACTORS
330
C2E
102
}
330
C2E
100
AcDbScale
 70
     0
300
2:1
140
2.0
141
1.0
290
     0
  0
SCALE
  5
3742
102
{ACAD_REACTORS
330
C2E
102
}
330
C2E
100
AcDbScale
 70
     0
300
2.5:1
140
2.5
141
1.0
290
     0
  0
SCALE
  5
3743
102
{ACAD_REACTORS
330
C2E
102
}
330
C2E
100
AcDbScale
 70
     0
300
3:1
140
3.0
141
1.0
290
     0
  0
SCALE
  5
3744
102
{ACAD_REACTORS
330
C2E
102
}
330
C2E
100
AcDbScale
 70
     0
300
4:1
140
4.0
141
1.0
290
     0
  0
SCALE
  5
3745
102
{ACAD_REACTORS
330
C2E
102
}
330
C2E
100
AcDbScale
 70
     0
300
5:1
140
5.0
141
1.0
290
     0
  0
SCALE
  5
3746
102
{ACAD_REACTORS
330
C2E
102
}
330
C2E
100
AcDbScale
 70
     0
300
10:1
140
10.0
141
1.0
290
     0
  0
ACDBSECTIONVIEWSTYLE
  5
DB90
102
{ACAD_XDICTIONARY
360
F168
102
}
102
{ACAD_REACTORS
330
DB8F
102
}
330
DB8F
100
AcDbModelDocViewStyle
 70
     0
  3
Metric50
290
     0
100
AcDbSectionViewStyle
 70
     0
 71
     0
 90
      102
 71
     1
340
26
 62
   256
 40
5.0
340
0
340
0
 62
   256
 40
5.0
300
I, O, Q, S, X, Z
 40
10.0
 90
        0
 40
2.5
 90
        0
 71
     2
340
2B
 90
       25
 62
   256
340
2B
 90
       50
 62
   256
 40
5.0
 40
2.5
 40
5.0
 71
     3
340
26
 62
   256
 40
5.0
 90
        0
 40
15.0
 90
        1
300
%<\AcVar ViewSectionStartId>%-%<\AcVar ViewSectionEndId>% (%<\AcVar ViewScale \f "%sn">%)
 71
     4
 62
   256
 62
   257
300
ANSI31
 40
1.0
 90
        0
290
     0
290
     0
 90
        6
 40
0.0
 40
1.570796326794896
 40
0.2617993877991494
 40
1.308996938995747
 40
-0.2617993877991494
 40
1.832595714594046
  0
TABLESTYLE
  5
32
102
{ACAD_XDICTIONARY
360
3660
102
}
102
{ACAD_REACTORS
330
31
102
}
330
31
100
AcDbTableStyle
280
     0
  3
Standard
 70
     0
 71
     0
 40
1.5
 41
1.5
280
     0
281
     0
  7
Standard
140
4.5
170
     2
 62
     0
 63
     7
283
     0
 90
      512
 91
        0
  1

274
    -2
284
     1
 64
     0
275
    -2
285
     1
 65
     0
276
    -2
286
     1
 66
     0
277
    -2
287
     1
 67
     0
278
    -2
288
     1
 68
     0
279
    -2
289
     1
 69
     0
  7
Standard
140
6.0
170
     5
 62
     0
 63
     7
283
     0
 90
      512
 91
        0
  1

274
    -2
284
     1
 64
     0
275
    -2
285
     1
 65
     0
276
    -2
286
     1
 66
     0
277
    -2
287
     1
 67
     0
278
    -2
288
     1
 68
     0
279
    -2
289
     1
 69
     0
  7
Standard
140
4.5
170
     5
 62
     0
 63
     7
283
     0
 90
      512
 91
        0
  1

274
    -2
284
     1
 64
     0
275
    -2
285
     1
 65
     0
276
    -2
286
     1
 66
     0
277
    -2
287
     1
 67
     0
278
    -2
288
     1
 68
     0
279
    -2
289
     1
 69
     0
  0
VISUALSTYLE
  5
1A
102
{ACAD_XDICTIONARY
360
F13E
102
}
102
{ACAD_REACTORS
330
14
102
}
330
14
100
AcDbVisualStyle
  2
2dWireframe
 70
     4
177
     2
291
     0
 71
     0
176
     1
 72
     2
176
     1
 73
     0
176
     1
 90
        0
176
     1
 40
0.6
176
     1
 41
30.0
176
     1
 63
     7
176
     1
 74
     1
176
     1
 91
        4
176
     1
 64
     7
176
     1
 65
   257
176
     1
 75
     1
176
     1
175
     1
176
     1
 42
1.0
176
     1
 92
        0
176
     1
 66
   257
176
     1
 43
1.0
176
     1
 76
     1
176
     1
 77
     6
176
     1
 78
     2
176
     1
 67
     7
176
     1
 79
     5
176
     1
170
     0
176
     1
171
     0
176
     1
290
     0
176
     1
 93
        1
176
     1
 44
0.0
176
     1
173
     0
176
     1
1001
ACAD
1000
AcDbSavedByObjectVersion
1070
     0
  0
VISUALSTYLE
  5
1C
102
{ACAD_XDICTIONARY
360
F142
102
}
102
{ACAD_REACTORS
330
14
102
}
330
14
100
AcDbVisualStyle
  2
3D Hidden
 70
     6
177
     2
291
     0
 71
     1
176
     1
 72
     2
176
     1
 73
     2
176
     1
 90
        0
176
     1
 40
0.6
176
     1
 41
30.0
176
     1
 63
     7
176
     1
 74
     2
176
     1
 91
        2
176
     1
 64
     7
176
     1
 65
   257
176
     1
 75
     2
176
     1
175
     1
176
     1
 42
40.0
176
     1
 92
        0
176
     1
 66
   257
176
     1
 43
1.0
176
     1
 76
     1
176
     1
 77
     6
176
     1
 78
     2
176
     1
 67
     7
176
     1
 79
     3
176
     1
170
     0
176
     1
171
     0
176
     1
290
     0
176
     1
 93
        1
176
     1
 44
0.0
176
     1
173
     0
176
     1
1001
ACAD
1000
AcDbSavedByObjectVersion
1070
     0
  0
VISUALSTYLE
  5
1B
102
{ACAD_XDICTIONARY
360
F140
102
}
102
{ACAD_REACTORS
330
14
102
}
330
14
100
AcDbVisualStyle
  2
3dWireframe
 70
     5
177
     2
291
     0
 71
     0
176
     1
 72
     2
176
     1
 73
     0
176
     1
 90
        0
176
     1
 40
0.6
176
     1
 41
30.0
176
     1
 63
     7
176
     1
 74
     1
176
     1
 91
        4
176
     1
 64
     7
176
     1
 65
   257
176
     1
 75
     1
176
     1
175
     1
176
     1
 42
1.0
176
     1
 92
        0
176
     1
 66
   257
176
     1
 43
1.0
176
     1
 76
     1
176
     1
 77
     6
176
     1
 78
     2
176
     1
 67
     7
176
     1
 79
     5
176
     1
170
     0
176
     1
171
     0
176
     1
290
     0
176
     1
 93
        1
176
     1
 44
0.0
176
     1
173
     0
176
     1
1001
ACAD
1000
AcDbSavedByObjectVersion
1070
     0
  0
VISUALSTYLE
  5
19
102
{ACAD_XDICTIONARY
360
F13C
102
}
102
{ACAD_REACTORS
330
14
102
}
330
14
100
AcDbVisualStyle
  2
Basic
 70
     7
177
     2
291
     1
 71
     1
176
     1
 72
     0
176
     1
 73
     1
176
     1
 90
        0
176
     1
 40
0.6
176
     1
 41
30.0
176
     1
 63
     7
176
     1
 74
     0
176
     1
 91
        4
176
     1
 64
     7
176
     1
 65
   257
176
     1
 75
     1
176
     1
175
     1
176
     1
 42
1.0
176
     1
 92
        8
176
     1
 66
     7
176
     1
 43
1.0
176
     1
 76
     1
176
     1
 77
     6
176
     1
 78
     2
176
     1
 67
     7
176
     1
 79
     5
176
     1
170
     0
176
     1
171
     0
176
     1
290
     0
176
     1
 93
        1
176
     1
 44
0.0
176
     1
173
     0
176
     1
1001
ACAD
1000
AcDbSavedByObjectVersion
1070
     0
  0
VISUALSTYLE
  5
20
102
{ACAD_XDICTIONARY
360
F14A
102
}
102
{ACAD_REACTORS
330
14
102
}
330
14
100
AcDbVisualStyle
  2
Brighten
 70
    12
177
     2
291
     1
 71
     2
176
     1
 72
     2
176
     1
 73
     0
176
     1
 90
        0
176
     1
 40
0.6
176
     1
 41
30.0
176
     1
 63
     7
176
     1
 74
     1
176
     1
 91
        4
176
     1
 64
     7
176
     1
 65
   257
176
     1
 75
     1
176
     1
175
     1
176
     1
 42
1.0
176
     1
 92
        8
176
     1
 66
     7
176
     1
 43
1.0
176
     1
 76
     1
176
     1
 77
     6
176
     1
 78
     2
176
     1
 67
     7
176
     1
 79
     5
176
     1
170
     0
176
     1
171
     0
176
     1
290
     0
176
     1
 93
        1
176
     1
 44
50.0
176
     1
173
     0
176
     1
1001
ACAD
1000
AcDbSavedByObjectVersion
1070
     0
  0
VISUALSTYLE
  5
24
102
{ACAD_XDICTIONARY
360
F152
102
}
102
{ACAD_REACTORS
330
14
102
}
330
14
100
AcDbVisualStyle
  2
ColorChange
 70
    16
177
     2
291
     1
 71
     2
176
     1
 72
     2
176
     1
 73
     3
176
     1
 90
        0
176
     1
 40
0.6
176
     1
 41
30.0
176
     1
 63
     8
176
     1
 74
     1
176
     1
 91
        4
176
     1
 64
     7
176
     1
 65
   257
176
     1
 75
     1
176
     1
175
     1
176
     1
 42
1.0
176
     1
 92
        8
176
     1
 66
     8
176
     1
 43
1.0
176
     1
 76
     1
176
     1
 77
     6
176
     1
 78
     2
176
     1
 67
     7
176
     1
 79
     5
176
     1
170
     0
176
     1
171
     0
176
     1
290
     0
176
     1
 93
        1
176
     1
 44
0.0
176
     1
173
     0
176
     1
1001
ACAD
1000
AcDbSavedByObjectVersion
1070
     0
  0
VISUALSTYLE
  5
1D
102
{ACAD_XDICTIONARY
360
F144
102
}
102
{ACAD_REACTORS
330
14
102
}
330
14
100
AcDbVisualStyle
  2
Conceptual
 70
     9
177
     2
291
     0
 71
     3
176
     1
 72
     2
176
     1
 73
     0
176
     1
 90
        0
176
     1
 40
0.6
176
     1
 41
30.0
176
     1
 63
     7
176
     1
 74
     2
176
     1
 91
        2
176
     1
 64
     7
176
     1
 65
   257
176
     1
 75
     1
176
     1
175
     1
176
     1
 42
40.0
176
     1
 92
        8
176
     1
 66
     7
176
     1
 43
1.0
176
     1
 76
     1
176
     1
 77
     6
176
     1
 78
     2
176
     1
 67
     7
176
     1
 79
     3
176
     1
170
     0
176
     1
171
     0
176
     1
290
     0
176
     1
 93
        1
176
     1
 44
0.0
176
     1
173
     0
176
     1
1001
ACAD
1000
AcDbSavedByObjectVersion
1070
     0
  0
VISUALSTYLE
  5
1F
102
{ACAD_XDICTIONARY
360
F148
102
}
102
{ACAD_REACTORS
330
14
102
}
330
14
100
AcDbVisualStyle
  2
Dim
 70
    11
177
     2
291
     1
 71
     2
176
     1
 72
     2
176
     1
 73
     0
176
     1
 90
        0
176
     1
 40
0.6
176
     1
 41
30.0
176
     1
 63
     7
176
     1
 74
     1
176
     1
 91
        4
176
     1
 64
     7
176
     1
 65
   257
176
     1
 75
     1
176
     1
175
     1
176
     1
 42
1.0
176
     1
 92
        8
176
     1
 66
     7
176
     1
 43
1.0
176
     1
 76
     1
176
     1
 77
     6
176
     1
 78
     2
176
     1
 67
     7
176
     1
 79
     5
176
     1
170
     0
176
     1
171
     0
176
     1
290
     0
176
     1
 93
        1
176
     1
 44
-50.0
176
     1
173
     0
176
     1
1001
ACAD
1000
AcDbSavedByObjectVersion
1070
     0
  0
VISUALSTYLE
  5
C2D
102
{ACAD_XDICTIONARY
360
F158
102
}
102
{ACAD_REACTORS
330
14
102
}
330
14
100
AcDbVisualStyle
  2
EdgeColorOff
 70
    22
177
     2
291
     1
 71
     2
176
     0
 72
     2
176
     0
 73
     0
176
     0
 90
        0
176
     0
 40
0.6
176
     0
 41
30.0
176
     0
 63
     7
176
     0
 74
     1
176
     0
 91
        4
176
     0
 64
     7
176
     0
 65
   257
176
     0
 75
     1
176
     0
175
     1
176
     0
 42
1.0
176
     0
 92
        8
176
     2
 66
     7
176
     0
 43
1.0
176
     0
 76
     1
176
     0
 77
     6
176
     0
 78
     2
176
     0
 67
     7
176
     0
 79
     5
176
     0
170
     0
176
     0
171
     0
176
     0
290
     0
176
     0
 93
        1
176
     0
 44
0.0
176
     0
173
     0
176
     0
1001
ACAD
1000
AcDbSavedByObjectVersion
1070
     0
  0
VISUALSTYLE
  5
23
102
{ACAD_XDICTIONARY
360
F150
102
}
102
{ACAD_REACTORS
330
14
102
}
330
14
100
AcDbVisualStyle
  2
Facepattern
 70
    15
177
     2
291
     1
 71
     2
176
     1
 72
     2
176
     1
 73
     0
176
     1
 90
        0
176
     1
 40
0.6
176
     1
 41
30.0
176
     1
 63
     7
176
     1
 74
     1
176
     1
 91
        4
176
     1
 64
     7
176
     1
 65
   257
176
     1
 75
     1
176
     1
175
     1
176
     1
 42
1.0
176
     1
 92
        8
176
     1
 66
     7
176
     1
 43
1.0
176
     1
 76
     1
176
     1
 77
     6
176
     1
 78
     2
176
     1
 67
     7
176
     1
 79
     5
176
     1
170
     0
176
     1
171
     0
176
     1
290
     0
176
     1
 93
        1
176
     1
 44
0.0
176
     1
173
     0
176
     1
1001
ACAD
1000
AcDbSavedByObjectVersion
1070
     0
  0
VISUALSTYLE
  5
15
102
{ACAD_XDICTIONARY
360
F134
102
}
102
{ACAD_REACTORS
330
14
102
}
330
14
100
AcDbVisualStyle
  2
Flat
 70
     0
177
     2
291
     1
 71
     2
176
     1
 72
     1
176
     1
 73
     1
176
     1
 90
        2
176
     1
 40
0.6
176
     1
 41
30.0
176
     1
 63
     7
176
     1
 74
     0
176
     1
 91
        4
176
     1
 64
     7
176
     1
 65
   257
176
     1
 75
     1
176
     1
175
     1
176
     1
 42
1.0
176
     1
 92
        8
176
     1
 66
     7
176
     1
 43
1.0
176
     1
 76
     1
176
     1
 77
     6
176
     1
 78
     2
176
     1
 67
     7
176
     1
 79
     5
176
     1
170
     0
176
     1
171
     0
176
     1
290
     0
176
     1
 93
       13
176
     1
 44
0.0
176
     1
173
     0
176
     1
1001
ACAD
1000
AcDbSavedByObjectVersion
1070
     0
  0
VISUALSTYLE
  5
16
102
{ACAD_XDICTIONARY
360
F136
102
}
102
{ACAD_REACTORS
330
14
102
}
330
14
100
AcDbVisualStyle
  2
FlatWithEdges
 70
     1
177
     2
291
     1
 71
     2
176
     1
 72
     1
176
     1
 73
     1
176
     1
 90
        2
176
     1
 40
0.6
176
     1
 41
30.0
176
     1
 63
     7
176
     1
 74
     1
176
     1
 91
        4
176
     1
 64
     7
176
     1
 65
   257
176
     1
 75
     1
176
     1
175
     1
176
     1
 42
1.0
176
     1
 92
        0
176
     1
 66
   257
176
     1
 43
1.0
176
     1
 76
     1
176
     1
 77
     6
176
     1
 78
     2
176
     1
 67
     7
176
     1
 79
     5
176
     1
170
     0
176
     1
171
     0
176
     1
290
     0
176
     1
 93
       13
176
     1
 44
0.0
176
     1
173
     0
176
     1
1001
ACAD
1000
AcDbSavedByObjectVersion
1070
     0
  0
VISUALSTYLE
  5
17
102
{ACAD_XDICTIONARY
360
F138
102
}
102
{ACAD_REACTORS
330
14
102
}
330
14
100
AcDbVisualStyle
  2
Gouraud
 70
     2
177
     2
291
     1
 71
     2
176
     1
 72
     2
176
     1
 73
     1
176
     1
 90
        2
176
     1
 40
0.6
176
     1
 41
30.0
176
     1
 63
     7
176
     1
 74
     0
176
     1
 91
        4
176
     1
 64
     7
176
     1
 65
   257
176
     1
 75
     1
176
     1
175
     1
176
     1
 42
1.0
176
     1
 92
        0
176
     1
 66
     7
176
     1
 43
1.0
176
     1
 76
     1
176
     1
 77
     6
176
     1
 78
     2
176
     1
 67
     7
176
     1
 79
     5
176
     1
170
     0
176
     1
171
     0
176
     1
290
     0
176
     1
 93
       13
176
     1
 44
0.0
176
     1
173
     0
176
     1
1001
ACAD
1000
AcDbSavedByObjectVersion
1070
     0
  0
VISUALSTYLE
  5
18
102
{ACAD_XDICTIONARY
360
F13A
102
}
102
{ACAD_REACTORS
330
14
102
}
330
14
100
AcDbVisualStyle
  2
GouraudWithEdges
 70
     3
177
     2
291
     1
 71
     2
176
     1
 72
     2
176
     1
 73
     1
176
     1
 90
        2
176
     1
 40
0.6
176
     1
 41
30.0
176
     1
 63
     7
176
     1
 74
     1
176
     1
 91
        4
176
     1
 64
     7
176
     1
 65
   257
176
     1
 75
     1
176
     1
175
     1
176
     1
 42
1.0
176
     1
 92
        0
176
     1
 66
   257
176
     1
 43
1.0
176
     1
 76
     1
176
     1
 77
     6
176
     1
 78
     2
176
     1
 67
     7
176
     1
 79
     5
176
     1
170
     0
176
     1
171
     0
176
     1
290
     0
176
     1
 93
       13
176
     1
 44
0.0
176
     1
173
     0
176
     1
1001
ACAD
1000
AcDbSavedByObjectVersion
1070
     0
  0
VISUALSTYLE
  5
DB89
102
{ACAD_XDICTIONARY
360
F15C
102
}
102
{ACAD_REACTORS
330
14
102
}
330
14
100
AcDbVisualStyle
  2
Hidden
 70
     6
177
     2
291
     0
 71
     1
176
     1
 72
     2
176
     1
 73
     2
176
     1
 90
        0
176
     1
 40
0.6
176
     1
 41
30.0
176
     1
 63
     7
421
 16777215
176
     1
 74
     2
176
     1
 91
        2
176
     1
 64
     7
176
     1
 65
   257
176
     1
 75
     2
176
     1
175
     1
176
     1
 42
40.0
176
     1
 92
        0
176
     1
 66
   257
176
     1
 43
1.0
176
     1
 76
     1
176
     1
 77
     6
176
     1
 78
     2
176
     1
 67
     7
176
     1
 79
     3
176
     1
170
     0
176
     1
171
     0
176
     1
290
     0
176
     1
 93
        1
176
     1
 44
0.0
176
     1
173
     0
176
     1
1001
ACAD
1000
AcDbSavedByObjectVersion
1070
     0
  0
VISUALSTYLE
  5
C2B
102
{ACAD_XDICTIONARY
360
F154
102
}
102
{ACAD_REACTORS
330
14
102
}
330
14
100
AcDbVisualStyle
  2
JitterOff
 70
    20
177
     2
291
     1
 71
     2
176
     0
 72
     2
176
     0
 73
     0
176
     0
 90
        0
176
     0
 40
0.6
176
     0
 41
30.0
176
     0
 63
     7
176
     0
 74
     1
176
     0
 91
        4
176
     0
 64
     7
176
     0
 65
   257
176
     0
 75
     1
176
     0
175
     1
176
     0
 42
1.0
176
     0
 92
       10
176
     2
 66
     7
176
     0
 43
1.0
176
     0
 76
     1
176
     0
 77
     6
176
     0
 78
     2
176
     0
 67
     7
176
     0
 79
     5
176
     0
170
     0
176
     0
171
     0
176
     0
290
     0
176
     0
 93
        1
176
     0
 44
0.0
176
     0
173
     0
176
     0
1001
ACAD
1000
AcDbSavedByObjectVersion
1070
     0
  0
VISUALSTYLE
  5
22
102
{ACAD_XDICTIONARY
360
F14E
102
}
102
{ACAD_REACTORS
330
14
102
}
330
14
100
AcDbVisualStyle
  2
Linepattern
 70
    14
177
     2
291
     1
 71
     2
176
     1
 72
     2
176
     1
 73
     0
176
     1
 90
        0
176
     1
 40
0.6
176
     1
 41
30.0
176
     1
 63
     7
176
     1
 74
     1
176
     1
 91
        4
176
     1
 64
     7
176
     1
 65
   257
176
     1
 75
     7
176
     1
175
     7
176
     1
 42
1.0
176
     1
 92
        8
176
     1
 66
     7
176
     1
 43
1.0
176
     1
 76
     1
176
     1
 77
     6
176
     1
 78
     2
176
     1
 67
     7
176
     1
 79
     5
176
     1
170
     0
176
     1
171
     0
176
     1
290
     0
176
     1
 93
        1
176
     1
 44
0.0
176
     1
173
     0
176
     1
1001
ACAD
1000
AcDbSavedByObjectVersion
1070
     0
  0
VISUALSTYLE
  5
C2C
102
{ACAD_XDICTIONARY
360
F156
102
}
102
{ACAD_REACTORS
330
14
102
}
330
14
100
AcDbVisualStyle
  2
OverhangOff
 70
    21
177
     2
291
     1
 71
     2
176
     0
 72
     2
176
     0
 73
     0
176
     0
 90
        0
176
     0
 40
0.6
176
     0
 41
30.0
176
     0
 63
     7
176
     0
 74
     1
176
     0
 91
        4
176
     0
 64
     7
176
     0
 65
   257
176
     0
 75
     1
176
     0
175
     1
176
     0
 42
1.0
176
     0
 92
        9
176
     2
 66
     7
176
     0
 43
1.0
176
     0
 76
     1
176
     0
 77
     6
176
     0
 78
     2
176
     0
 67
     7
176
     0
 79
     5
176
     0
170
     0
176
     0
171
     0
176
     0
290
     0
176
     0
 93
        1
176
     0
 44
0.0
176
     0
173
     0
176
     0
1001
ACAD
1000
AcDbSavedByObjectVersion
1070
     0
  0
VISUALSTYLE
  5
1E
102
{ACAD_XDICTIONARY
360
F146
102
}
102
{ACAD_REACTORS
330
14
102
}
330
14
100
AcDbVisualStyle
  2
Realistic
 70
     8
177
     2
291
     0
 71
     2
176
     1
 72
     2
176
     1
 73
     0
176
     1
 90
        0
176
     1
 40
0.6
176
     1
 41
30.0
176
     1
 63
     7
176
     1
 74
     1
176
     1
 91
        0
176
     1
 64
     7
176
     1
 65
   257
176
     1
 75
     1
176
     1
175
     1
176
     1
 42
1.0
176
     1
 92
        8
176
     1
 66
     8
176
     1
 43
1.0
176
     1
 76
     1
176
     1
 77
     6
176
     1
 78
     2
176
     1
 67
     7
176
     1
 79
     5
176
     1
170
     0
176
     1
171
     0
176
     1
290
     0
176
     1
 93
       13
176
     1
 44
0.0
176
     1
173
     0
176
     1
1001
ACAD
1000
AcDbSavedByObjectVersion
1070
     0
  0
VISUALSTYLE
  5
DB8E
102
{ACAD_XDICTIONARY
360
F166
102
}
102
{ACAD_REACTORS
330
14
102
}
330
14
100
AcDbVisualStyle
  2
Shaded
 70
    27
177
     2
291
     0
 71
     2
176
     1
 72
     2
176
     1
 73
     1
176
     1
 90
        2
176
     1
 40
0.6
176
     1
 41
30.0
176
     1
 63
     7
421
 16777215
176
     1
 74
     0
176
     1
 91
        4
176
     1
 64
     7
176
     1
 65
   257
176
     1
 75
     1
176
     1
175
     1
176
     1
 42
1.0
176
     1
 92
        8
176
     1
 66
   257
176
     1
 43
1.0
176
     1
 76
     1
176
     1
 77
     6
176
     1
 78
     2
176
     1
 67
     8
425
  7895160
176
     1
 79
     3
176
     1
170
     0
176
     1
171
     0
176
     1
290
     0
176
     1
 93
        5
176
     1
 44
0.0
176
     1
173
     0
176
     1
1001
ACAD
1000
AcDbSavedByObjectVersion
1070
     0
  0
VISUALSTYLE
  5
DB8D
102
{ACAD_XDICTIONARY
360
F164
102
}
102
{ACAD_REACTORS
330
14
102
}
330
14
100
AcDbVisualStyle
  2
Shaded with edges
 70
    26
177
     2
291
     0
 71
     2
176
     1
 72
     2
176
     1
 73
     1
176
     1
 90
        2
176
     1
 40
0.6
176
     1
 41
30.0
176
     1
 63
     7
421
 16777215
176
     1
 74
     1
176
     1
 91
        2
176
     1
 64
     7
176
     1
 65
   257
176
     1
 75
     2
176
     1
175
     1
176
     1
 42
1.0
176
     1
 92
        8
176
     1
 66
   257
176
     1
 43
1.0
176
     1
 76
     1
176
     1
 77
     6
176
     1
 78
     2
176
     1
 67
     7
176
     1
 79
     3
176
     1
170
     0
176
     1
171
     0
176
     1
290
     0
176
     1
 93
        5
176
     1
 44
0.0
176
     1
173
     0
176
     1
1001
ACAD
1000
AcDbSavedByObjectVersion
1070
     0
  0
VISUALSTYLE
  5
DB8A
102
{ACAD_XDICTIONARY
360
F15E
102
}
102
{ACAD_REACTORS
330
14
102
}
330
14
100
AcDbVisualStyle
  2
Shades of Gray
 70
    23
177
     2
291
     0
 71
     2
176
     1
 72
     2
176
     1
 73
     3
176
     1
 90
        0
176
     1
 40
0.6
176
     1
 41
30.0
176
     1
 63
     7
421
 16777215
176
     1
 74
     2
176
     1
 91
        2
176
     1
 64
     7
176
     1
 65
     7
176
     1
 75
     1
176
     1
175
     1
176
     1
 42
40.0
176
     1
 92
        8
176
     1
 66
     7
176
     1
 43
1.0
176
     1
 76
     1
176
     1
 77
     6
176
     1
 78
     2
176
     1
 67
     7
176
     1
 79
     3
176
     1
170
     0
176
     1
171
     0
176
     1
290
     0
176
     1
 93
        1
176
     1
 44
0.0
176
     1
173
     0
176
     1
1001
ACAD
1000
AcDbSavedByObjectVersion
1070
     0
  0
VISUALSTYLE
  5
DB8B
102
{ACAD_XDICTIONARY
360
F160
102
}
102
{ACAD_REACTORS
330
14
102
}
330
14
100
AcDbVisualStyle
  2
Sketchy
 70
    24
177
     2
291
     0
 71
     1
176
     1
 72
     2
176
     1
 73
     2
176
     1
 90
        0
176
     1
 40
0.6
176
     1
 41
30.0
176
     1
 63
     7
421
 16777215
176
     1
 74
     2
176
     1
 91
        2
176
     1
 64
     7
176
     1
 65
     7
176
     1
 75
     1
176
     1
175
     1
176
     1
 42
40.0
176
     1
 92
       11
176
     1
 66
     7
176
     1
 43
1.0
176
     1
 76
     1
176
     1
 77
     6
176
     1
 78
     2
176
     1
 67
     7
176
     1
 79
     6
176
     1
170
     0
176
     1
171
     0
176
     1
290
     0
176
     1
 93
        1
176
     1
 44
0.0
176
     1
173
     0
176
     1
1001
ACAD
1000
AcDbSavedByObjectVersion
1070
     0
  0
VISUALSTYLE
  5
21
102
{ACAD_XDICTIONARY
360
F14C
102
}
102
{ACAD_REACTORS
330
14
102
}
330
14
100
AcDbVisualStyle
  2
Thicken
 70
    13
177
     2
291
     1
 71
     2
176
     1
 72
     2
176
     1
 73
     0
176
     1
 90
        0
176
     1
 40
0.6
176
     1
 41
30.0
176
     1
 63
     7
176
     1
 74
     1
176
     1
 91
        4
176
     1
 64
     7
176
     1
 65
   257
176
     1
 75
     1
176
     1
175
     1
176
     1
 42
1.0
176
     1
 92
       12
176
     1
 66
     7
176
     1
 43
1.0
176
     1
 76
     1
176
     1
 77
     6
176
     1
 78
     2
176
     1
 67
     7
176
     1
 79
     5
176
     1
170
     0
176
     1
171
     0
176
     1
290
     0
176
     1
 93
        1
176
     1
 44
0.0
176
     1
173
     0
176
     1
1001
ACAD
1000
AcDbSavedByObjectVersion
1070
     0
  0
VISUALSTYLE
  5
DB88
102
{ACAD_XDICTIONARY
360
F15A
102
}
102
{ACAD_REACTORS
330
14
102
}
330
14
100
AcDbVisualStyle
  2
Wireframe
 70
     5
177
     2
291
     0
 71
     0
176
     1
 72
     2
176
     1
 73
     0
176
     1
 90
        0
176
     1
 40
0.6
176
     1
 41
30.0
176
     1
 63
     7
421
 16777215
176
     1
 74
     1
176
     1
 91
        4
176
     1
 64
     7
176
     1
 65
   257
176
     1
 75
     1
176
     1
175
     1
176
     1
 42
1.0
176
     1
 92
        0
176
     1
 66
   257
176
     1
 43
1.0
176
     1
 76
     1
176
     1
 77
     6
176
     1
 78
     2
176
     1
 67
     7
176
     1
 79
     3
176
     1
170
     0
176
     1
171
     0
176
     1
290
     0
176
     1
 93
        1
176
     1
 44
0.0
176
     1
173
     0
176
     1
1001
ACAD
1000
AcDbSavedByObjectVersion
1070
     0
  0
VISUALSTYLE
  5
DB8C
102
{ACAD_XDICTIONARY
360
F162
102
}
102
{ACAD_REACTORS
330
14
102
}
330
14
100
AcDbVisualStyle
  2
X-Ray
 70
    25
177
     2
291
     0
 71
     2
176
     1
 72
     2
176
     1
 73
     1
176
     1
 90
        1
176
     1
 40
0.5
176
     1
 41
30.0
176
     1
 63
     7
421
 16777215
176
     1
 74
     1
176
     1
 91
        0
176
     1
 64
     7
176
     1
 65
   257
176
     1
 75
     1
176
     1
175
     1
176
     1
 42
1.0
176
     1
 92
        8
176
     1
 66
     7
176
     1
 43
1.0
176
     1
 76
     1
176
     1
 77
     6
176
     1
 78
     2
176
     1
 67
     7
176
     1
 79
     3
176
     1
170
     0
176
     1
171
     0
176
     1
290
     0
176
     1
 93
       13
176
     1
 44
0.0
176
     1
173
     0
176
     1
1001
ACAD
1000
AcDbSavedByObjectVersion
1070
     0
  0
DICTIONARYVAR
  5
3714
102
{ACAD_REACTORS
330
42
102
}
330
42
100
DictionaryVariables
280
     0
  1
1:1
  0
DICTIONARYVAR
  5
3713
102
{ACAD_REACTORS
330
42
102
}
330
42
100
DictionaryVariables
280
     0
  1
部品図用_1：1
  0
DICTIONARYVAR
  5
43
102
{ACAD_REACTORS
330
42
102
}
330
42
100
DictionaryVariables
280
     0
  1
STANDARD
  0
DICTIONARYVAR
  5
DBE1
102
{ACAD_REACTORS
330
42
102
}
330
42
100
DictionaryVariables
280
     0
  1
Metric50
  0
DICTIONARYVAR
  5
DBE2
102
{ACAD_REACTORS
330
42
102
}
330
42
100
DictionaryVariables
280
     0
  1
Metric50
  0
DICTIONARYVAR
  5
3719
102
{ACAD_REACTORS
330
42
102
}
330
42
100
DictionaryVariables
280
     0
  1
2
  0
DICTIONARYVAR
  5
3717
102
{ACAD_REACTORS
330
42
102
}
330
42
100
DictionaryVariables
280
     0
  1
1
  0
DICTIONARYVAR
  5
3716
102
{ACAD_REACTORS
330
42
102
}
330
42
100
DictionaryVariables
280
     0
  1
0
  0
DICTIONARYVAR
  5
93DF
102
{ACAD_REACTORS
330
42
102
}
330
42
100
DictionaryVariables
280
     0
  1
1
  0
DICTIONARYVAR
  5
93E0
102
{ACAD_REACTORS
330
42
102
}
330
42
100
DictionaryVariables
280
     0
  1
15
  0
DICTIONARYVAR
  5
93DE
102
{ACAD_REACTORS
330
42
102
}
330
42
100
DictionaryVariables
280
     0
  1
0
  0
DICTIONARYVAR
  5
B1DD
102
{ACAD_REACTORS
330
42
102
}
330
42
100
DictionaryVariables
280
     0
  1
1.000000
  0
DICTIONARYVAR
  5
93DD
102
{ACAD_REACTORS
330
42
102
}
330
42
100
DictionaryVariables
280
     0
  1
0
  0
DICTIONARYVAR
  5
3715
102
{ACAD_REACTORS
330
42
102
}
330
42
100
DictionaryVariables
280
     0
  1
127
  0
DICTIONARY
  5
F16A
330
DB92
100
AcDbDictionary
280
     1
281
     1
  3
ACAD_XREC_ROUNDTRIP
360
F16B
  0
DICTIONARY
  5
92F1
330
3A
100
AcDbDictionary
280
     1
281
     1
  3
ADSK_XREC_LAYOUTTHUMBNAIL
360
F0D8
  0
DICTIONARY
  5
55B
330
36
100
AcDbDictionary
280
     1
281
     1
  0
DICTIONARY
  5
F168
330
DB90
100
AcDbDictionary
280
     1
281
     1
  3
ACAD_XREC_ROUNDTRIP
360
F169
  0
DICTIONARY
  5
3660
330
32
100
AcDbDictionary
280
     1
281
     1
  3
ACAD_ROUNDTRIP_2008_TABLESTYLE_CELLSTYLEMAP
360
F132
  0
DICTIONARY
  5
F13E
330
1A
100
AcDbDictionary
280
     1
281
     1
  3
ACAD_XREC_ROUNDTRIP
360
F13F
  0
DICTIONARY
  5
F142
330
1C
100
AcDbDictionary
280
     1
281
     1
  3
ACAD_XREC_ROUNDTRIP
360
F143
  0
DICTIONARY
  5
F140
330
1B
100
AcDbDictionary
280
     1
281
     1
  3
ACAD_XREC_ROUNDTRIP
360
F141
  0
DICTIONARY
  5
F13C
330
19
100
AcDbDictionary
280
     1
281
     1
  3
ACAD_XREC_ROUNDTRIP
360
F13D
  0
DICTIONARY
  5
F14A
330
20
100
AcDbDictionary
280
     1
281
     1
  3
ACAD_XREC_ROUNDTRIP
360
F14B
  0
DICTIONARY
  5
F152
330
24
100
AcDbDictionary
280
     1
281
     1
  3
ACAD_XREC_ROUNDTRIP
360
F153
  0
DICTIONARY
  5
F144
330
1D
100
AcDbDictionary
280
     1
281
     1
  3
ACAD_XREC_ROUNDTRIP
360
F145
  0
DICTIONARY
  5
F148
330
1F
100
AcDbDictionary
280
     1
281
     1
  3
ACAD_XREC_ROUNDTRIP
360
F149
  0
DICTIONARY
  5
F158
330
C2D
100
AcDbDictionary
280
     1
281
     1
  3
ACAD_XREC_ROUNDTRIP
360
F159
  0
DICTIONARY
  5
F150
330
23
100
AcDbDictionary
280
     1
281
     1
  3
ACAD_XREC_ROUNDTRIP
360
F151
  0
DICTIONARY
  5
F134
330
15
100
AcDbDictionary
280
     1
281
     1
  3
ACAD_XREC_ROUNDTRIP
360
F135
  0
DICTIONARY
  5
F136
330
16
100
AcDbDictionary
280
     1
281
     1
  3
ACAD_XREC_ROUNDTRIP
360
F137
  0
DICTIONARY
  5
F138
330
17
100
AcDbDictionary
280
     1
281
     1
  3
ACAD_XREC_ROUNDTRIP
360
F139
  0
DICTIONARY
  5
F13A
330
18
100
AcDbDictionary
280
     1
281
     1
  3
ACAD_XREC_ROUNDTRIP
360
F13B
  0
DICTIONARY
  5
F15C
330
DB89
100
AcDbDictionary
280
     1
281
     1
  3
ACAD_XREC_ROUNDTRIP
360
F15D
  0
DICTIONARY
  5
F154
330
C2B
100
AcDbDictionary
280
     1
281
     1
  3
ACAD_XREC_ROUNDTRIP
360
F155
  0
DICTIONARY
  5
F14E
330
22
100
AcDbDictionary
280
     1
281
     1
  3
ACAD_XREC_ROUNDTRIP
360
F14F
  0
DICTIONARY
  5
F156
330
C2C
100
AcDbDictionary
280
     1
281
     1
  3
ACAD_XREC_ROUNDTRIP
360
F157
  0
DICTIONARY
  5
F146
330
1E
100
AcDbDictionary
280
     1
281
     1
  3
ACAD_XREC_ROUNDTRIP
360
F147
  0
DICTIONARY
  5
F166
330
DB8E
100
AcDbDictionary
280
     1
281
     1
  3
ACAD_XREC_ROUNDTRIP
360
F167
  0
DICTIONARY
  5
F164
330
DB8D
100
AcDbDictionary
280
     1
281
     1
  3
ACAD_XREC_ROUNDTRIP
360
F165
  0
DICTIONARY
  5
F15E
330
DB8A
100
AcDbDictionary
280
     1
281
     1
  3
ACAD_XREC_ROUNDTRIP
360
F15F
  0
DICTIONARY
  5
F160
330
DB8B
100
AcDbDictionary
280
     1
281
     1
  3
ACAD_XREC_ROUNDTRIP
360
F161
  0
DICTIONARY
  5
F14C
330
21
100
AcDbDictionary
280
     1
281
     1
  3
ACAD_XREC_ROUNDTRIP
360
F14D
  0
DICTIONARY
  5
F15A
330
DB88
100
AcDbDictionary
280
     1
281
     1
  3
ACAD_XREC_ROUNDTRIP
360
F15B
  0
DICTIONARY
  5
F162
330
DB8C
100
AcDbDictionary
280
     1
281
     1
  3
ACAD_XREC_ROUNDTRIP
360
F163
  0
XRECORD
  5
F16B
102
{ACAD_REACTORS
330
F16A
102
}
330
F16A
100
AcDbXrecord
280
     1
102
DISPLAYNAME
  1
Metric50
102
FLAGS
 90
        0
  0
XRECORD
  5
F0D8
102
{ACAD_REACTORS
330
92F1
102
}
330
92F1
100
AcDbXrecord
280
     1
310
28000000000100007B0000000100080000000000007B0000010000000100000000010000000000003028210000000052C8C8C8FF000000FF000000FF000000FF000000FF000000FF000000FF000000FF000000FF330000FF660000FF990000FFCC0000FFFF0000FF003300FF333300FF663300FF993300FFCC3300FFFF3300
310
FF006600FF336600FF666600FF996600FFCC6600FFFF6600FF009900FF339900FF669900FF999900FFCC9900FFFF9900FF00CC00FF33CC00FF66CC00FF99CC00FFCCCC00FFFFCC00FF00FF00FF33FF00FF66FF00FF99FF00FFCCFF00FFFFFF00FF000033FF330033FF660033FF990033FFCC0033FFFF0033FF003333FF3333
310
33FF663333FF993333FFCC3333FFFF3333FF006633FF336633FF666633FF996633FFCC6633FFFF6633FF009933FF339933FF669933FF999933FFCC9933FFFF9933FF00CC33FF33CC33FF66CC33FF99CC33FFCCCC33FFFFCC33FF00FF33FF33FF33FF66FF33FF99FF33FFCCFF33FFFFFF33FF000066FF330066FF660066FF99
310
0066FFCC0066FFFF0066FF003366FF333366FF663366FF993366FFCC3366FFFF3366FF006666FF336666FF666666FF996666FFCC6666FFFF6666FF009966FF339966FF669966FF999966FFCC9966FFFF9966FF00CC66FF33CC66FF66CC66FF99CC66FFCCCC66FFFFCC66FF00FF66FF33FF66FF66FF66FF99FF66FFCCFF66FF
310
FFFF66FF000099FF330099FF660099FF990099FFCC0099FFFF0099FF003399FF333399FF663399FF993399FFCC3399FFFF3399FF006699FF336699FF666699FF996699FFCC6699FFFF6699FF009999FF339999FF669999FF999999FFCC9999FFFF9999FF00CC99FF33CC99FF66CC99FF99CC99FFCCCC99FFFFCC99FF00FF99
310
FF33FF99FF66FF99FF99FF99FFCCFF99FFFFFF99FF0000CCFF3300CCFF6600CCFF9900CCFFCC00CCFFFF00CCFF0033CCFF3333CCFF6633CCFF9933CCFFCC33CCFFFF33CCFF0066CCFF3366CCFF6666CCFF9966CCFFCC66CCFFFF66CCFF0099CCFF3399CCFF6699CCFF9999CCFFCC99CCFFFF99CCFF00CCCCFF33CCCCFF66CC
310
CCFF99CCCCFFCCCCCCFFFFCCCCFF00FFCCFF33FFCCFF66FFCCFF99FFCCFFCCFFCCFFFFFFCCFF0000FFFF3300FFFF6600FFFF9900FFFFCC00FFFFFF00FFFF0033FFFF3333FFFF6633FFFF9933FFFFCC33FFFFFF33FFFF0066FFFF3366FFFF6666FFFF9966FFFFCC66FFFFFF66FFFF0099FFFF3399FFFF6699FFFF9999FFFFCC
310
99FFFFFF99FFFF00CCFFFF33CCFFFF66CCFFFF99CCFFFFCCCCFFFFFFCCFFFF00FFFFFF33FFFFFF66FFFFFF99FFFFFFCCFFFFFFFFFFFFFF000000FF0D0D0DFF1A1A1AFF282828FF353535FF434343FF505050FF5D5D5DFF6B6B6BFF787878FF868686FF939393FFA1A1A1FFAEAEAEFFBBBBBBFFC9C9C9FFD6D6D6FFE4E4E4FF
310
F1F1F1FFFFFFFFFF000000FF000000FF000000FF000000FF000000FF000000FF000000FF000000FF000000FF000000FF00000000000000000000000000000000000000000000000000000000000000000000000000000000000000000000000000000000000000000000000000000000000000000000000000000000000000
310
00000000000000000000000000000000000000000000000000000000000000000000000000000000000000000000000000000000000000000000000000000000000000000000000000000000000000000000000000000000000000000000000000000000000000000000000000000000000000000000000000000000000000
310
00000000000000000000000000000000000000000000000000000000000000000000000000000000000000000000000000000000000000000000000000000000000000000000000000000000000000000000000000000000000000000000000000000000000000000000000000000000000000000000000000000000000000
310
00000000000000000000000000000000000000000000000000000000000000000000000000000000000000000000000000000000000000000000000000000000000000000000000000000000000000000000000000000000000000000000000000000000000000000000000000000000000000000000000000000000000000
310
00000000000000000000000000000000000000000000000000000000000000000000000000000000000000000000000000000000000000000000000000000000000000000000000000000000000000000000000000000000000000000000000000000000000000000000000000000000000000000000000000000000000000
310
00000000000000000000000000000000000000000000000000000000000000000000000000000000000000000000000000000000000000000000000000000000000000000000000000000000000000000000000000000000000000000000000000000000000000000000000000000000000000000000000000000000000000
310
00000000000000000000000000000000000000000000000000000000000000000000000000000000000000000000000000000000000000000000000000000000000000000000000000000000000000000000000000000000000000000000000000000000000000000000000000000000000000000000000000000000000000
310
00000000000000000000000000000000000000000000000000000000000000000000000000000000000000000000000000000000000000000000000000000000000000000000000000000000000000000000000000000000000000000000000000000000000000000000000000000000000000000000000000000000000000
310
00000000000000000000000000000000000000000000000000000000000000000000000000000000000000000000000000000000000000000000000000000000000000000000000000000000000000000000000000000000000000000000000000000000000000000000000000000000000000000000000000000000000000
310
00000000000000000000000000000000000000000000000000000000000000000000000000000000000000000000000000000000000000000000000000000000000000000000000000000000000000000000000000000000000000000000000000000000000000000000000000000000000000000000000000000000000000
310
00000000000000000000000000000000000000000000000000000000000000000000000000000000000000000000000000000000000000000000000000000000000000000000000000000000000000000000000000000000000000000000000000000000000000000000000000000000000000000000000000000000000000
310
00000000000000000000000000000000000000000000000000000000000000000000000000000000000000000000000000000000000000000000000000000000000000000000000000000000000000000000000000000000000000000000000000000000000000000000000000000000000000000000000000000000000000
310
00000000000000000000000000000000000000000000000000000000000000000000000000000000000000000000000000000000000000000000000000000000000000000000000000000000000000000000000000000000000000000000000000000000000000000000000000000000000000000000000000000000000000
310
00000000000000000000000000000000000000000000000000000000000000000000000000000000000000000000000000000000000000000000000000000000000000000000000000000000000000000000000000000000000000000000000000000000000000000000000000000000000000000000000000000000000000
310
00000000000000000000000000000000000000000000000000000000000000000000000000000000000000000000000000000000000000000000000000000000000000000000000000000000000000000000000000000000000000000000000000000000000000000000000000000000000000000000000000000000000000
310
00000000000000000000000000000000000000000000000000000000000000000000000000000000000000000000000000000000000000000000000000000000000000000000000000000000000000000000000000000000000000000000000000000000000000000000000000000000000000000000000000000000000000
310
00000000000000000000000000000000000000000000000000000000000000000000000000000000000000000000000000000000000000000000000000000000000000000000000000000000000000000000000000000000000000000000000000000000000000000000000000000000000000000000000000000000000000
310
00000000000000000000000000000000000000000000000000000000000000000000000000000000000000000000000000000000000000000000000000000000000000000000000000000000000000000000000000000000000000000000000000000000000000000000000000000000000000000000000000000000000000
310
00000000000000000000000000000000000000000000000000000000000000000000000000000000000000000000000000000000000000000000000000000000000000000000000000000000000000000000000000000000000000000000000000000000000000000000000000000000000000000000000000000000000000
310
00000000000000000000000000000000000000000000000000000000000000000000000000000000000000000000000000000000000000000000000000000000000000000000000000000000000000000000000000000000000000000000000000000000000000000000000000000000000000000000000000000000000000
310
00000000000000000000000000000000000000000000000000000000000000000000000000000000000000000000000000000000000000000000000000000000000000000000000000000000000000000000000000000000000000000000000000000000000000000000000000000000000000000000000000000000000000
310
00000000000000000000000000000000000000000000000000000000000000000000000000000000000000000000000000000000000000000000000000000000000000000000000000000000000000000000000000000000000000000000000000000000000000000000000000000000000000000000000000000000000000
310
00000000000000000000000000000000000000000000000000000000000000000000000000000000000000000000000000000000000000000000000000000000000000000000000000000000000000000000000000000000000000000000000000000000000000000000000000000000000000000000000000000000000000
310
00000000000000000000000000000000000000000000000000000000000000000000000000000000000000000000000000000000000000000000000000000000000000000000000000000000000000000000000000000000000000000000000000000000000000000000000000000000000000000000000000000000000000
310
00000000000000000000000000000000000000000000000000000000000000000000000000000000000000000000000000000000000000000000000000000000000000000000000000000000000000000000000000000000000000000000000000000000000000000000000000000000000000000000000000000000000000
310
00000000000000000000000000000000000000000000000000000000000000000000000000000000000000000000000000000000000000000000000000000000000000000000000000000000000000000000000000000000000000000000000000000000000000000000000000000000000000000000000000000000000000
310
00000000000000000000000000000000000000000000000000000000000000000000000000000000000000000000000000000000000000000000000000000000000000000000000000000000000000000000000000000000000000000000000000000000000000000000000000000000000000000000000000000000000000
310
00000000000000000000000000000000000000000000000000000000000000000000000000000000000000000000000000000000000000000000000000000000000000000000000000000000000000000000000000000000000000000000000000000000000000000000000000000000000000000000000000000000000000
310
00000000000000000000000000000000000000000000000000000000000000000000000000000000000000000000000000000000000000000000000000000000000000000000000000000000000000000000000000000000000000000000000000000000000000000000000000000000000000000000000000000000000000
310
00000000000000000000000000000000000000000000000000000000000000000000000000000000000000000000000000000000000000000000000000000000000000000000000000000000000000000000000000000000000000000000000000000000000000000000000000000000000000000000000000000000000000
310
00000000000000000000000000000000000000000000000000000000000000000000000000000000000000000000000000000000000000000000000000000000000000000000000000000000000000000000000000000000000000000000000000000000000000000000000000000000000000000000000000000000000000
310
00000000000000000000000000000000000000000000000000000000000000000000000000000000000000000000000000000000000000000000000000000000000000000000000000000000000000000000000000000000000000000000000000000000000000000000000000000000000000000000000000000000000000
310
00000000000000000000000000000000000000000000000000000000000000000000000000000000000000000000000000000000000000000000000000000000000000000000000000000000000000000000000000000000000000000000000000000000000000000000000000000000000000000000000000000000000000
310
00000000000000000000000000000000000000000000000000000000000000000000000000000000000000000000000000000000000000000000000000000000000000000000000000000000000000000000000000000000000000000000000000000000000000000000000000000000000000000000000000000000000000
310
00000000000000000000000000000000000000000000000000000000000000000000000000000000000000000000000000000000000000000000000000000000000000000000000000000000000000000000000000000000000000000000000000000000000000000000000000000000000000000000000000000000000000
310
00000000000000000000000000000000000000000000000000000000000000000000000000000000000000000000000000000000000000000000000000000000000000000000000000000000000000000000000000000000000000000000000000000000000000000000000000000000000000000000000000000000000000
310
00000000000000000000000000000000000000000000000000000000000000000000000000000000000000000000000000000000000000000000000000000000000000000000000000000000000000000000000000000000000000000000000000000000000000000000000000000000000000000000000000000000000000
310
00000000000000000000000000000000000000000000000000000000000000000000000000000000000000000000000000000000000000000000000000000000000000000000000000000000000000000000000000000000000000000000000000000000000000000000000000000000000000000000000000000000000000
310
00000000000000000000000000000000000000000000000000000000000000000000000000000000000000000000000000000000000000000000000000000000000000000000000000000000000000000000000000000000000000000000000000000000000000000000000000000000000000000000000000000000000000
310
00000000000000000000000000000000000000000000000000000000000000000000000000000000000000000000000000000000000000000000000000000000000000000000000000000000000000000000000000000000000000000000000000000000000000000000000000000000000000000000000000000000000000
310
00000000000000000000000000000000000000000000000000000000000000000000000000000000000000000000000000000000000000000000000000000000000000000000000000000000000000000000000000000000000000000000000000000000000000000000000000000000000000000000000000000000000000
310
00000000000000000000000000000000000000000000000000000000000000000000000000000000000000000000000000000000000000000000000000000000000000000000000000000000000000000000000000000000000000000000000000000000000000000000000000000000000000000000000000000000000000
310
00000000000000000000000000000000000000000000000000000000000000000000000000000000000000000000000000000000000000000000000000000000000000000000000000000000000000000000000000000000000000000000000000000000000000000000000000000000000000000000000000000000000000
310
00000000000000000000000000000000000000000000000000000000000000000000000000000000000000000000000000000000000000000000000000000000000000000000000000000000000000000000000000000000000000000000000000000000000000000000000000000000000000000000000000000000000000
310
00000000000000000000000000000000000000000000000000000000000000000000000000000000000000000000000000000000000000000000000000000000000000000000000000000000000000000000000000000000000000000000000000000000000000000000000000000000000000000000000000000000000000
310
00000000000000000000000000000000000000000000000000000000000000000000000000000000000000000000000000000000000000000000000000000000000000000000000000000000000000000000000000000000000000000000000000000000000000000000000000000000000000000000000000000000000000
310
00000000000000000000000000000000000000000000000000000000000000000000000000000000000000000000000000000000000000000000000000000000000000000000000000000000000000000000000000000000000000000000000000000000000000000000000000000000000000000000000000000000000000
310
00000000000000000000000000000000000000000000000000000000000000000000000000000000000000000000000000000000000000000000000000000000000000000000000000000000000000000000000000000000000000000000000000000000000000000000000000000000000000000000000000000000000000
310
00000000000000000000000000000000000000000000000000000000000000000000000000000000000000000000000000000000000000000000000000000000000000000000000000000000000000000000000000000000000000000000000000000000000000000000000000000000000000000000000000000000000000
310
00000000000000000000000000000000000000000000000000000000000000000000000000000000000000000000000000000000000000000000000000000000000000000000000000000000000000000000000000000000000000000000000000000000000000000000000000000000000000000000000000000000000000
310
00000000000000000000000000000000000000000000000000000000000000000000000000000000000000000000000000000000000000000000000000000000000000000000000000000000000000000000000000000000000000000000000000000000000000000000000000000000000000000000000000000000000000
310
00000000000000000000000000000000000000000000000000000000000000000000000000000000000000000000000000000000000000000000000000000000000000000000000000000000000000000000000000000000000000000000000000000000000000000000000000000000000000000000000000000000000000
310
00000000000000000000000000000000000000000000000000000000000000000000000000000000000000000000000000000000000000000000000000000000000000000000000000000000000000000000000000000000000000000000000000000000000000000000000000000000000000000000000000000000000000
310
00000000000000000000000000000000000000000000000000000000000000000000000000000000000000000000000000000000000000000000000000000000000000000000000000000000000000000000000000000000000000000000000000000000000000000000000000000000000000000000000000000000000000
310
00000000000000000000000000000000000000000000000000000000000000000000000000000000000000000000000000000000000000000000000000000000000000000000000000000000000000000000000000000000000000000000000000000000000000000000000000000000000000000000000000000000000000
310
00000000000000000000000000000000000000000000000000000000000000000000000000000000000000000000000000000000000000000000000000000000000000000000000000000000000000000000000000000000000000000000000000000000000000000000000000000000000000000000000000000000000000
310
00000000000000000000000000000000000000000000000000000000000000000000000000000000000000000000000000000000000000000000000000000000000000000000000000000000000000000000000000000000000000000000000000000000000000000000000000000000000000000000000000000000000000
310
00000000000000000000000000000000000000000000000000000000000000000000000000000000000000000000000000000000000000000000000000000000000000000000000000000000000000000000000000000000000000000000000000000000000000000000000000000000000000000000000000000000000000
310
00000000000000000000000000000000000000000000000000000000000000000000000000000000000000000000000000000000000000000000000000000000000000000000000000000000000000000000000000000000000000000000000000000000000000000000000000000000000000000000000000000000000000
310
00000000000000000000000000000000000000000000000000000000000000000000000000000000000000000000000000000000000000000000000000000000000000000000000000000000000000000000000000000000000000000000000000000000000000000000000000000000000000000000000000000000000000
310
00000000000000000000000000000000000000000000000000000000000000000000000000000000000000000000000000000000000000000000000000000000000000000000000000000000000000000000000000000000000000000000000000000000000000000000000000000000000000000000000000000000000000
310
00000000000000000000000000000000000000000000000000000000000000000000000000000000000000000000000000000000000000000000000000000000000000000000000000000000000000000000000000000000000000000000000000000000000000000000000000000000000000000000000000000000000000
310
00000000000000000000000000000000000000000000000000000000000000000000000000000000000000000000000000000000000000000000000000000000000000000000000000000000000000000000000000000000000000000000000000000000000000000000000000000000000000000000000000000000000000
310
00000000000000000000000000000000000000000000000000000000000000000000000000000000000000000000000000000000000000000000000000000000000000000000000000000000000000000000000000000000000000000000000000000000000000000000000000000000000000000000000000000000000000
310
00000000000000000000000000000000000000000000000000000000000000000000000000000000000000000000000000000000000000000000000000000000000000000000000000000000000000000000000000000000000000000000000000000000000000000000000000000000000000000000000000000000000000
310
00000000000000000000000000000000000000000000000000000000000000000000000000000000000000000000000000000000000000000000000000000000000000000000000000000000000000000000000000000000000000000000000000000000000000000000000000000000000000000000000000000000000000
310
00000000000000000000000000000000000000000000000000000000000000000000000000000000000000000000000000000000000000000000000000000000000000000000000000000000000000000000000000000000000000000000000000000000000000000000000000000000000000000000000000000000000000
310
00000000000000000000000000000000000000000000000000000000000000000000000000000000000000000000000000000000000000000000000000000000000000000000000000000000000000000000000000000000000000000000000000000000000000000000000000000000000000000000000000000000000000
310
00000000000000000000000000000000000000000000000000000000000000000000000000000000000000000000000000000000000000000000000000000000000000000000000000000000000000000000000000000000000000000000000000000000000000000000000000000000000000000000000000000000000000
310
00000000000000000000000000000000000000000000000000000000000000000000000000000000000000000000000000000000000000000000000000000000000000000000000000000000000000000000000000000000000000000000000000000000000000000000000000000000000000000000000000000000000000
310
00000000000000000000000000000000000000000000000000000000000000000000000000000000000000000000000000000000000000000000000000000000000000000000000000000000000000000000000000000000000000000000000000000000000000000000000000000000000000000000000000000000000000
310
00000000000000000000000000000000000000000000000000000000000000000000000000000000000000000000000000000000000000000000000000000000000000000000000000000000000000000000000000000000000000000000000000000000000000000000000000000000000000000000000000000000000000
310
00000000000000000000000000000000000000000000000000000000000000000000000000000000000000000000000000000000000000000000000000000000000000000000000000000000000000000000000000000000000000000000000000000000000000000000000000000000000000000000000000000000000000
310
00000000000000000000000000000000000000000000000000000000000000000000000000000000000000000000000000000000000000000000000000000000000000000000000000000000000000000000000000000000000000000000000000000000000000000000000000000000000000000000000000000000000000
310
00000000000000000000000000000000000000000000000000000000000000000000000000000000000000000000000000000000000000000000000000000000000000000000000000000000000000000000000000000000000000000000000000000000000000000000000000000000000000000000000000000000000000
310
00000000000000000000000000000000000000000000000000000000000000000000000000000000000000000000000000000000000000000000000000000000000000000000000000000000000000000000000000000000000000000000000000000000000000000000000000000000000000000000000000000000000000
310
00000000000000000000000000000000000000000000000000000000000000000000000000000000000000000000000000000000000000000000000000000000000000000000000000000000000000000000000000000000000000000000000000000000000000000000000000000000000000000000000000000000000000
310
00000000000000000000000000000000000000000000000000000000000000000000000000000000000000000000000000000000000000000000000000000000000000000000000000000000000000000000000000000000000000000000000000000000000000000000000000000000000000000000000000000000000000
310
00000000000000000000000000000000000000000000000000000000000000000000000000000000000000000000000000000000000000000000000000000000000000000000000000000000000000000000000000000000000000000000000000000000000000000000000000000000000000000000000000000000000000
310
00000000000000000000000000000000000000000000000000000000000000000000000000000000000000000000000000000000000000000000000000000000000000000000000000000000000000000000000000000000000000000000000000000000000000000000000000000000000000000000000000000000000000
310
00000000000000000000000000000000000000000000000000000000000000000000000000000000000000000000000000000000000000000000000000000000000000000000000000000000000000000000000000000000000000000000000000000000000000000000000000000000000000000000000000000000000000
310
00000000000000000000000000000000000000000000000000000000000000000000000000000000000000000000000000000000000000000000000000000000000000000000000000002A2A000000000000000000000000000000000000000000000000000000000000000000000000000000000000000000000000000000
310
00000000000000000000000000000000000000000000000000000000000000000000000000000000000000000000000000000000000000000000000000000000000000000000000000000000000000000000000000000000000000000000000000000000000000000000000000000000000000000000000000000000000000
310
0000000000000000000000000000000000000000000000000000000000000000000000000000000000002A2A00000000000000000000000000000000000000000000000000000000000000002A2A00000000000000000000000000000000000000000000000000000000000000002A2A2A0000000000000000000000000000
310
00000000000000000000000000000000000000000000000000000000000000000000000000000000000000000000000000000000000000000000000000000000000000000000000000000000000000000000000000000000000000000000000000000000000000000000000000000000000000000000000000000000000000
310
00000000000000000000000000000000000000000000000000000000000000000000000000000000000000002A2A00000000000000000000000000000000000000000000000000000000000000002A2A002A2A2A2A2A00000000000000000000000000000000000000000000000000002A2A2A2A2A2A000000000000000000
310
00000000000000000000000000000000000000000000000000000000000000000000000000000000000000000000000000000000000000000000000000000000000000000000000000000000000000000000000000000000000000000000000000000000000000000000000000000000000000000000000000000000000000
310
000000000000000000000000000000000000000000000000000000000000000000000000000000000000000000002A2A002A2A2A2A2A00000000000000000000000000000000000000000000000000002A2A002A2A2A2A2A2A2A2A2A2A2A2A000000000000000000000000000000000000002A2A2A2A2A2A00000000000000
310
00000000000000000000000000000000000000000000000000000000000000000000000000000000000000000000000000000000000000000000000000000000000000000000000000000000000000000000000000000000000000000000000000000000000000000000000000000000000000000000000000000000000000
310
0000000000000000000000000000000000000000000000000000000000000000000000000000000000000000000000002A2A002A2A2A2A2A2A2A2A2A2A2A2A000000000000000000000000000000000000000000002A2A2A2A2A2A2A2A2A2A2A2A000000000000000000000000000000000000000000002A2A2A2A002A2A2A
310
2A002A00000000000000000000000000000000000000000000000000000000000000000000000000000000000000000000000000000000000000000000000000000000000000000000000000000000000000000000000000000000000000000000000000000000000000000000000000000000000000000000000000000000
310
00000000000000000000000000000000000000000000000000000000000000000000000000000000000000000000000000000000002A2A2A2A2A2A2A2A2A2A2A2A000000000000000000000000000000000000002A2A2A2A2A2A2A2A2A2A2A2A2A2A00000000000000000000000000000000000000002A2A2A2A2A2A2A2A2A
310
2A2A2A2A2A0000000000000000000000000000000000000000000000000000000000000000000000000000000000000000000000000000000000000000000000000000000000000000000000000000000000000000000000000000000000000000000000000000000000000000000000000000000000000000000000000000
310
000000000000000000000000000000000000000000000000000000000000000000000000000000000000000000000000000000002A2A2A2A2A2A2A2A2A2A2A2A2A2A00000000000000000000000000000000000000002A2A2A2A2A2A2A2A2A2A2A2A2A2A00000000000000000000000000000000000000002A2A2A2A2A2A2A
310
2A2A2A2A2A2A2A000000000000000000000000000000000000000000000000000000000000000000000000000000000000000000000000000000000000000000000000000000000000000000000000000000000000000000000000000000000000000000000000000000000000000000000000000000000000000000000000
310
0000000000000000000000000000000000000000000000000000000000000000000000000000000000000000000000000000000000002A2A2A2A2A2A2A2A2A2A2A2A2A2A0000000000000000000000000000000000000000000000000000000000000000000000000000000000000000000000000000000000000000000000
310
00000000000000000000000000000000000000000000000000000000000000000000000000000000000000000000000000000000000000000000000000000000000000000000000000000000000000000000000000000000000000000000000000000000000000000000000000000000000000000000000000000000000000
310
00000000000000000000000000000000000000000000000000000000000000000000000000000000000000000000000000000000000000000000000000000000000000000000000000000000000000000000000000000000000000000000000000000000000000000000000000002A00000000000000000000000000000000
310
00002A0000000000000000000000000000000000002A000000000000000000000000000000000000000000000000000000000000000000000000000000000000000000000000000000000000000000000000000000000000000000000000000000000000000000000000000000000000000000000000000000000000000000
310
00000000000000000000000000000000000000000000000000000000000000000000000000000000000000000000000000000000000000000000000000002A00000000000000000000000000002A0000000000000000000000000000000000002A0000000000000000000000000000002A0000000000000000000000000028
310
282800002A0000282828000000000000000000000000282828000000000000000000000000000000000000000000000000000000000000000000000000000000000000000000000000000000000000000000000000000000000000000000000000000000000000000000000000000000000000000000000000000000000000
310
000000000000000000000000000000000000000000000000000000000000000000000000000000000000000000000000000000000000000000000000000028002A28000000000000000000000000002A0000000000000000000000000000282828282828282828280000000000000000002828280000000000000000000000
310
00282828282828282828282800000000000000000000282828282828280000000000000000000000000000000000000000000000000000000000000000000000000000000000000000000000000000000000000000000000000000000000000000000000000000000000000000000000000000000000000000000000000000
310
000000000000000000000000000000000000000000000000000000000000000000000000000000000000000000000000000000000000000000000000000028282828280028282800000000000000000000280000000000000000000000000000282800002A0000282828000000000000000028282828280000000000000000
310
00000028002800002A00002800280000000000000000000028280028282828000000000000000000000000000000000000000000000000000000000000000000000000000000000000000000000000000000000000000000000000000000000000000000000000000000000000000000000000000000000000000000000000
310
00000000000000000000000000000000000000000000000000000000000000000000000000000000000000000000000000000000000000000000000000000000282828282828282828000000000000000000282A2828000000000000000000000000282800002A0000280028000000000000000028282A0028280000000000
310
000000000028002800002A0000280028000000000000000000280028282A00282828000000000000000000000000000000000000000000000000000000000000000000000000000000000000000000000000000000000000000000000000000000000000000000000000000000000000000000000000000000000000000000
310
000000000000000000000000000000000000000000000000000000000000000000000000000000000000000000000000000000000000000000000000000000000000282800002A002800280000000000000000282828282828000000000000000000002A282828282828282828280000000000002A282A2A2A2A2A28000000
310
0000000000002A282828282828282828282800000000000000002A2828282A2A2A2828282A000000000000000000000000000000000000000000000000000000000000000000000000000000000000000000000000000000000000000000000000000000000000000000000000000000000000000000000000000000000000
310
000000000000000000000000000000000000000000000000000000000000000000000000000000000000000000000000000000000000000000000000000000000000002A2828282828282828282A0000000000002A28282A2828282A0000000000000000000028282828282828280028000000000000002828282A00282800
310
0000000000000000002800282828282828280028000000000000000000280028282A002828280000000000000000000000000000000000000000000000000000000000000000000000000000000000000000000000000000000000000000000000000000000000000000000000000000000000000000000000000000000000
310
00000000000000000000000000000000000000000000000000000000000000000000000000000000000000000000000000000000000000000000000000000000000000000000282828002A2828002800000000000000002828280000280000000000000000000000282828002A002828002800000000000000282800282828
310
280000000000000000000028002828002A0028280028000000000000000000282828002828282800000000000000000000000000000000000000000000000000000000000000000000000000000000000000000000000000000000000000000000000000000000000000000000000000000000000000000000000000000000
310
000000000000000000000000000000000000000000000000000000000000000000000000000000000000000000000000000000000000000000000000000000000000000000000000282828002A2828282800000000000000002828282828280000000000000000000000282828002A00282828280000000000000028282828
310
2828280000000000000000000028282828002A002828282800000000000000000028282828282828280000000000000000000000000000000000000000000000000000000000000000000000000000000000000000000000000000000000000000000000000000000000000000000000000000000000000000000000000000
310
0000000000000000000000000000000000000000000000000000000000000000000000000000000000000000000000000000000000000000000000000000000000000000000000000000282828282A2828280000000000000000002828282828280000000000000000000000282828002A0028282800000000000000002828
310
00280028280000000000000000000028282828002A00282828280000000000000000002800002828280000280000000000000000000000000000000000000000000000000000000000000000000000000000000000000000000000000000000000000000000000000000000000000000000000000000000000000000000000
310
00000000000000000000000000000000000000000000000000000000000000000000000000000000000000000000000000000000000000000000000000000000000000000000000000000000282828002A28282800000000000000002828282828282828000000000000000000002828282828282828280000000000000028
310
282828282828282800000000000000000000282828002A0028282800000000000000000000280028002800280028000000000000000000000000000000000000000000000000000000000000000000000000000000000000000000000000000000000000000000000000000000000000000000000000000000000000000000
310
00000000000000000000000000000000000000000000000000000000000000000000000000000000000000000000000000000000000000000000000000000000000000000000000000000000000000282828282828280000000000000000002828282828280000000000000000000000002800002A00002828000000000000
310
00002800002A00002828000000000000000000282828282828282828282800000000000000000028282828282828282800000000000000000000000000000000000000000000000000000000000000000000000000000000000000000000000000000000000000000000000000000000000000000000000000000000000000
310
000000000000000000000000000000000000000000000000000000000000000000000000000000000000000000000000000000000000000000000000000000000000000000000000000000000000000000282828282828280000000000000000002828282828280000000000000000000000002828282A2828282800000000
310
00000000282828282828282800000000000000000000280000002A0000282800000000000000000000280028002A002800280000000000000000000000000000000000000000000000000000000000000000000000000000000000000000000000000000000000000000000000000000000000000000000000000000000000
310
0000000000000000000000000000000000000000000000000000000000000000000000000000000000000000000000000000000000000000000000000000000000000000000000000000000000000000000000002828282828000000000000000000002828282828000000000000000000000000000028282A282828000000
310
00000000000000282828282800000000000000000000000028282828282828282800000000000000000000282828282828282828000000000000000000000000000000000000000000000000000000000000000000000000000000000000000000000000000000000000000000000000000000000000000000000000000000
310
00000000000000000000000000000000000000000000000000000000000000000000000000000000000000000000000000000000000000000000000000000000000000000000000000000000000000000000000000002828282828000000000000000000000028282828000000000000000000000000002828282A28282800
310
0000000000000000282828282828280000000000000000000000002800282A282800000000000000000000000000002800280028000000000000000000000000000000000000000000000000000000000000000000000000000000000000000000000000000000000000000000000000000000000000000000000000000000
310
00000000000000000000000000000000000000000000000000000000000000000000000000000000000000000000000000000000000000000000000000000000000000000000000000000000000000000000000000000000282828282800000000000000000000002828282800000000000000000000000000002828282828
310
00000000000000000000002828282828000000000000000000000000002828282828280000000000000000000000000000282828282800000000000000000000000000000000000000000000000000000000000000000000000000000000000000000000000000000000000000000000000000000000000000000000000000
310
00000000000000000000000000000000000000000000000000000000000000000000000000000000000000000000000000000000000000000000000000000000000000000000000000000000000000000000000000000000000028282828000000000000000000000000282828280000000000000000000000000000282828
310
28280000000000000000000000282828282800000000000000000000000000282828282828280000000000000000000000002828282828282800000000000000000000000000000000000000000000000000000000000000000000000000000000000000000000000000000000000000000000000000000000000000000000
310
000000000000000000000000000000000000000000000000000000000000000000000000000000000000000000000000000000000000000000000000000000000000000000000000000000000000000000000000000000000000280028002A28282800000000000000002828282A0028002800000000000000000000000000
310
282A2800000000000000000000000000282A2800000000000000000000000000000028282A282800000000000000000000000000002800280028000000000000000000000000000000000000000000000000000000000000000000000000000000000000000000000000000000000000000000000000000000000000000000
310
00000000000000000000000000000000000000000000000000000000000000000000000000000000000000000000000000000000000000000000000000000000000000000000000000000000000000000000000000000000000000282828282828282828282800000000282828282828282828282828000000000000000000
310
2828282A2828002800000000000000002828282A2828280000000000000000000000000028282828280000000000000000000000000000282828282800000000000000000000000000000000000000000000000000000000000000000000000000000000000000000000000000000000000000000000000000000000000000
310
00000000000000000000000000000000000000000000000000000000000000000000000000000000000000000000000000000000000000000000000000000000000000000000000000000000000000000000000000000000000000000028282828282828282828000000000000282828282828282828280000000000000000
310
28282828282A2828282828000000000028282828282A282828282800000000000000000000002828282828000000000000000000000000000028282828280000000000000000000000000000000000000000000000000000000000000000000000000000000000000000000000000000000000000000000000000000000000
310
00000000000000000000000000000000000000000000000000000000000000000000000000000000000000000000000000000000000000000000000000000000000000000000000000000000000000000000000000000000000000000000000000280000280028000000000000000000002800280000280000000000000000
310
000028282828282A2828282828000000000028282828282A28282828280000000000000028282828282828282828282828000000000000282828282828282828282828280000000000000000000000000000000000000000000000000000000000000000000000000000000000000000000000000000000000000000000000
310
00000000000000000000000000000000000000000000000000000000000000000000000000000000000000000000000000000000000000000000000000000000000000000000000000000000000000000000000000000000000000000000000000000000000000000000000000000000000000000000000000000000000000
310
0000000028282828002A2800282828000000000028282828002A2800282828000000000000002828282828282828282828282800000000000028282828282828282828282828000000000000000000000000000000000000000000000000000000000000000000000000000000000000000000000000000000000000000000
310
00000000000000000000000000000000000000000000000000000000000000000000000000000000000000000000000000000000000000000000000000000000000000000000000000000000000000000000000000000000000000000000000000000000000000002A00000000000000000000000000000000000000000000
310
00000000000000000000002A0000000000000000000000000000002A000000000000000000000000002828282828282828282828000000000000000028282828282A28282828280000000000000000000000000000000000000000000000000000000000000000000000000000000000000000000000000000000000000000
310
00000000000000000000000000000000000000000000000000000000000000000000000000000000000000000000000000000000000000000000000000000000000000000000000000000000000000000000000000000000000000000000000000000000000000002828282800000000000000000000000000000000000000
310
00000000000000000000000000000000000000000000000000000000000000000000000000000000000000282828002828000028282800000000000000002828280028282800282828000000000000000000000000000000000000000000000000000000000000000000000000000000000000000000000000000000000000
310
00000000000000000000000000000000000000000000000000000000000000000000000000000000000000000000000000000000000000000000000000000000000000000000000000000000000000000000000000000000000000000000000000000000000000000028282828282800000000000000000000000000000000
310
00000000000000000000000000000000000000000000000000000000000000000000000000000000000000000000000000002A0000000000000000000000000000000000002A000000000000000000000000000000000000000000000000000000000000000000000000000000000000000000000000000000000000000000
310
00000000000000000000000000000000000000000000000000000000000000000000000000000000000000000000000000000000000000000000000000000000000000000000000000000000000000000000000000000000000000000000000000000000000000000000002800282800282800000000000000000000000000
310
00000000000000000000000000000000002A00000000000000000000000000000000000000000000000000000000000000000000000000000000000000000000000000000000000000000000000000000000000000000000000000000000000000000000000000000000000000000000000000000000000000000000000000
310
00000000000000000000000000000000000000000000000000000000000000000000000000000000000000000000000000000000000000000000000000000000000000000000000000000000000000000000000000000000000000000000000000000000000000000000000028282828282828282800000000000000000000
310
00000000000000000000000000000000000028282828000000000000000000000000000000000000000000000000000000000000000000000000000000000000000000000000000000000000000000000000000000000000000000000000000000000000000000000000000000000000000000000000000000000000000000
310
00000000000000000000000000000000000000000000000000000000000000000000000000000000000000000000000000000000000000000000000000000000000000000000000000000000000000000000000000000000000000000000000000000000000000000000000000282828282828282828282800000000000000
310
00000000000000000000000000000000000028282828282828000000000000000000000000000000000000000000000000000000000000000000000000000000000000000000000000000000000000000000000000000000000000000000000000000000000000000000000000000000000000000000000000000000000000
310
00000000000000000000000000000000000000000000000000000000000000000000000000000000000000000000000000000000000000000000000000000000000000000000000000000000000000000000000000000000000000000000000000000000000000000000000000002A28282828282828282828282A00000000
310
000000000000000000000000000000000000002800280028282828282800000000000000000000000000000000000000000000000000000028002A2800000000000000000000000000000000000000000000000000000000000000000000000000000000000000000000000000000000000000000000000000000000000000
310
00000000000000000000000000000000000000000000000000000000000000000000000000000000000000000000000000000000000000000000000000000000000000000000000000000000000000000000000000000000000000000000000000000000000000000000000000000000002828282828282828282828000000
310
00000000000000000000000000000000000000000028282828282828282828000000000000000000000000000000000000000000000000002828282828282828000000000000000000000000000000000000000000000000000000000000000000000000000000000000000000000000000000000000000000000000000000
310
00000000000000000000000000000000000000000000000000000000000000000000000000000000000000000000000000000000000000000000000000000000000000000000000000000000000000000000000000000000000000000000000000000000000000000000000000000000000000282828282828282828282800
310
00000000000000000000000000000000000000000000282828282828282828282800000000000000000000000000000000000000000000000028282800282828282828280000000000000000000000000000000000000000000000000000000000000000000000000000000000000000000000000000000000000000000000
310
00000000000000000000000000000000000000000000000000000000000000000000000000000000000000000000000000000000000000000000000000000000000000000000000000000000000000000000000000000000000000000000000000000000000000000000000000000000000000000000282828282828282828
310
00000000000000000000000000000000000000000000002A28282828282A28282828280000000000000000000000000000000000000000000000282828282828282828282828000000000000000000000000000000000000000000000000000000000000000000000000000000000000000000000000000000000000000000
310
00000000000000000000000000000000000000000000000000000000000000000000000000000000000000000000000000000000000000000000000000000000000000000000000000000000000000000000000000000000000000000000000000000000000000000000000000000000000000000000000000280028280028
310
28000000000000000000000000000000000000000000000000002828282828282828282828000000000000000000000000000000000000000000000028282828282828282828282828000000000000000000000000000000000000000000000000000000000000000000000000000000000000000000000000000000000000
310
00000000000000000000000000000000000000000000000000000000000000000000000000000000000000000000000000000000000000000000000000000000000000000000000000000000000000000000000000000000000000000000000000000000000000000000000000000000000000000000000000000028002828
310
28280000000000000000000000000000000000000000000000000000282828282828282828282800000000000000000000000000000000000000000000282828282828282828282828282800000000000000000000000000000000000000000000000000000000000000000000000000000000000000000000000000000000
310
00000000000000000000000000000000000000000000000000000000000000000000000000000000000000000000000000000000000000000000000000000000000000000000000000000000000000000000000000000000000000000000000000000000000000000000000000000000000000000000000000000000000028
310
2828280000000000000000000000000000000000000000000000000000000028282828282828282828000000000000000000000000000000000000000000002A2828282828282A2828282828280000000000000000000000000000000000000000000000000000000000000000000000000000000000000000000000000000
310
00000000000000000000000000000000000000000000000000000000000000000000000000000000000000000000000000000000000000000000000000000000000000000000000000000000000000000000000000000000000000000000000000000000000000000000000000000000000000000000000000000000000000
310
00000000000000000000000000000000000000000000000000000000000000000000282828282800280000000000000000000000000000000000000000000000000028282828282828282828282828000000000000000000000000000000000000000000000000000000000000000000000000000000000000000000000000
310
00000000000000000000000000000000000000000000000000000000000000000000000000000000000000000000000000000000000000000000000000000000000000000000000000000000000000000000000000000000000000000000000000000000000000000000000000000000000000000000000000000000000000
310
00000000000000000000000000000000000000000000000000000000000000000000000000002828282800000000000000000000000000000000000000000000000000282828002828282A28282800282800000000000000000000000000000000000000000000000000000000000000000000000000000000000000000000
310
00000000000000000000000000000000000000000000000000000000000000000000000000000000000000000000000000000000000000000000000000000000000000000000000000000000000000000000000000000000000000000000000000000000000000000000000000000000000000000000000000000000000000
310
00000000000000000000000000000000000000000000000000000000000000000000000000000000002A00000000000000000000000000000000000000000000000000000000282828282828282828282828280000000000000000000000000000000000000000000000000000000000000000000000000000000000000000
310
00000000000000000000000000000000000000000000000000000000000000000000000000000000000000000000000000000000000000000000000000000000000000000000000000000000000000000000000000000000000000000000000000000000000000000000000000000000000000000000000000000000000000
310
00000000000000000000000000000000000000000000000000000000000000000000000000000000000000000000000000000000000000000000000000000000000000000000000028282828002828280028282800000000000000000000000000000000000000000000000000000000000000000000000000000000000000
310
00000000000000000000000000000000000000000000000000000000000000000000000000000000000000000000000000000000000000000000000000000000000000000000000000000000000000000000000000000000000000000000000000000000000000000000000000000000000000000000000000000000000000
310
00000000000000000000000000000000000000000000000000000000000000000000000000000000000000000000000000000000000000000000000000000000000000000000000000000000002800282828282800000000000000000000000000000000000000000000000000000000000000000000000000000000000000
310
00000000000000000000000000000000000000000000000000000000000000000000000000000000000000000000000000000000000000000000000000000000000000000000000000000000000000000000000000000000000000000000000000000000000000000000000000000000000000000000000000000000000000
310
00000000000000000000000000000000000000000000000000000000000000000000000000000000000000000000000000000000000000000000000000000000000000000000000000000000000028002828282800280000000000000000000000000000000000000000000000000000000000000000000000000000000000
310
00000000000000000000000000000000000000000000000000000000000000000000000000000000000000000000000000000000000000000000000000000000000000000000000000000000000000000000000000000000000000000000000000000000000000000000000000000000000000000000000000000000000000
310
0000000000000000000000000000000000000000000000000000000000000000000000000000000000000000000000000000000000000000000000000000000000000000000000000000000000000000002828002A282800000000000000000000000000000000000000000000000000000000000000000000000000000000
310
00000000000000000000000000000000000000000000000000000000000000000000000000000000000000000000000000000000000000000000000000000000000000000000000000000000000000000000000000000000000000000000000000000000000000000000000000000000000000000000000000000000000000
310
00000000000000000000000000000000000000000000000000000000000000000000000000000000000000000000000000000000000000000000000000000000000000000000000000000000000000000000000000000000000000000000000000000000000000000000000000000000000000000000000000000000000000
310
00000000000000000000000000000000000000000000000000000000000000000000000000000000000000000000000000000000000000000000000000000000000000000000000000000000000000000000000000000000000000000000000000000000000000000000000000000000000000000000000000000000000000
310
00000000000000000000000000000000000000000000000000000000000000000000000000000000000000000000000000000000000000000000000000000000000000000000000000000000000000000000000000000000000000000000000000000000000000000000000000000000000000000000000000000000000000
310
00000000000000000000000000000000000000000000000000000000000000000000000000000000000000000000000000000000000000000000000000000000000000000000000000000000000000000000000000000000000000000000000000000000000000000000000000000000000000000000000000000000000000
310
00000000000000000000000000000000000000000000000000000000000000000000000000000000000000000000000000000000000000000000000000000000000000000000000000000000000000000000000000000000000000000000000000000000000000000000000000000000000000000000000000000000000000
310
00000000000000000000000000000000000000000000000000000000000000000000000000000000000000000000000000000000000000000000000000000000000000000000000000000000000000000000000000000000000000000000000000000000000000000000000000000000000000000000000000000000000000
310
00000000000000000000000000000000000000000000000000000000000000000000000000000000000000000000000000000000000000000000000000000000000000000000000000000000000000000000000000000000000000000000000000000000000000000000000000000000000000000000000000000000000000
310
00000000000000000000000000000000000000000000000000000000000000000000000000000000000000000000000000000000000000000000000000000000000000000000000000000000000000000000000000000000000000000000000000000000000000000000000000000000000000000000000000000000000000
310
00000000000000000000000000000000000000000000000000000000000000000000000000000000000000000000000000000000000000000000000000000000000000000000000000000000000000000000000000000000000000000000000000000000000000000000000000000000000000000000000000000000000000
310
00000000000000000000000000000000000000000000000000000000000000000000000000000000000000000000000000000000000000000000000000000000000000000000000000000000000000000000000000000000000000000000000000000000000000000000000000000000000000000000000000000000000000
310
00000000000000000000000000000000000000000000000000000000000000000000000000000000000000000000000000000000000000000000000000000000000000000000000000000000000000000000000000000000000000000000000000000000000000000000000000000000000000000000000000000000000000
310
00000000000000000000000000000000000000000000000000000000000000000000000000000000000000000000000000000000000000000000000000000000000000000000000000000000000000000000000000000000000000000000000000000000000000000000000000000000000000000000000000000000000000
310
00000000000000000000000000000000000000000000000000000000000000000000000000000000000000000000000000000000000000000000000000000000000000000000000000000000000000000000000000000000000000000000000000000000000000000000000000000000000000000000000000000000000000
310
00000000000000000000000000000000000000000000000000000000000000000000000000000000000000000000000000000000000000000000000000000000000000000000000000000000000000000000000000000000000000000000000000000000000000000000000000000000000000000000000000000000000000
310
00000000000000000000000000000000000000000000000000000000000000000000000000000000000000000000000000000000000000000000000000000000000000000000000000000000000000000000000000000000000000000000000000000000000000000000000000000000000000000000000000000000000000
310
00000000000000000000000000000000000000000000000000000000000000000000000000000000000000000000000000000000000000000000000000000000000000000000000000000000000000000000000000000000000000000000000000000000000000000000000000000000000000000000000000000000000000
310
00000000000000000000000000000000000000000000000000000000000000000000000000000000000000000000000000000000000000000000000000000000000000000000000000000000000000000000000000000000000000000000000000000000000000000000000000000000000000000000000000000000000000
310
00000000000000000000000000000000000000000000000000000000000000000000000000000000000000000000000000000000000000000000000000000000000000000000000000000000000000000000000000000000000000000000000000000000000000000000000000000000000000000000000000000000000000
310
00000000000000000000000000000000000000000000000000000000000000000000000000000000000000000000000000000000000000000000000000000000000000000000000000000000000000000000000000000000000000000000000000000000000000000000000000000000000000000000000000000000000000
310
00000000000000000000000000000000000000000000000000000000000000000000000000000000000000000000000000000000000000000000000000000000000000000000000000000000000000000000000000000000000000000000000000000000000000000000000000000000000000000000000000000000000000
310
00000000000000000000000000000000000000000000000000000000000000000000000000000000000000000000000000000000000000000000000000000000000000000000000000000000000000000000000000000000000000000000000000000000000000000000000000000000000000000000000000000000000000
310
00000000000000000000000000000000000000000000000000000000000000000000000000000000000000000000000000000000000000000000000000000000000000000000000000000000000000000000000000000000000000000000000000000000000000000000000000000000000000000000000000000000000000
310
00000000000000000000000000000000000000000000000000000000000000000000000000000000000000000000000000000000000000000000000000000000000000000000000000000000000000000000000000000000000000000000000000000000000000000000000000000000000000000000000000000000000000
310
00000000000000000000000000000000000000000000000000000000000000000000000000000000000000000000000000000000000000000000000000000000000000000000000000000000000000000000000000000000000000000000000000000000000000000000000000000000000000000000000000000000000000
310
00000000000000000000000000000000000000000000000000000000000000000000000000000000000000000000000000000000000000000000000000000000000000000000000000000000000000000000000000000000000000000000000000000000000000000000000000000000000000000000000000000000000000
310
00000000000000000000000000000000000000000000000000000000000000000000000000000000000000000000000000000000000000000000000000000000000000000000000000000000000000000000000000000000000000000000000000000000000000000000000000000000000000000000000000000000000000
310
00000000000000000000000000000000000000000000000000000000000000000000000000000000000000000000000000000000000000000000000000000000000000000000000000000000000000000000000000000000000000000000000000000000000000000000000000000000000000000000000000000000000000
310
00000000000000000000000000000000000000000000000000000000000000000000000000000000000000000000000000000000000000000000000000000000000000000000000000000000000000000000000000000000000000000000000000000000000000000000000000000000000000000000000000000000000000
310
00000000000000000000000000000000000000000000000000000000000000000000000000000000000000000000000000000000000000000000000000000000000000000000000000000000000000000000000000000000000000000000000000000000000000000000000000000000000000000000000000000000000000
310
00000000000000000000000000000000000000000000000000000000000000000000000000000000000000000000000000000000000000000000000000000000000000000000000000000000000000000000000000000000000000000000000000000000000000000000000000000000000000000000000000000000000000
310
00000000000000000000000000000000000000000000000000000000000000000000000000000000000000000000000000000000000000000000000000000000000000000000000000000000000000000000000000000000000000000000000000000000000000000000000000000000000000000000000000000000000000
310
00000000000000000000000000000000000000000000000000000000000000000000000000000000000000000000000000000000000000000000000000000000000000000000000000000000000000000000000000000000000000000000000000000000000000000000000000000000000000000000000000000000000000
310
00000000000000000000000000000000000000000000000000000000000000000000000000000000000000000000000000000000000000000000000000000000000000000000000000000000000000000000000000000000000000000000000000000000000000000000000000000000000000000000000000000000000000
310
00000000000000000000000000000000000000000000000000000000000000000000000000000000000000000000000000000000000000000000000000000000000000000000000000000000000000000000000000000000000000000000000000000000000000000000000000000000000000000000000000000000000000
310
00000000000000000000000000000000000000000000000000000000000000000000000000000000000000000000000000000000000000000000000000000000000000000000000000000000000000000000000000000000000000000000000000000000000000000000000000000000000000000000000000000000000000
310
00000000000000000000000000000000000000000000000000000000000000000000000000000000000000000000000000000000000000000000000000000000000000000000000000000000000000000000000000000000000000000000000000000000000000000000000000000000000000000000000000000000000000
310
00000000000000000000000000000000000000000000000000000000000000000000000000000000000000000000000000000000000000000000000000000000000000000000000000000000000000000000000000000000000000000000000000000000000000000000000000000000000000000000000000000000000000
310
00000000000000000000000000000000000000000000000000000000000000000000000000000000000000000000000000000000000000000000000000000000000000000000000000000000000000000000000000000000000000000000000000000000000000000000000000000000000000000000000000000000000000
310
00000000000000000000000000000000000000000000000000000000000000000000000000000000000000000000000000000000000000000000000000000000000000000000000000000000000000000000000000000000000000000000000000000000000000000000000000000000000000000000000000000000000000
310
00000000000000000000000000000000000000000000000000000000000000000000000000000000000000000000000000000000000000000000000000000000000000000000000000000000000000000000000000000000000000000000000000000000000000000000000000000000000000000000000000000000000000
310
00000000000000000000000000000000000000000000000000000000000000000000000000000000000000000000000000000000000000000000000000000000000000000000000000000000000000000000000000000000000000000000000000000000000000000000000000000000000000000000000000000000000000
310
00000000000000000000000000000000000000000000000000000000000000000000000000000000000000000000000000000000000000000000000000000000000000000000000000000000000000000000000000000000000000000000000000000000000000000000000000000000000000000000000000000000000000
310
00000000000000000000000000000000000000000000000000000000000000000000000000000000000000000000000000000000000000000000000000000000000000000000000000000000000000000000000000000000000000000000000000000000000000000000000000000000000000000000000000000000000000
310
00000000000000000000000000000000000000000000000000000000000000000000000000000000000000000000000000000000000000000000000000000000000000000000000000000000000000000000000000000000000000000000000000000000000000000000000000000000000000000000000000000000000000
310
00000000000000000000000000000000000000000000000000000000000000000000000000000000000000000000000000000000000000000000000000000000000000000000000000000000000000000000000000000000000000000000000000000000000000000000000000000000000000000000000000000000000000
310
00000000000000000000000000000000000000000000000000000000000000000000000000000000000000000000000000000000000000000000000000000000000000000000000000000000000000000000000000000000000000000000000000000000000000000000000000000000000000000000000000000000000000
310
00000000000000000000000000000000000000000000000000000000000000000000000000000000000000000000000000000000000000000000000000000000000000000000000000000000000000000000000000000000000000000000000000000000000000000000000000000000000000000000000000000000000000
310
00000000000000000000000000000000000000000000000000000000000000000000000000000000000000000000000000000000000000000000000000000000000000000000000000000000000000000000000000000000000000000000000000000000000000000000000000000000000000000000000000000000000000
310
00000000000000000000000000000000000000000000000000000000000000000000000000000000000000000000000000000000000000000000000000000000000000000000000000000000000000000000000000000000000000000000000000000000000000000000000000000000000000000000000000000000000000
310
00000000000000000000000000000000000000000000000000000000000000000000000000000000000000000000000000000000000000000000000000000000000000000000000000000000000000000000000000000000000000000000000000000000000000000000000000000000000000000000000000000000000000
310
00000000000000000000000000000000000000000000000000000000000000000000000000000000000000000000000000000000000000000000000000000000000000000000000000000000000000000000000000000000000000000000000000000000000000000000000000000000000000000000000000000000000000
310
00000000000000000000000000000000000000000000000000000000000000000000000000000000000000000000000000000000000000000000000000000000000000000000000000000000000000000000000000000000000000000000000000000000000000000000000000000000000000000000000000000000000000
310
00000000000000000000000000000000000000000000000000000000000000000000000000000000000000000000000000000000000000000000000000000000000000000000000000000000000000000000000000000000000000000000000000000000000000000000000000000000000000000000000000000000000000
310
00000000000000000000000000000000000000000000000000000000000000000000000000000000000000000000000000000000000000000000000000000000000000000000000000000000000000000000000000000000000000000000000000000000000000000000000000000000000000000000000000000000000000
310
00000000000000000000000000000000000000000000000000000000000000000000000000000000000000000000000000000000000000000000000000000000000000000000000000000000000000000000000000000000000000000000000000000000000000000000000000000000000000000000000000000000000000
310
00000000000000000000000000000000000000000000000000000000000000000000000000000000000000000000000000000000000000000000000000000000000000000000000000000000000000000000000000000000000000000000000000000000000000000000000000000000000000000000000000000000000000
310
00000000000000000000000000000000000000000000000000000000000000000000000000000000000000000000000000000000000000000000000000000000000000000000000000000000000000000000000000000000000000000000000000000000000000000000000000000000000000000000000000000000000000
310
00000000000000000000000000000000000000000000000000000000000000000000000000000000000000000000000000000000000000000000000000000000000000000000000000000000000000000000000000000000000000000000000000000000000000000000000000000000000000000000000000000000000000
310
00000000000000000000000000000000000000000000000000000000000000000000000000000000000000000000000000000000000000000000000000000000000000000000000000000000000000000000000000000000000000000000000000000000000000000000000000000000000000000000000000000000000000
310
00000000000000000000000000000000000000000000000000000000000000000000000000000000000000000000000000000000000000000000000000000000000000000000000000000000000000000000000000000000000000000000000000000000000000000000000000000000000000000000000000000000000000
310
00000000000000000000000000000000000000000000000000000000000000000000000000000000000000000000000000000000000000000000000000000000000000000000000000000000000000000000000000000000000000000000000000000000000000000000000000000000000000000000000000000000000000
310
00000000000000000000000000000000000000000000000000000000000000000000000000000000000000000000000000000000000000000000000000000000000000000000000000000000000000000000000000000000000000000000000000000000000000000000000000000000000000000000000000000000000000
310
00000000000000000000000000000000000000000000000000000000000000000000000000000000000000000000000000000000000000000000000000000000000000000000000000000000000000000000000000000000000000000000000000000000000000000000000000000000000000000000000000000000000000
310
00000000000000000000000000000000000000000000000000000000000000000000000000000000000000000000000000000000000000000000000000000000000000000000000000000000000000000000000000000000000000000000000000000000000000000000000000000000000000000000000000000000000000
310
00000000000000000000000000000000000000000000000000000000000000000000000000000000000000000000000000000000000000000000000000000000000000000000000000000000000000000000000000000000000000000000000000000000000000000000000000000000000000000000000000000000000000
310
00000000000000000000000000000000000000000000000000000000000000000000000000000000000000000000000000000000000000000000000000000000000000000000000000000000000000000000000000000000000000000000000000000000000000000000000000000000000000000000000000000000000000
310
00000000000000000000000000000000000000000000000000000000000000000000000000000000
  0
XRECORD
  5
F169
102
{ACAD_REACTORS
330
F168
102
}
330
F168
100
AcDbXrecord
280
     1
102
DISPLAYNAME
  1
Metric50
102
FLAGS
 90
        0
  0
CELLSTYLEMAP
  5
F132
102
{ACAD_REACTORS
330
3660
102
}
330
3660
100
AcDbCellStyleMap
 90
        3
300
CELLSTYLE
  1
TABLEFORMAT_BEGIN
 90
        5
170
     1
 91
        0
 92
    32768
 62
   257
 93
        1
300
CONTENTFORMAT
  1
CONTENTFORMAT_BEGIN
 90
        0
 91
        0
 92
      512
 93
        0
300

 40
0.0
140
1.0
 94
        5
 62
     0
340
26
144
6.0
309
CONTENTFORMAT_END
171
     1
301
MARGIN
  1
CELLMARGIN_BEGIN
 40
1.5
 40
1.5
 40
1.5
 40
1.5
 40
0.18
 40
0.18
309
CELLMARGIN_END
 94
        6
 95
        1
302
GRIDFORMAT
  1
GRIDFORMAT_BEGIN
 90
        0
 91
        1
 62
     0
 92
       -2
340
0
 93
        0
 40
0.045
309
GRIDFORMAT_END
 95
        2
302
GRIDFORMAT
  1
GRIDFORMAT_BEGIN
 90
        0
 91
        1
 62
     0
 92
       -2
340
0
 93
        0
 40
0.045
309
GRIDFORMAT_END
 95
        4
302
GRIDFORMAT
  1
GRIDFORMAT_BEGIN
 90
        0
 91
        1
 62
     0
 92
       -2
340
0
 93
        0
 40
0.045
309
GRIDFORMAT_END
 95
        8
302
GRIDFORMAT
  1
GRIDFORMAT_BEGIN
 90
        0
 91
        1
 62
     0
 92
       -2
340
0
 93
        0
 40
0.045
309
GRIDFORMAT_END
 95
       16
302
GRIDFORMAT
  1
GRIDFORMAT_BEGIN
 90
        0
 91
        1
 62
     0
 92
       -2
340
0
 93
        0
 40
0.045
309
GRIDFORMAT_END
 95
       32
302
GRIDFORMAT
  1
GRIDFORMAT_BEGIN
 90
        0
 91
        1
 62
     0
 92
       -2
340
0
 93
        0
 40
0.045
309
GRIDFORMAT_END
309
TABLEFORMAT_END
  1
CELLSTYLE_BEGIN
 90
        1
 91
        1
300
_TITLE
309
CELLSTYLE_END
300
CELLSTYLE
  1
TABLEFORMAT_BEGIN
 90
        5
170
     1
 91
        0
 92
        0
 62
   257
 93
        1
300
CONTENTFORMAT
  1
CONTENTFORMAT_BEGIN
 90
        0
 91
        0
 92
      512
 93
        0
300

 40
0.0
140
1.0
 94
        5
 62
     0
340
26
144
4.5
309
CONTENTFORMAT_END
171
     1
301
MARGIN
  1
CELLMARGIN_BEGIN
 40
1.5
 40
1.5
 40
1.5
 40
1.5
 40
0.18
 40
0.18
309
CELLMARGIN_END
 94
        6
 95
        1
302
GRIDFORMAT
  1
GRIDFORMAT_BEGIN
 90
        0
 91
        1
 62
     0
 92
       -2
340
0
 93
        0
 40
0.045
309
GRIDFORMAT_END
 95
        2
302
GRIDFORMAT
  1
GRIDFORMAT_BEGIN
 90
        0
 91
        1
 62
     0
 92
       -2
340
0
 93
        0
 40
0.045
309
GRIDFORMAT_END
 95
        4
302
GRIDFORMAT
  1
GRIDFORMAT_BEGIN
 90
        0
 91
        1
 62
     0
 92
       -2
340
0
 93
        0
 40
0.045
309
GRIDFORMAT_END
 95
        8
302
GRIDFORMAT
  1
GRIDFORMAT_BEGIN
 90
        0
 91
        1
 62
     0
 92
       -2
340
0
 93
        0
 40
0.045
309
GRIDFORMAT_END
 95
       16
302
GRIDFORMAT
  1
GRIDFORMAT_BEGIN
 90
        0
 91
        1
 62
     0
 92
       -2
340
0
 93
        0
 40
0.045
309
GRIDFORMAT_END
 95
       32
302
GRIDFORMAT
  1
GRIDFORMAT_BEGIN
 90
        0
 91
        1
 62
     0
 92
       -2
340
0
 93
        0
 40
0.045
309
GRIDFORMAT_END
309
TABLEFORMAT_END
  1
CELLSTYLE_BEGIN
 90
        2
 91
        1
300
_HEADER
309
CELLSTYLE_END
300
CELLSTYLE
  1
TABLEFORMAT_BEGIN
 90
        5
170
     1
 91
        0
 92
        0
 62
   257
 93
        1
300
CONTENTFORMAT
  1
CONTENTFORMAT_BEGIN
 90
        0
 91
        0
 92
      512
 93
        0
300

 40
0.0
140
1.0
 94
        2
 62
     0
340
26
144
4.5
309
CONTENTFORMAT_END
171
     1
301
MARGIN
  1
CELLMARGIN_BEGIN
 40
1.5
 40
1.5
 40
1.5
 40
1.5
 40
0.18
 40
0.18
309
CELLMARGIN_END
 94
        6
 95
        1
302
GRIDFORMAT
  1
GRIDFORMAT_BEGIN
 90
        0
 91
        1
 62
     0
 92
       -2
340
0
 93
        0
 40
0.045
309
GRIDFORMAT_END
 95
        2
302
GRIDFORMAT
  1
GRIDFORMAT_BEGIN
 90
        0
 91
        1
 62
     0
 92
       -2
340
0
 93
        0
 40
0.045
309
GRIDFORMAT_END
 95
        4
302
GRIDFORMAT
  1
GRIDFORMAT_BEGIN
 90
        0
 91
        1
 62
     0
 92
       -2
340
0
 93
        0
 40
0.045
309
GRIDFORMAT_END
 95
        8
302
GRIDFORMAT
  1
GRIDFORMAT_BEGIN
 90
        0
 91
        1
 62
     0
 92
       -2
340
0
 93
        0
 40
0.045
309
GRIDFORMAT_END
 95
       16
302
GRIDFORMAT
  1
GRIDFORMAT_BEGIN
 90
        0
 91
        1
 62
     0
 92
       -2
340
0
 93
        0
 40
0.045
309
GRIDFORMAT_END
 95
       32
302
GRIDFORMAT
  1
GRIDFORMAT_BEGIN
 90
        0
 91
        1
 62
     0
 92
       -2
340
0
 93
        0
 40
0.045
309
GRIDFORMAT_END
309
TABLEFORMAT_END
  1
CELLSTYLE_BEGIN
 90
        3
 91
        2
300
_DATA
309
CELLSTYLE_END
  0
XRECORD
  5
F13F
102
{ACAD_REACTORS
330
F13E
102
}
330
F13E
100
AcDbXrecord
280
     1
102
RTVSPost2010Prop28
280
     1
102
RTVSPost2010PropOp28
 70
     1
102
RTVSPost2010Prop29
280
     1
102
RTVSPost2010PropOp29
 70
     1
102
RTVSPost2010Prop30
280
     0
102
RTVSPost2010PropOp30
 70
     1
102
RTVSPost2010Prop31
280
     0
102
RTVSPost2010PropOp31
 70
     1
102
RTVSPost2010Prop32
280
     0
102
RTVSPost2010PropOp32
 70
     1
102
RTVSPost2010Prop33
280
     0
102
RTVSPost2010PropOp33
 70
     1
102
RTVSPost2010Prop34
280
     0
102
RTVSPost2010PropOp34
 70
     1
102
RTVSPost2010Prop35
280
     0
102
RTVSPost2010PropOp35
 70
     1
102
RTVSPost2010Prop36
280
     0
102
RTVSPost2010PropOp36
 70
     1
102
RTVSPost2010Prop37
 90
       50
102
RTVSPost2010PropOp37
 70
     1
102
RTVSPost2010Prop38
140
0.0
102
RTVSPost2010PropOp38
 70
     1
102
RTVSPost2010Prop39
140
1.0
102
RTVSPost2010PropOp39
 70
     1
102
RTVSPost2010Prop40
 90
        0
102
RTVSPost2010PropOp40
 70
     1
102
RTVSPost2010Prop41ColorIndex
 90
       18
102
RTVSPost2010Prop41ColorRGB
 90
        0
102
RTVSPost2010PropOp41
 70
     1
102
RTVSPost2010Prop42
 90
       50
102
RTVSPost2010PropOp42
 70
     1
102
RTVSPost2010Prop43
 90
        3
102
RTVSPost2010PropOp43
 70
     1
102
RTVSPost2010Prop44ColorIndex
 90
        5
102
RTVSPost2010Prop44ColorRGB
 90
      255
102
RTVSPost2010PropOp44
 70
     1
102
RTVSPost2010Prop45
280
     0
102
RTVSPost2010PropOp45
 70
     1
102
RTVSPost2010Prop46
 90
       50
102
RTVSPost2010PropOp46
 70
     1
102
RTVSPost2010Prop47
 90
       50
102
RTVSPost2010PropOp47
 70
     1
102
RTVSPost2010Prop48
 90
       50
102
RTVSPost2010PropOp48
 70
     1
102
RTVSPost2010Prop49
280
     0
102
RTVSPost2010PropOp49
 70
     1
102
RTVSPost2010Prop50
 90
       50
102
RTVSPost2010PropOp50
 70
     1
102
RTVSPost2010Prop51ColorIndex
 90
      256
102
RTVSPost2010Prop51ColorRGB
 90
-16777216
102
RTVSPost2010PropOp51
 70
     0
102
RTVSPost2010Prop52
140
1.0
102
RTVSPost2010PropOp52
 70
     0
102
RTVSPost2010Prop53
 90
        2
102
RTVSPost2010PropOp53
 70
     1
102
RTVSPost2010Prop54
  1
strokes_ogs.tif
102
RTVSPost2010PropOp54
 70
     1
102
RTVSPost2010Prop55
280
     0
102
RTVSPost2010PropOp55
 70
     1
102
RTVSPost2010Prop56
140
1.0
102
RTVSPost2010PropOp56
 70
     1
102
RTVSPost2010Prop57
140
1.0
102
RTVSPost2010PropOp57
 70
     1
  0
XRECORD
  5
F143
102
{ACAD_REACTORS
330
F142
102
}
330
F142
100
AcDbXrecord
280
     1
102
RTVSPost2010Prop28
280
     0
102
RTVSPost2010PropOp28
 70
     1
102
RTVSPost2010Prop29
280
     1
102
RTVSPost2010PropOp29
 70
     1
102
RTVSPost2010Prop30
280
     1
102
RTVSPost2010PropOp30
 70
     1
102
RTVSPost2010Prop31
280
     0
102
RTVSPost2010PropOp31
 70
     1
102
RTVSPost2010Prop32
280
     0
102
RTVSPost2010PropOp32
 70
     1
102
RTVSPost2010Prop33
280
     0
102
RTVSPost2010PropOp33
 70
     1
102
RTVSPost2010Prop34
280
     0
102
RTVSPost2010PropOp34
 70
     1
102
RTVSPost2010Prop35
280
     0
102
RTVSPost2010PropOp35
 70
     1
102
RTVSPost2010Prop36
280
     0
102
RTVSPost2010PropOp36
 70
     1
102
RTVSPost2010Prop37
 90
       50
102
RTVSPost2010PropOp37
 70
     1
102
RTVSPost2010Prop38
140
0.0
102
RTVSPost2010PropOp38
 70
     1
102
RTVSPost2010Prop39
140
1.0
102
RTVSPost2010PropOp39
 70
     1
102
RTVSPost2010Prop40
 90
        0
102
RTVSPost2010PropOp40
 70
     1
102
RTVSPost2010Prop41ColorIndex
 90
       18
102
RTVSPost2010Prop41ColorRGB
 90
        0
102
RTVSPost2010PropOp41
 70
     1
102
RTVSPost2010Prop42
 90
       50
102
RTVSPost2010PropOp42
 70
     1
102
RTVSPost2010Prop43
 90
        3
102
RTVSPost2010PropOp43
 70
     1
102
RTVSPost2010Prop44ColorIndex
 90
        5
102
RTVSPost2010Prop44ColorRGB
 90
      255
102
RTVSPost2010PropOp44
 70
     1
102
RTVSPost2010Prop45
280
     0
102
RTVSPost2010PropOp45
 70
     1
102
RTVSPost2010Prop46
 90
       50
102
RTVSPost2010PropOp46
 70
     1
102
RTVSPost2010Prop47
 90
       50
102
RTVSPost2010PropOp47
 70
     1
102
RTVSPost2010Prop48
 90
       50
102
RTVSPost2010PropOp48
 70
     1
102
RTVSPost2010Prop49
280
     0
102
RTVSPost2010PropOp49
 70
     1
102
RTVSPost2010Prop50
 90
       50
102
RTVSPost2010PropOp50
 70
     1
102
RTVSPost2010Prop51ColorIndex
 90
      256
102
RTVSPost2010Prop51ColorRGB
 90
-16777216
102
RTVSPost2010PropOp51
 70
     0
102
RTVSPost2010Prop52
140
1.0
102
RTVSPost2010PropOp52
 70
     0
102
RTVSPost2010Prop53
 90
        2
102
RTVSPost2010PropOp53
 70
     1
102
RTVSPost2010Prop54
  1
strokes_ogs.tif
102
RTVSPost2010PropOp54
 70
     1
102
RTVSPost2010Prop55
280
     0
102
RTVSPost2010PropOp55
 70
     1
102
RTVSPost2010Prop56
140
1.0
102
RTVSPost2010PropOp56
 70
     1
102
RTVSPost2010Prop57
140
1.0
102
RTVSPost2010PropOp57
 70
     1
  0
XRECORD
  5
F141
102
{ACAD_REACTORS
330
F140
102
}
330
F140
100
AcDbXrecord
280
     1
102
RTVSPost2010Prop28
280
     0
102
RTVSPost2010PropOp28
 70
     1
102
RTVSPost2010Prop29
280
     1
102
RTVSPost2010PropOp29
 70
     1
102
RTVSPost2010Prop30
280
     1
102
RTVSPost2010PropOp30
 70
     1
102
RTVSPost2010Prop31
280
     0
102
RTVSPost2010PropOp31
 70
     1
102
RTVSPost2010Prop32
280
     0
102
RTVSPost2010PropOp32
 70
     1
102
RTVSPost2010Prop33
280
     0
102
RTVSPost2010PropOp33
 70
     1
102
RTVSPost2010Prop34
280
     0
102
RTVSPost2010PropOp34
 70
     1
102
RTVSPost2010Prop35
280
     0
102
RTVSPost2010PropOp35
 70
     1
102
RTVSPost2010Prop36
280
     0
102
RTVSPost2010PropOp36
 70
     1
102
RTVSPost2010Prop37
 90
       50
102
RTVSPost2010PropOp37
 70
     1
102
RTVSPost2010Prop38
140
0.0
102
RTVSPost2010PropOp38
 70
     1
102
RTVSPost2010Prop39
140
1.0
102
RTVSPost2010PropOp39
 70
     1
102
RTVSPost2010Prop40
 90
        0
102
RTVSPost2010PropOp40
 70
     1
102
RTVSPost2010Prop41ColorIndex
 90
       18
102
RTVSPost2010Prop41ColorRGB
 90
        0
102
RTVSPost2010PropOp41
 70
     1
102
RTVSPost2010Prop42
 90
       50
102
RTVSPost2010PropOp42
 70
     1
102
RTVSPost2010Prop43
 90
        3
102
RTVSPost2010PropOp43
 70
     1
102
RTVSPost2010Prop44ColorIndex
 90
        5
102
RTVSPost2010Prop44ColorRGB
 90
      255
102
RTVSPost2010PropOp44
 70
     1
102
RTVSPost2010Prop45
280
     0
102
RTVSPost2010PropOp45
 70
     1
102
RTVSPost2010Prop46
 90
       50
102
RTVSPost2010PropOp46
 70
     1
102
RTVSPost2010Prop47
 90
       50
102
RTVSPost2010PropOp47
 70
     1
102
RTVSPost2010Prop48
 90
       50
102
RTVSPost2010PropOp48
 70
     1
102
RTVSPost2010Prop49
280
     0
102
RTVSPost2010PropOp49
 70
     1
102
RTVSPost2010Prop50
 90
       50
102
RTVSPost2010PropOp50
 70
     1
102
RTVSPost2010Prop51ColorIndex
 90
      256
102
RTVSPost2010Prop51ColorRGB
 90
-16777216
102
RTVSPost2010PropOp51
 70
     0
102
RTVSPost2010Prop52
140
1.0
102
RTVSPost2010PropOp52
 70
     0
102
RTVSPost2010Prop53
 90
        2
102
RTVSPost2010PropOp53
 70
     1
102
RTVSPost2010Prop54
  1
strokes_ogs.tif
102
RTVSPost2010PropOp54
 70
     1
102
RTVSPost2010Prop55
280
     0
102
RTVSPost2010PropOp55
 70
     1
102
RTVSPost2010Prop56
140
1.0
102
RTVSPost2010PropOp56
 70
     1
102
RTVSPost2010Prop57
140
1.0
102
RTVSPost2010PropOp57
 70
     1
  0
XRECORD
  5
F13D
102
{ACAD_REACTORS
330
F13C
102
}
330
F13C
100
AcDbXrecord
280
     1
102
RTVSPost2010Prop28
280
     0
102
RTVSPost2010PropOp28
 70
     1
102
RTVSPost2010Prop29
280
     1
102
RTVSPost2010PropOp29
 70
     1
102
RTVSPost2010Prop30
280
     1
102
RTVSPost2010PropOp30
 70
     1
102
RTVSPost2010Prop31
280
     0
102
RTVSPost2010PropOp31
 70
     1
102
RTVSPost2010Prop32
280
     0
102
RTVSPost2010PropOp32
 70
     1
102
RTVSPost2010Prop33
280
     0
102
RTVSPost2010PropOp33
 70
     1
102
RTVSPost2010Prop34
280
     0
102
RTVSPost2010PropOp34
 70
     1
102
RTVSPost2010Prop35
280
     0
102
RTVSPost2010PropOp35
 70
     1
102
RTVSPost2010Prop36
280
     0
102
RTVSPost2010PropOp36
 70
     1
102
RTVSPost2010Prop37
 90
       50
102
RTVSPost2010PropOp37
 70
     1
102
RTVSPost2010Prop38
140
0.0
102
RTVSPost2010PropOp38
 70
     1
102
RTVSPost2010Prop39
140
1.0
102
RTVSPost2010PropOp39
 70
     1
102
RTVSPost2010Prop40
 90
        0
102
RTVSPost2010PropOp40
 70
     1
102
RTVSPost2010Prop41ColorIndex
 90
       18
102
RTVSPost2010Prop41ColorRGB
 90
        0
102
RTVSPost2010PropOp41
 70
     1
102
RTVSPost2010Prop42
 90
       50
102
RTVSPost2010PropOp42
 70
     1
102
RTVSPost2010Prop43
 90
        3
102
RTVSPost2010PropOp43
 70
     1
102
RTVSPost2010Prop44ColorIndex
 90
        5
102
RTVSPost2010Prop44ColorRGB
 90
      255
102
RTVSPost2010PropOp44
 70
     1
102
RTVSPost2010Prop45
280
     0
102
RTVSPost2010PropOp45
 70
     1
102
RTVSPost2010Prop46
 90
       50
102
RTVSPost2010PropOp46
 70
     1
102
RTVSPost2010Prop47
 90
       50
102
RTVSPost2010PropOp47
 70
     1
102
RTVSPost2010Prop48
 90
       50
102
RTVSPost2010PropOp48
 70
     1
102
RTVSPost2010Prop49
280
     0
102
RTVSPost2010PropOp49
 70
     1
102
RTVSPost2010Prop50
 90
       50
102
RTVSPost2010PropOp50
 70
     1
102
RTVSPost2010Prop51ColorIndex
 90
      256
102
RTVSPost2010Prop51ColorRGB
 90
-16777216
102
RTVSPost2010PropOp51
 70
     0
102
RTVSPost2010Prop52
140
1.0
102
RTVSPost2010PropOp52
 70
     0
102
RTVSPost2010Prop53
 90
        2
102
RTVSPost2010PropOp53
 70
     1
102
RTVSPost2010Prop54
  1
strokes_ogs.tif
102
RTVSPost2010PropOp54
 70
     1
102
RTVSPost2010Prop55
280
     0
102
RTVSPost2010PropOp55
 70
     1
102
RTVSPost2010Prop56
140
1.0
102
RTVSPost2010PropOp56
 70
     1
102
RTVSPost2010Prop57
140
1.0
102
RTVSPost2010PropOp57
 70
     1
  0
XRECORD
  5
F14B
102
{ACAD_REACTORS
330
F14A
102
}
330
F14A
100
AcDbXrecord
280
     1
102
RTVSPost2010Prop28
280
     0
102
RTVSPost2010PropOp28
 70
     1
102
RTVSPost2010Prop29
280
     1
102
RTVSPost2010PropOp29
 70
     1
102
RTVSPost2010Prop30
280
     1
102
RTVSPost2010PropOp30
 70
     1
102
RTVSPost2010Prop31
280
     0
102
RTVSPost2010PropOp31
 70
     1
102
RTVSPost2010Prop32
280
     0
102
RTVSPost2010PropOp32
 70
     1
102
RTVSPost2010Prop33
280
     0
102
RTVSPost2010PropOp33
 70
     1
102
RTVSPost2010Prop34
280
     0
102
RTVSPost2010PropOp34
 70
     1
102
RTVSPost2010Prop35
280
     0
102
RTVSPost2010PropOp35
 70
     1
102
RTVSPost2010Prop36
280
     0
102
RTVSPost2010PropOp36
 70
     1
102
RTVSPost2010Prop37
 90
       50
102
RTVSPost2010PropOp37
 70
     1
102
RTVSPost2010Prop38
140
0.0
102
RTVSPost2010PropOp38
 70
     1
102
RTVSPost2010Prop39
140
1.0
102
RTVSPost2010PropOp39
 70
     1
102
RTVSPost2010Prop40
 90
        0
102
RTVSPost2010PropOp40
 70
     1
102
RTVSPost2010Prop41ColorIndex
 90
       18
102
RTVSPost2010Prop41ColorRGB
 90
        0
102
RTVSPost2010PropOp41
 70
     1
102
RTVSPost2010Prop42
 90
       50
102
RTVSPost2010PropOp42
 70
     1
102
RTVSPost2010Prop43
 90
        3
102
RTVSPost2010PropOp43
 70
     1
102
RTVSPost2010Prop44ColorIndex
 90
        5
102
RTVSPost2010Prop44ColorRGB
 90
      255
102
RTVSPost2010PropOp44
 70
     1
102
RTVSPost2010Prop45
280
     0
102
RTVSPost2010PropOp45
 70
     1
102
RTVSPost2010Prop46
 90
       50
102
RTVSPost2010PropOp46
 70
     1
102
RTVSPost2010Prop47
 90
       50
102
RTVSPost2010PropOp47
 70
     1
102
RTVSPost2010Prop48
 90
       50
102
RTVSPost2010PropOp48
 70
     1
102
RTVSPost2010Prop49
280
     0
102
RTVSPost2010PropOp49
 70
     1
102
RTVSPost2010Prop50
 90
       50
102
RTVSPost2010PropOp50
 70
     1
102
RTVSPost2010Prop51ColorIndex
 90
      256
102
RTVSPost2010Prop51ColorRGB
 90
-16777216
102
RTVSPost2010PropOp51
 70
     0
102
RTVSPost2010Prop52
140
1.0
102
RTVSPost2010PropOp52
 70
     0
102
RTVSPost2010Prop53
 90
        2
102
RTVSPost2010PropOp53
 70
     1
102
RTVSPost2010Prop54
  1
strokes_ogs.tif
102
RTVSPost2010PropOp54
 70
     1
102
RTVSPost2010Prop55
280
     0
102
RTVSPost2010PropOp55
 70
     1
102
RTVSPost2010Prop56
140
1.0
102
RTVSPost2010PropOp56
 70
     1
102
RTVSPost2010Prop57
140
1.0
102
RTVSPost2010PropOp57
 70
     1
  0
XRECORD
  5
F153
102
{ACAD_REACTORS
330
F152
102
}
330
F152
100
AcDbXrecord
280
     1
102
RTVSPost2010Prop28
280
     0
102
RTVSPost2010PropOp28
 70
     1
102
RTVSPost2010Prop29
280
     1
102
RTVSPost2010PropOp29
 70
     1
102
RTVSPost2010Prop30
280
     1
102
RTVSPost2010PropOp30
 70
     1
102
RTVSPost2010Prop31
280
     0
102
RTVSPost2010PropOp31
 70
     1
102
RTVSPost2010Prop32
280
     0
102
RTVSPost2010PropOp32
 70
     1
102
RTVSPost2010Prop33
280
     0
102
RTVSPost2010PropOp33
 70
     1
102
RTVSPost2010Prop34
280
     0
102
RTVSPost2010PropOp34
 70
     1
102
RTVSPost2010Prop35
280
     0
102
RTVSPost2010PropOp35
 70
     1
102
RTVSPost2010Prop36
280
     0
102
RTVSPost2010PropOp36
 70
     1
102
RTVSPost2010Prop37
 90
       50
102
RTVSPost2010PropOp37
 70
     1
102
RTVSPost2010Prop38
140
0.0
102
RTVSPost2010PropOp38
 70
     1
102
RTVSPost2010Prop39
140
1.0
102
RTVSPost2010PropOp39
 70
     1
102
RTVSPost2010Prop40
 90
        0
102
RTVSPost2010PropOp40
 70
     1
102
RTVSPost2010Prop41ColorIndex
 90
       18
102
RTVSPost2010Prop41ColorRGB
 90
        0
102
RTVSPost2010PropOp41
 70
     1
102
RTVSPost2010Prop42
 90
       50
102
RTVSPost2010PropOp42
 70
     1
102
RTVSPost2010Prop43
 90
        3
102
RTVSPost2010PropOp43
 70
     1
102
RTVSPost2010Prop44ColorIndex
 90
        5
102
RTVSPost2010Prop44ColorRGB
 90
      255
102
RTVSPost2010PropOp44
 70
     1
102
RTVSPost2010Prop45
280
     0
102
RTVSPost2010PropOp45
 70
     1
102
RTVSPost2010Prop46
 90
       50
102
RTVSPost2010PropOp46
 70
     1
102
RTVSPost2010Prop47
 90
       50
102
RTVSPost2010PropOp47
 70
     1
102
RTVSPost2010Prop48
 90
       50
102
RTVSPost2010PropOp48
 70
     1
102
RTVSPost2010Prop49
280
     0
102
RTVSPost2010PropOp49
 70
     1
102
RTVSPost2010Prop50
 90
       50
102
RTVSPost2010PropOp50
 70
     1
102
RTVSPost2010Prop51ColorIndex
 90
      256
102
RTVSPost2010Prop51ColorRGB
 90
-16777216
102
RTVSPost2010PropOp51
 70
     0
102
RTVSPost2010Prop52
140
1.0
102
RTVSPost2010PropOp52
 70
     0
102
RTVSPost2010Prop53
 90
        2
102
RTVSPost2010PropOp53
 70
     1
102
RTVSPost2010Prop54
  1
strokes_ogs.tif
102
RTVSPost2010PropOp54
 70
     1
102
RTVSPost2010Prop55
280
     0
102
RTVSPost2010PropOp55
 70
     1
102
RTVSPost2010Prop56
140
1.0
102
RTVSPost2010PropOp56
 70
     1
102
RTVSPost2010Prop57
140
1.0
102
RTVSPost2010PropOp57
 70
     1
  0
XRECORD
  5
F145
102
{ACAD_REACTORS
330
F144
102
}
330
F144
100
AcDbXrecord
280
     1
102
RTVSPost2010Prop28
280
     0
102
RTVSPost2010PropOp28
 70
     1
102
RTVSPost2010Prop29
280
     1
102
RTVSPost2010PropOp29
 70
     1
102
RTVSPost2010Prop30
280
     1
102
RTVSPost2010PropOp30
 70
     1
102
RTVSPost2010Prop31
280
     0
102
RTVSPost2010PropOp31
 70
     1
102
RTVSPost2010Prop32
280
     0
102
RTVSPost2010PropOp32
 70
     1
102
RTVSPost2010Prop33
280
     0
102
RTVSPost2010PropOp33
 70
     1
102
RTVSPost2010Prop34
280
     0
102
RTVSPost2010PropOp34
 70
     1
102
RTVSPost2010Prop35
280
     0
102
RTVSPost2010PropOp35
 70
     1
102
RTVSPost2010Prop36
280
     0
102
RTVSPost2010PropOp36
 70
     1
102
RTVSPost2010Prop37
 90
       50
102
RTVSPost2010PropOp37
 70
     1
102
RTVSPost2010Prop38
140
0.0
102
RTVSPost2010PropOp38
 70
     1
102
RTVSPost2010Prop39
140
1.0
102
RTVSPost2010PropOp39
 70
     1
102
RTVSPost2010Prop40
 90
        0
102
RTVSPost2010PropOp40
 70
     1
102
RTVSPost2010Prop41ColorIndex
 90
       18
102
RTVSPost2010Prop41ColorRGB
 90
        0
102
RTVSPost2010PropOp41
 70
     1
102
RTVSPost2010Prop42
 90
       50
102
RTVSPost2010PropOp42
 70
     1
102
RTVSPost2010Prop43
 90
        3
102
RTVSPost2010PropOp43
 70
     1
102
RTVSPost2010Prop44ColorIndex
 90
        5
102
RTVSPost2010Prop44ColorRGB
 90
      255
102
RTVSPost2010PropOp44
 70
     1
102
RTVSPost2010Prop45
280
     0
102
RTVSPost2010PropOp45
 70
     1
102
RTVSPost2010Prop46
 90
       50
102
RTVSPost2010PropOp46
 70
     1
102
RTVSPost2010Prop47
 90
       50
102
RTVSPost2010PropOp47
 70
     1
102
RTVSPost2010Prop48
 90
       50
102
RTVSPost2010PropOp48
 70
     1
102
RTVSPost2010Prop49
280
     0
102
RTVSPost2010PropOp49
 70
     1
102
RTVSPost2010Prop50
 90
       50
102
RTVSPost2010PropOp50
 70
     1
102
RTVSPost2010Prop51ColorIndex
 90
      256
102
RTVSPost2010Prop51ColorRGB
 90
-16777216
102
RTVSPost2010PropOp51
 70
     0
102
RTVSPost2010Prop52
140
1.0
102
RTVSPost2010PropOp52
 70
     0
102
RTVSPost2010Prop53
 90
        2
102
RTVSPost2010PropOp53
 70
     1
102
RTVSPost2010Prop54
  1
strokes_ogs.tif
102
RTVSPost2010PropOp54
 70
     1
102
RTVSPost2010Prop55
280
     0
102
RTVSPost2010PropOp55
 70
     1
102
RTVSPost2010Prop56
140
1.0
102
RTVSPost2010PropOp56
 70
     1
102
RTVSPost2010Prop57
140
1.0
102
RTVSPost2010PropOp57
 70
     1
  0
XRECORD
  5
F149
102
{ACAD_REACTORS
330
F148
102
}
330
F148
100
AcDbXrecord
280
     1
102
RTVSPost2010Prop28
280
     0
102
RTVSPost2010PropOp28
 70
     1
102
RTVSPost2010Prop29
280
     1
102
RTVSPost2010PropOp29
 70
     1
102
RTVSPost2010Prop30
280
     1
102
RTVSPost2010PropOp30
 70
     1
102
RTVSPost2010Prop31
280
     0
102
RTVSPost2010PropOp31
 70
     1
102
RTVSPost2010Prop32
280
     0
102
RTVSPost2010PropOp32
 70
     1
102
RTVSPost2010Prop33
280
     0
102
RTVSPost2010PropOp33
 70
     1
102
RTVSPost2010Prop34
280
     0
102
RTVSPost2010PropOp34
 70
     1
102
RTVSPost2010Prop35
280
     0
102
RTVSPost2010PropOp35
 70
     1
102
RTVSPost2010Prop36
280
     0
102
RTVSPost2010PropOp36
 70
     1
102
RTVSPost2010Prop37
 90
       50
102
RTVSPost2010PropOp37
 70
     1
102
RTVSPost2010Prop38
140
0.0
102
RTVSPost2010PropOp38
 70
     1
102
RTVSPost2010Prop39
140
1.0
102
RTVSPost2010PropOp39
 70
     1
102
RTVSPost2010Prop40
 90
        0
102
RTVSPost2010PropOp40
 70
     1
102
RTVSPost2010Prop41ColorIndex
 90
       18
102
RTVSPost2010Prop41ColorRGB
 90
        0
102
RTVSPost2010PropOp41
 70
     1
102
RTVSPost2010Prop42
 90
       50
102
RTVSPost2010PropOp42
 70
     1
102
RTVSPost2010Prop43
 90
        3
102
RTVSPost2010PropOp43
 70
     1
102
RTVSPost2010Prop44ColorIndex
 90
        5
102
RTVSPost2010Prop44ColorRGB
 90
      255
102
RTVSPost2010PropOp44
 70
     1
102
RTVSPost2010Prop45
280
     0
102
RTVSPost2010PropOp45
 70
     1
102
RTVSPost2010Prop46
 90
       50
102
RTVSPost2010PropOp46
 70
     1
102
RTVSPost2010Prop47
 90
       50
102
RTVSPost2010PropOp47
 70
     1
102
RTVSPost2010Prop48
 90
       50
102
RTVSPost2010PropOp48
 70
     1
102
RTVSPost2010Prop49
280
     0
102
RTVSPost2010PropOp49
 70
     1
102
RTVSPost2010Prop50
 90
       50
102
RTVSPost2010PropOp50
 70
     1
102
RTVSPost2010Prop51ColorIndex
 90
      256
102
RTVSPost2010Prop51ColorRGB
 90
-16777216
102
RTVSPost2010PropOp51
 70
     0
102
RTVSPost2010Prop52
140
1.0
102
RTVSPost2010PropOp52
 70
     0
102
RTVSPost2010Prop53
 90
        2
102
RTVSPost2010PropOp53
 70
     1
102
RTVSPost2010Prop54
  1
strokes_ogs.tif
102
RTVSPost2010PropOp54
 70
     1
102
RTVSPost2010Prop55
280
     0
102
RTVSPost2010PropOp55
 70
     1
102
RTVSPost2010Prop56
140
1.0
102
RTVSPost2010PropOp56
 70
     1
102
RTVSPost2010Prop57
140
1.0
102
RTVSPost2010PropOp57
 70
     1
  0
XRECORD
  5
F159
102
{ACAD_REACTORS
330
F158
102
}
330
F158
100
AcDbXrecord
280
     1
102
RTVSPost2010Prop28
280
     0
102
RTVSPost2010PropOp28
 70
     1
102
RTVSPost2010Prop29
280
     1
102
RTVSPost2010PropOp29
 70
     1
102
RTVSPost2010Prop30
280
     1
102
RTVSPost2010PropOp30
 70
     1
102
RTVSPost2010Prop31
280
     0
102
RTVSPost2010PropOp31
 70
     1
102
RTVSPost2010Prop32
280
     0
102
RTVSPost2010PropOp32
 70
     1
102
RTVSPost2010Prop33
280
     0
102
RTVSPost2010PropOp33
 70
     1
102
RTVSPost2010Prop34
280
     0
102
RTVSPost2010PropOp34
 70
     1
102
RTVSPost2010Prop35
280
     0
102
RTVSPost2010PropOp35
 70
     1
102
RTVSPost2010Prop36
280
     0
102
RTVSPost2010PropOp36
 70
     1
102
RTVSPost2010Prop37
 90
       50
102
RTVSPost2010PropOp37
 70
     1
102
RTVSPost2010Prop38
140
0.0
102
RTVSPost2010PropOp38
 70
     1
102
RTVSPost2010Prop39
140
1.0
102
RTVSPost2010PropOp39
 70
     1
102
RTVSPost2010Prop40
 90
        0
102
RTVSPost2010PropOp40
 70
     1
102
RTVSPost2010Prop41ColorIndex
 90
       18
102
RTVSPost2010Prop41ColorRGB
 90
        0
102
RTVSPost2010PropOp41
 70
     1
102
RTVSPost2010Prop42
 90
       50
102
RTVSPost2010PropOp42
 70
     1
102
RTVSPost2010Prop43
 90
        3
102
RTVSPost2010PropOp43
 70
     1
102
RTVSPost2010Prop44ColorIndex
 90
        5
102
RTVSPost2010Prop44ColorRGB
 90
      255
102
RTVSPost2010PropOp44
 70
     1
102
RTVSPost2010Prop45
280
     0
102
RTVSPost2010PropOp45
 70
     1
102
RTVSPost2010Prop46
 90
       50
102
RTVSPost2010PropOp46
 70
     1
102
RTVSPost2010Prop47
 90
       50
102
RTVSPost2010PropOp47
 70
     1
102
RTVSPost2010Prop48
 90
       50
102
RTVSPost2010PropOp48
 70
     1
102
RTVSPost2010Prop49
280
     0
102
RTVSPost2010PropOp49
 70
     1
102
RTVSPost2010Prop50
 90
       50
102
RTVSPost2010PropOp50
 70
     1
102
RTVSPost2010Prop51ColorIndex
 90
      256
102
RTVSPost2010Prop51ColorRGB
 90
-16777216
102
RTVSPost2010PropOp51
 70
     0
102
RTVSPost2010Prop52
140
1.0
102
RTVSPost2010PropOp52
 70
     0
102
RTVSPost2010Prop53
 90
        2
102
RTVSPost2010PropOp53
 70
     1
102
RTVSPost2010Prop54
  1
strokes_ogs.tif
102
RTVSPost2010PropOp54
 70
     1
102
RTVSPost2010Prop55
280
     0
102
RTVSPost2010PropOp55
 70
     1
102
RTVSPost2010Prop56
140
1.0
102
RTVSPost2010PropOp56
 70
     1
102
RTVSPost2010Prop57
140
1.0
102
RTVSPost2010PropOp57
 70
     1
  0
XRECORD
  5
F151
102
{ACAD_REACTORS
330
F150
102
}
330
F150
100
AcDbXrecord
280
     1
102
RTVSPost2010Prop28
280
     0
102
RTVSPost2010PropOp28
 70
     1
102
RTVSPost2010Prop29
280
     1
102
RTVSPost2010PropOp29
 70
     1
102
RTVSPost2010Prop30
280
     1
102
RTVSPost2010PropOp30
 70
     1
102
RTVSPost2010Prop31
280
     0
102
RTVSPost2010PropOp31
 70
     1
102
RTVSPost2010Prop32
280
     0
102
RTVSPost2010PropOp32
 70
     1
102
RTVSPost2010Prop33
280
     0
102
RTVSPost2010PropOp33
 70
     1
102
RTVSPost2010Prop34
280
     0
102
RTVSPost2010PropOp34
 70
     1
102
RTVSPost2010Prop35
280
     0
102
RTVSPost2010PropOp35
 70
     1
102
RTVSPost2010Prop36
280
     0
102
RTVSPost2010PropOp36
 70
     1
102
RTVSPost2010Prop37
 90
       50
102
RTVSPost2010PropOp37
 70
     1
102
RTVSPost2010Prop38
140
0.0
102
RTVSPost2010PropOp38
 70
     1
102
RTVSPost2010Prop39
140
1.0
102
RTVSPost2010PropOp39
 70
     1
102
RTVSPost2010Prop40
 90
        0
102
RTVSPost2010PropOp40
 70
     1
102
RTVSPost2010Prop41ColorIndex
 90
       18
102
RTVSPost2010Prop41ColorRGB
 90
        0
102
RTVSPost2010PropOp41
 70
     1
102
RTVSPost2010Prop42
 90
       50
102
RTVSPost2010PropOp42
 70
     1
102
RTVSPost2010Prop43
 90
        3
102
RTVSPost2010PropOp43
 70
     1
102
RTVSPost2010Prop44ColorIndex
 90
        5
102
RTVSPost2010Prop44ColorRGB
 90
      255
102
RTVSPost2010PropOp44
 70
     1
102
RTVSPost2010Prop45
280
     0
102
RTVSPost2010PropOp45
 70
     1
102
RTVSPost2010Prop46
 90
       50
102
RTVSPost2010PropOp46
 70
     1
102
RTVSPost2010Prop47
 90
       50
102
RTVSPost2010PropOp47
 70
     1
102
RTVSPost2010Prop48
 90
       50
102
RTVSPost2010PropOp48
 70
     1
102
RTVSPost2010Prop49
280
     0
102
RTVSPost2010PropOp49
 70
     1
102
RTVSPost2010Prop50
 90
       50
102
RTVSPost2010PropOp50
 70
     1
102
RTVSPost2010Prop51ColorIndex
 90
      256
102
RTVSPost2010Prop51ColorRGB
 90
-16777216
102
RTVSPost2010PropOp51
 70
     0
102
RTVSPost2010Prop52
140
1.0
102
RTVSPost2010PropOp52
 70
     0
102
RTVSPost2010Prop53
 90
        2
102
RTVSPost2010PropOp53
 70
     1
102
RTVSPost2010Prop54
  1
strokes_ogs.tif
102
RTVSPost2010PropOp54
 70
     1
102
RTVSPost2010Prop55
280
     0
102
RTVSPost2010PropOp55
 70
     1
102
RTVSPost2010Prop56
140
1.0
102
RTVSPost2010PropOp56
 70
     1
102
RTVSPost2010Prop57
140
1.0
102
RTVSPost2010PropOp57
 70
     1
  0
XRECORD
  5
F135
102
{ACAD_REACTORS
330
F134
102
}
330
F134
100
AcDbXrecord
280
     1
102
RTVSPost2010Prop28
280
     0
102
RTVSPost2010PropOp28
 70
     1
102
RTVSPost2010Prop29
280
     1
102
RTVSPost2010PropOp29
 70
     1
102
RTVSPost2010Prop30
280
     1
102
RTVSPost2010PropOp30
 70
     1
102
RTVSPost2010Prop31
280
     0
102
RTVSPost2010PropOp31
 70
     1
102
RTVSPost2010Prop32
280
     0
102
RTVSPost2010PropOp32
 70
     1
102
RTVSPost2010Prop33
280
     0
102
RTVSPost2010PropOp33
 70
     1
102
RTVSPost2010Prop34
280
     0
102
RTVSPost2010PropOp34
 70
     1
102
RTVSPost2010Prop35
280
     0
102
RTVSPost2010PropOp35
 70
     1
102
RTVSPost2010Prop36
280
     0
102
RTVSPost2010PropOp36
 70
     1
102
RTVSPost2010Prop37
 90
       50
102
RTVSPost2010PropOp37
 70
     1
102
RTVSPost2010Prop38
140
0.0
102
RTVSPost2010PropOp38
 70
     1
102
RTVSPost2010Prop39
140
1.0
102
RTVSPost2010PropOp39
 70
     1
102
RTVSPost2010Prop40
 90
        0
102
RTVSPost2010PropOp40
 70
     1
102
RTVSPost2010Prop41ColorIndex
 90
       18
102
RTVSPost2010Prop41ColorRGB
 90
        0
102
RTVSPost2010PropOp41
 70
     1
102
RTVSPost2010Prop42
 90
       50
102
RTVSPost2010PropOp42
 70
     1
102
RTVSPost2010Prop43
 90
        3
102
RTVSPost2010PropOp43
 70
     1
102
RTVSPost2010Prop44ColorIndex
 90
        5
102
RTVSPost2010Prop44ColorRGB
 90
      255
102
RTVSPost2010PropOp44
 70
     1
102
RTVSPost2010Prop45
280
     0
102
RTVSPost2010PropOp45
 70
     1
102
RTVSPost2010Prop46
 90
       50
102
RTVSPost2010PropOp46
 70
     1
102
RTVSPost2010Prop47
 90
       50
102
RTVSPost2010PropOp47
 70
     1
102
RTVSPost2010Prop48
 90
       50
102
RTVSPost2010PropOp48
 70
     1
102
RTVSPost2010Prop49
280
     0
102
RTVSPost2010PropOp49
 70
     1
102
RTVSPost2010Prop50
 90
       50
102
RTVSPost2010PropOp50
 70
     1
102
RTVSPost2010Prop51ColorIndex
 90
      256
102
RTVSPost2010Prop51ColorRGB
 90
-16777216
102
RTVSPost2010PropOp51
 70
     0
102
RTVSPost2010Prop52
140
1.0
102
RTVSPost2010PropOp52
 70
     0
102
RTVSPost2010Prop53
 90
        2
102
RTVSPost2010PropOp53
 70
     1
102
RTVSPost2010Prop54
  1
strokes_ogs.tif
102
RTVSPost2010PropOp54
 70
     1
102
RTVSPost2010Prop55
280
     0
102
RTVSPost2010PropOp55
 70
     1
102
RTVSPost2010Prop56
140
1.0
102
RTVSPost2010PropOp56
 70
     1
102
RTVSPost2010Prop57
140
1.0
102
RTVSPost2010PropOp57
 70
     1
  0
XRECORD
  5
F137
102
{ACAD_REACTORS
330
F136
102
}
330
F136
100
AcDbXrecord
280
     1
102
RTVSPost2010Prop28
280
     0
102
RTVSPost2010PropOp28
 70
     1
102
RTVSPost2010Prop29
280
     1
102
RTVSPost2010PropOp29
 70
     1
102
RTVSPost2010Prop30
280
     1
102
RTVSPost2010PropOp30
 70
     1
102
RTVSPost2010Prop31
280
     0
102
RTVSPost2010PropOp31
 70
     1
102
RTVSPost2010Prop32
280
     0
102
RTVSPost2010PropOp32
 70
     1
102
RTVSPost2010Prop33
280
     0
102
RTVSPost2010PropOp33
 70
     1
102
RTVSPost2010Prop34
280
     0
102
RTVSPost2010PropOp34
 70
     1
102
RTVSPost2010Prop35
280
     0
102
RTVSPost2010PropOp35
 70
     1
102
RTVSPost2010Prop36
280
     0
102
RTVSPost2010PropOp36
 70
     1
102
RTVSPost2010Prop37
 90
       50
102
RTVSPost2010PropOp37
 70
     1
102
RTVSPost2010Prop38
140
0.0
102
RTVSPost2010PropOp38
 70
     1
102
RTVSPost2010Prop39
140
1.0
102
RTVSPost2010PropOp39
 70
     1
102
RTVSPost2010Prop40
 90
        0
102
RTVSPost2010PropOp40
 70
     1
102
RTVSPost2010Prop41ColorIndex
 90
       18
102
RTVSPost2010Prop41ColorRGB
 90
        0
102
RTVSPost2010PropOp41
 70
     1
102
RTVSPost2010Prop42
 90
       50
102
RTVSPost2010PropOp42
 70
     1
102
RTVSPost2010Prop43
 90
        3
102
RTVSPost2010PropOp43
 70
     1
102
RTVSPost2010Prop44ColorIndex
 90
        5
102
RTVSPost2010Prop44ColorRGB
 90
      255
102
RTVSPost2010PropOp44
 70
     1
102
RTVSPost2010Prop45
280
     0
102
RTVSPost2010PropOp45
 70
     1
102
RTVSPost2010Prop46
 90
       50
102
RTVSPost2010PropOp46
 70
     1
102
RTVSPost2010Prop47
 90
       50
102
RTVSPost2010PropOp47
 70
     1
102
RTVSPost2010Prop48
 90
       50
102
RTVSPost2010PropOp48
 70
     1
102
RTVSPost2010Prop49
280
     0
102
RTVSPost2010PropOp49
 70
     1
102
RTVSPost2010Prop50
 90
       50
102
RTVSPost2010PropOp50
 70
     1
102
RTVSPost2010Prop51ColorIndex
 90
      256
102
RTVSPost2010Prop51ColorRGB
 90
-16777216
102
RTVSPost2010PropOp51
 70
     0
102
RTVSPost2010Prop52
140
1.0
102
RTVSPost2010PropOp52
 70
     0
102
RTVSPost2010Prop53
 90
        2
102
RTVSPost2010PropOp53
 70
     1
102
RTVSPost2010Prop54
  1
strokes_ogs.tif
102
RTVSPost2010PropOp54
 70
     1
102
RTVSPost2010Prop55
280
     0
102
RTVSPost2010PropOp55
 70
     1
102
RTVSPost2010Prop56
140
1.0
102
RTVSPost2010PropOp56
 70
     1
102
RTVSPost2010Prop57
140
1.0
102
RTVSPost2010PropOp57
 70
     1
  0
XRECORD
  5
F139
102
{ACAD_REACTORS
330
F138
102
}
330
F138
100
AcDbXrecord
280
     1
102
RTVSPost2010Prop28
280
     0
102
RTVSPost2010PropOp28
 70
     1
102
RTVSPost2010Prop29
280
     1
102
RTVSPost2010PropOp29
 70
     1
102
RTVSPost2010Prop30
280
     1
102
RTVSPost2010PropOp30
 70
     1
102
RTVSPost2010Prop31
280
     0
102
RTVSPost2010PropOp31
 70
     1
102
RTVSPost2010Prop32
280
     0
102
RTVSPost2010PropOp32
 70
     1
102
RTVSPost2010Prop33
280
     0
102
RTVSPost2010PropOp33
 70
     1
102
RTVSPost2010Prop34
280
     0
102
RTVSPost2010PropOp34
 70
     1
102
RTVSPost2010Prop35
280
     0
102
RTVSPost2010PropOp35
 70
     1
102
RTVSPost2010Prop36
280
     0
102
RTVSPost2010PropOp36
 70
     1
102
RTVSPost2010Prop37
 90
       50
102
RTVSPost2010PropOp37
 70
     1
102
RTVSPost2010Prop38
140
0.0
102
RTVSPost2010PropOp38
 70
     1
102
RTVSPost2010Prop39
140
1.0
102
RTVSPost2010PropOp39
 70
     1
102
RTVSPost2010Prop40
 90
        0
102
RTVSPost2010PropOp40
 70
     1
102
RTVSPost2010Prop41ColorIndex
 90
       18
102
RTVSPost2010Prop41ColorRGB
 90
        0
102
RTVSPost2010PropOp41
 70
     1
102
RTVSPost2010Prop42
 90
       50
102
RTVSPost2010PropOp42
 70
     1
102
RTVSPost2010Prop43
 90
        3
102
RTVSPost2010PropOp43
 70
     1
102
RTVSPost2010Prop44ColorIndex
 90
        5
102
RTVSPost2010Prop44ColorRGB
 90
      255
102
RTVSPost2010PropOp44
 70
     1
102
RTVSPost2010Prop45
280
     0
102
RTVSPost2010PropOp45
 70
     1
102
RTVSPost2010Prop46
 90
       50
102
RTVSPost2010PropOp46
 70
     1
102
RTVSPost2010Prop47
 90
       50
102
RTVSPost2010PropOp47
 70
     1
102
RTVSPost2010Prop48
 90
       50
102
RTVSPost2010PropOp48
 70
     1
102
RTVSPost2010Prop49
280
     0
102
RTVSPost2010PropOp49
 70
     1
102
RTVSPost2010Prop50
 90
       50
102
RTVSPost2010PropOp50
 70
     1
102
RTVSPost2010Prop51ColorIndex
 90
      256
102
RTVSPost2010Prop51ColorRGB
 90
-16777216
102
RTVSPost2010PropOp51
 70
     0
102
RTVSPost2010Prop52
140
1.0
102
RTVSPost2010PropOp52
 70
     0
102
RTVSPost2010Prop53
 90
        2
102
RTVSPost2010PropOp53
 70
     1
102
RTVSPost2010Prop54
  1
strokes_ogs.tif
102
RTVSPost2010PropOp54
 70
     1
102
RTVSPost2010Prop55
280
     0
102
RTVSPost2010PropOp55
 70
     1
102
RTVSPost2010Prop56
140
1.0
102
RTVSPost2010PropOp56
 70
     1
102
RTVSPost2010Prop57
140
1.0
102
RTVSPost2010PropOp57
 70
     1
  0
XRECORD
  5
F13B
102
{ACAD_REACTORS
330
F13A
102
}
330
F13A
100
AcDbXrecord
280
     1
102
RTVSPost2010Prop28
280
     0
102
RTVSPost2010PropOp28
 70
     1
102
RTVSPost2010Prop29
280
     1
102
RTVSPost2010PropOp29
 70
     1
102
RTVSPost2010Prop30
280
     1
102
RTVSPost2010PropOp30
 70
     1
102
RTVSPost2010Prop31
280
     0
102
RTVSPost2010PropOp31
 70
     1
102
RTVSPost2010Prop32
280
     0
102
RTVSPost2010PropOp32
 70
     1
102
RTVSPost2010Prop33
280
     0
102
RTVSPost2010PropOp33
 70
     1
102
RTVSPost2010Prop34
280
     0
102
RTVSPost2010PropOp34
 70
     1
102
RTVSPost2010Prop35
280
     0
102
RTVSPost2010PropOp35
 70
     1
102
RTVSPost2010Prop36
280
     0
102
RTVSPost2010PropOp36
 70
     1
102
RTVSPost2010Prop37
 90
       50
102
RTVSPost2010PropOp37
 70
     1
102
RTVSPost2010Prop38
140
0.0
102
RTVSPost2010PropOp38
 70
     1
102
RTVSPost2010Prop39
140
1.0
102
RTVSPost2010PropOp39
 70
     1
102
RTVSPost2010Prop40
 90
        0
102
RTVSPost2010PropOp40
 70
     1
102
RTVSPost2010Prop41ColorIndex
 90
       18
102
RTVSPost2010Prop41ColorRGB
 90
        0
102
RTVSPost2010PropOp41
 70
     1
102
RTVSPost2010Prop42
 90
       50
102
RTVSPost2010PropOp42
 70
     1
102
RTVSPost2010Prop43
 90
        3
102
RTVSPost2010PropOp43
 70
     1
102
RTVSPost2010Prop44ColorIndex
 90
        5
102
RTVSPost2010Prop44ColorRGB
 90
      255
102
RTVSPost2010PropOp44
 70
     1
102
RTVSPost2010Prop45
280
     0
102
RTVSPost2010PropOp45
 70
     1
102
RTVSPost2010Prop46
 90
       50
102
RTVSPost2010PropOp46
 70
     1
102
RTVSPost2010Prop47
 90
       50
102
RTVSPost2010PropOp47
 70
     1
102
RTVSPost2010Prop48
 90
       50
102
RTVSPost2010PropOp48
 70
     1
102
RTVSPost2010Prop49
280
     0
102
RTVSPost2010PropOp49
 70
     1
102
RTVSPost2010Prop50
 90
       50
102
RTVSPost2010PropOp50
 70
     1
102
RTVSPost2010Prop51ColorIndex
 90
      256
102
RTVSPost2010Prop51ColorRGB
 90
-16777216
102
RTVSPost2010PropOp51
 70
     0
102
RTVSPost2010Prop52
140
1.0
102
RTVSPost2010PropOp52
 70
     0
102
RTVSPost2010Prop53
 90
        2
102
RTVSPost2010PropOp53
 70
     1
102
RTVSPost2010Prop54
  1
strokes_ogs.tif
102
RTVSPost2010PropOp54
 70
     1
102
RTVSPost2010Prop55
280
     0
102
RTVSPost2010PropOp55
 70
     1
102
RTVSPost2010Prop56
140
1.0
102
RTVSPost2010PropOp56
 70
     1
102
RTVSPost2010Prop57
140
1.0
102
RTVSPost2010PropOp57
 70
     1
  0
XRECORD
  5
F15D
102
{ACAD_REACTORS
330
F15C
102
}
330
F15C
100
AcDbXrecord
280
     1
102
RTVSPost2010Prop28
280
     0
102
RTVSPost2010PropOp28
 70
     1
102
RTVSPost2010Prop29
280
     1
102
RTVSPost2010PropOp29
 70
     1
102
RTVSPost2010Prop30
280
     1
102
RTVSPost2010PropOp30
 70
     1
102
RTVSPost2010Prop31
280
     0
102
RTVSPost2010PropOp31
 70
     1
102
RTVSPost2010Prop32
280
     0
102
RTVSPost2010PropOp32
 70
     1
102
RTVSPost2010Prop33
280
     0
102
RTVSPost2010PropOp33
 70
     1
102
RTVSPost2010Prop34
280
     0
102
RTVSPost2010PropOp34
 70
     1
102
RTVSPost2010Prop35
280
     0
102
RTVSPost2010PropOp35
 70
     1
102
RTVSPost2010Prop36
280
     0
102
RTVSPost2010PropOp36
 70
     1
102
RTVSPost2010Prop37
 90
       50
102
RTVSPost2010PropOp37
 70
     1
102
RTVSPost2010Prop38
140
0.0
102
RTVSPost2010PropOp38
 70
     1
102
RTVSPost2010Prop39
140
1.0
102
RTVSPost2010PropOp39
 70
     1
102
RTVSPost2010Prop40
 90
        0
102
RTVSPost2010PropOp40
 70
     1
102
RTVSPost2010Prop41ColorIndex
 90
       18
102
RTVSPost2010Prop41ColorRGB
 90
        0
102
RTVSPost2010PropOp41
 70
     1
102
RTVSPost2010Prop42
 90
       50
102
RTVSPost2010PropOp42
 70
     1
102
RTVSPost2010Prop43
 90
        3
102
RTVSPost2010PropOp43
 70
     1
102
RTVSPost2010Prop44ColorIndex
 90
        5
102
RTVSPost2010Prop44ColorRGB
 90
      255
102
RTVSPost2010PropOp44
 70
     1
102
RTVSPost2010Prop45
280
     0
102
RTVSPost2010PropOp45
 70
     1
102
RTVSPost2010Prop46
 90
       50
102
RTVSPost2010PropOp46
 70
     1
102
RTVSPost2010Prop47
 90
       50
102
RTVSPost2010PropOp47
 70
     1
102
RTVSPost2010Prop48
 90
       50
102
RTVSPost2010PropOp48
 70
     1
102
RTVSPost2010Prop49
280
     0
102
RTVSPost2010PropOp49
 70
     1
102
RTVSPost2010Prop50
 90
       50
102
RTVSPost2010PropOp50
 70
     1
102
RTVSPost2010Prop51ColorIndex
 90
      256
102
RTVSPost2010Prop51ColorRGB
 90
-16777216
102
RTVSPost2010PropOp51
 70
     0
102
RTVSPost2010Prop52
140
1.0
102
RTVSPost2010PropOp52
 70
     0
102
RTVSPost2010Prop53
 90
        2
102
RTVSPost2010PropOp53
 70
     1
102
RTVSPost2010Prop54
  1
strokes_ogs.tif
102
RTVSPost2010PropOp54
 70
     1
102
RTVSPost2010Prop55
280
     0
102
RTVSPost2010PropOp55
 70
     1
102
RTVSPost2010Prop56
140
1.0
102
RTVSPost2010PropOp56
 70
     1
102
RTVSPost2010Prop57
140
1.0
102
RTVSPost2010PropOp57
 70
     1
  0
XRECORD
  5
F155
102
{ACAD_REACTORS
330
F154
102
}
330
F154
100
AcDbXrecord
280
     1
102
RTVSPost2010Prop28
280
     0
102
RTVSPost2010PropOp28
 70
     1
102
RTVSPost2010Prop29
280
     1
102
RTVSPost2010PropOp29
 70
     1
102
RTVSPost2010Prop30
280
     1
102
RTVSPost2010PropOp30
 70
     1
102
RTVSPost2010Prop31
280
     0
102
RTVSPost2010PropOp31
 70
     1
102
RTVSPost2010Prop32
280
     0
102
RTVSPost2010PropOp32
 70
     1
102
RTVSPost2010Prop33
280
     0
102
RTVSPost2010PropOp33
 70
     1
102
RTVSPost2010Prop34
280
     0
102
RTVSPost2010PropOp34
 70
     1
102
RTVSPost2010Prop35
280
     0
102
RTVSPost2010PropOp35
 70
     1
102
RTVSPost2010Prop36
280
     0
102
RTVSPost2010PropOp36
 70
     1
102
RTVSPost2010Prop37
 90
       50
102
RTVSPost2010PropOp37
 70
     1
102
RTVSPost2010Prop38
140
0.0
102
RTVSPost2010PropOp38
 70
     1
102
RTVSPost2010Prop39
140
1.0
102
RTVSPost2010PropOp39
 70
     1
102
RTVSPost2010Prop40
 90
        0
102
RTVSPost2010PropOp40
 70
     1
102
RTVSPost2010Prop41ColorIndex
 90
       18
102
RTVSPost2010Prop41ColorRGB
 90
        0
102
RTVSPost2010PropOp41
 70
     1
102
RTVSPost2010Prop42
 90
       50
102
RTVSPost2010PropOp42
 70
     1
102
RTVSPost2010Prop43
 90
        3
102
RTVSPost2010PropOp43
 70
     1
102
RTVSPost2010Prop44ColorIndex
 90
        5
102
RTVSPost2010Prop44ColorRGB
 90
      255
102
RTVSPost2010PropOp44
 70
     1
102
RTVSPost2010Prop45
280
     0
102
RTVSPost2010PropOp45
 70
     1
102
RTVSPost2010Prop46
 90
       50
102
RTVSPost2010PropOp46
 70
     1
102
RTVSPost2010Prop47
 90
       50
102
RTVSPost2010PropOp47
 70
     1
102
RTVSPost2010Prop48
 90
       50
102
RTVSPost2010PropOp48
 70
     1
102
RTVSPost2010Prop49
280
     0
102
RTVSPost2010PropOp49
 70
     1
102
RTVSPost2010Prop50
 90
       50
102
RTVSPost2010PropOp50
 70
     1
102
RTVSPost2010Prop51ColorIndex
 90
      256
102
RTVSPost2010Prop51ColorRGB
 90
-16777216
102
RTVSPost2010PropOp51
 70
     0
102
RTVSPost2010Prop52
140
1.0
102
RTVSPost2010PropOp52
 70
     0
102
RTVSPost2010Prop53
 90
        2
102
RTVSPost2010PropOp53
 70
     1
102
RTVSPost2010Prop54
  1
strokes_ogs.tif
102
RTVSPost2010PropOp54
 70
     1
102
RTVSPost2010Prop55
280
     0
102
RTVSPost2010PropOp55
 70
     1
102
RTVSPost2010Prop56
140
1.0
102
RTVSPost2010PropOp56
 70
     1
102
RTVSPost2010Prop57
140
1.0
102
RTVSPost2010PropOp57
 70
     1
  0
XRECORD
  5
F14F
102
{ACAD_REACTORS
330
F14E
102
}
330
F14E
100
AcDbXrecord
280
     1
102
RTVSPost2010Prop28
280
     0
102
RTVSPost2010PropOp28
 70
     1
102
RTVSPost2010Prop29
280
     1
102
RTVSPost2010PropOp29
 70
     1
102
RTVSPost2010Prop30
280
     1
102
RTVSPost2010PropOp30
 70
     1
102
RTVSPost2010Prop31
280
     0
102
RTVSPost2010PropOp31
 70
     1
102
RTVSPost2010Prop32
280
     0
102
RTVSPost2010PropOp32
 70
     1
102
RTVSPost2010Prop33
280
     0
102
RTVSPost2010PropOp33
 70
     1
102
RTVSPost2010Prop34
280
     0
102
RTVSPost2010PropOp34
 70
     1
102
RTVSPost2010Prop35
280
     0
102
RTVSPost2010PropOp35
 70
     1
102
RTVSPost2010Prop36
280
     0
102
RTVSPost2010PropOp36
 70
     1
102
RTVSPost2010Prop37
 90
       50
102
RTVSPost2010PropOp37
 70
     1
102
RTVSPost2010Prop38
140
0.0
102
RTVSPost2010PropOp38
 70
     1
102
RTVSPost2010Prop39
140
1.0
102
RTVSPost2010PropOp39
 70
     1
102
RTVSPost2010Prop40
 90
        0
102
RTVSPost2010PropOp40
 70
     1
102
RTVSPost2010Prop41ColorIndex
 90
       18
102
RTVSPost2010Prop41ColorRGB
 90
        0
102
RTVSPost2010PropOp41
 70
     1
102
RTVSPost2010Prop42
 90
       50
102
RTVSPost2010PropOp42
 70
     1
102
RTVSPost2010Prop43
 90
        3
102
RTVSPost2010PropOp43
 70
     1
102
RTVSPost2010Prop44ColorIndex
 90
        5
102
RTVSPost2010Prop44ColorRGB
 90
      255
102
RTVSPost2010PropOp44
 70
     1
102
RTVSPost2010Prop45
280
     0
102
RTVSPost2010PropOp45
 70
     1
102
RTVSPost2010Prop46
 90
       50
102
RTVSPost2010PropOp46
 70
     1
102
RTVSPost2010Prop47
 90
       50
102
RTVSPost2010PropOp47
 70
     1
102
RTVSPost2010Prop48
 90
       50
102
RTVSPost2010PropOp48
 70
     1
102
RTVSPost2010Prop49
280
     0
102
RTVSPost2010PropOp49
 70
     1
102
RTVSPost2010Prop50
 90
       50
102
RTVSPost2010PropOp50
 70
     1
102
RTVSPost2010Prop51ColorIndex
 90
      256
102
RTVSPost2010Prop51ColorRGB
 90
-16777216
102
RTVSPost2010PropOp51
 70
     0
102
RTVSPost2010Prop52
140
1.0
102
RTVSPost2010PropOp52
 70
     0
102
RTVSPost2010Prop53
 90
        2
102
RTVSPost2010PropOp53
 70
     1
102
RTVSPost2010Prop54
  1
strokes_ogs.tif
102
RTVSPost2010PropOp54
 70
     1
102
RTVSPost2010Prop55
280
     0
102
RTVSPost2010PropOp55
 70
     1
102
RTVSPost2010Prop56
140
1.0
102
RTVSPost2010PropOp56
 70
     1
102
RTVSPost2010Prop57
140
1.0
102
RTVSPost2010PropOp57
 70
     1
  0
XRECORD
  5
F157
102
{ACAD_REACTORS
330
F156
102
}
330
F156
100
AcDbXrecord
280
     1
102
RTVSPost2010Prop28
280
     0
102
RTVSPost2010PropOp28
 70
     1
102
RTVSPost2010Prop29
280
     1
102
RTVSPost2010PropOp29
 70
     1
102
RTVSPost2010Prop30
280
     1
102
RTVSPost2010PropOp30
 70
     1
102
RTVSPost2010Prop31
280
     0
102
RTVSPost2010PropOp31
 70
     1
102
RTVSPost2010Prop32
280
     0
102
RTVSPost2010PropOp32
 70
     1
102
RTVSPost2010Prop33
280
     0
102
RTVSPost2010PropOp33
 70
     1
102
RTVSPost2010Prop34
280
     0
102
RTVSPost2010PropOp34
 70
     1
102
RTVSPost2010Prop35
280
     0
102
RTVSPost2010PropOp35
 70
     1
102
RTVSPost2010Prop36
280
     0
102
RTVSPost2010PropOp36
 70
     1
102
RTVSPost2010Prop37
 90
       50
102
RTVSPost2010PropOp37
 70
     1
102
RTVSPost2010Prop38
140
0.0
102
RTVSPost2010PropOp38
 70
     1
102
RTVSPost2010Prop39
140
1.0
102
RTVSPost2010PropOp39
 70
     1
102
RTVSPost2010Prop40
 90
        0
102
RTVSPost2010PropOp40
 70
     1
102
RTVSPost2010Prop41ColorIndex
 90
       18
102
RTVSPost2010Prop41ColorRGB
 90
        0
102
RTVSPost2010PropOp41
 70
     1
102
RTVSPost2010Prop42
 90
       50
102
RTVSPost2010PropOp42
 70
     1
102
RTVSPost2010Prop43
 90
        3
102
RTVSPost2010PropOp43
 70
     1
102
RTVSPost2010Prop44ColorIndex
 90
        5
102
RTVSPost2010Prop44ColorRGB
 90
      255
102
RTVSPost2010PropOp44
 70
     1
102
RTVSPost2010Prop45
280
     0
102
RTVSPost2010PropOp45
 70
     1
102
RTVSPost2010Prop46
 90
       50
102
RTVSPost2010PropOp46
 70
     1
102
RTVSPost2010Prop47
 90
       50
102
RTVSPost2010PropOp47
 70
     1
102
RTVSPost2010Prop48
 90
       50
102
RTVSPost2010PropOp48
 70
     1
102
RTVSPost2010Prop49
280
     0
102
RTVSPost2010PropOp49
 70
     1
102
RTVSPost2010Prop50
 90
       50
102
RTVSPost2010PropOp50
 70
     1
102
RTVSPost2010Prop51ColorIndex
 90
      256
102
RTVSPost2010Prop51ColorRGB
 90
-16777216
102
RTVSPost2010PropOp51
 70
     0
102
RTVSPost2010Prop52
140
1.0
102
RTVSPost2010PropOp52
 70
     0
102
RTVSPost2010Prop53
 90
        2
102
RTVSPost2010PropOp53
 70
     1
102
RTVSPost2010Prop54
  1
strokes_ogs.tif
102
RTVSPost2010PropOp54
 70
     1
102
RTVSPost2010Prop55
280
     0
102
RTVSPost2010PropOp55
 70
     1
102
RTVSPost2010Prop56
140
1.0
102
RTVSPost2010PropOp56
 70
     1
102
RTVSPost2010Prop57
140
1.0
102
RTVSPost2010PropOp57
 70
     1
  0
XRECORD
  5
F147
102
{ACAD_REACTORS
330
F146
102
}
330
F146
100
AcDbXrecord
280
     1
102
RTVSPost2010Prop28
280
     0
102
RTVSPost2010PropOp28
 70
     1
102
RTVSPost2010Prop29
280
     1
102
RTVSPost2010PropOp29
 70
     1
102
RTVSPost2010Prop30
280
     1
102
RTVSPost2010PropOp30
 70
     1
102
RTVSPost2010Prop31
280
     0
102
RTVSPost2010PropOp31
 70
     1
102
RTVSPost2010Prop32
280
     0
102
RTVSPost2010PropOp32
 70
     1
102
RTVSPost2010Prop33
280
     0
102
RTVSPost2010PropOp33
 70
     1
102
RTVSPost2010Prop34
280
     0
102
RTVSPost2010PropOp34
 70
     1
102
RTVSPost2010Prop35
280
     0
102
RTVSPost2010PropOp35
 70
     1
102
RTVSPost2010Prop36
280
     0
102
RTVSPost2010PropOp36
 70
     1
102
RTVSPost2010Prop37
 90
       50
102
RTVSPost2010PropOp37
 70
     1
102
RTVSPost2010Prop38
140
0.0
102
RTVSPost2010PropOp38
 70
     1
102
RTVSPost2010Prop39
140
1.0
102
RTVSPost2010PropOp39
 70
     1
102
RTVSPost2010Prop40
 90
        0
102
RTVSPost2010PropOp40
 70
     1
102
RTVSPost2010Prop41ColorIndex
 90
       18
102
RTVSPost2010Prop41ColorRGB
 90
        0
102
RTVSPost2010PropOp41
 70
     1
102
RTVSPost2010Prop42
 90
       50
102
RTVSPost2010PropOp42
 70
     1
102
RTVSPost2010Prop43
 90
        3
102
RTVSPost2010PropOp43
 70
     1
102
RTVSPost2010Prop44ColorIndex
 90
        5
102
RTVSPost2010Prop44ColorRGB
 90
      255
102
RTVSPost2010PropOp44
 70
     1
102
RTVSPost2010Prop45
280
     0
102
RTVSPost2010PropOp45
 70
     1
102
RTVSPost2010Prop46
 90
       50
102
RTVSPost2010PropOp46
 70
     1
102
RTVSPost2010Prop47
 90
       50
102
RTVSPost2010PropOp47
 70
     1
102
RTVSPost2010Prop48
 90
       50
102
RTVSPost2010PropOp48
 70
     1
102
RTVSPost2010Prop49
280
     0
102
RTVSPost2010PropOp49
 70
     1
102
RTVSPost2010Prop50
 90
       50
102
RTVSPost2010PropOp50
 70
     1
102
RTVSPost2010Prop51ColorIndex
 90
      256
102
RTVSPost2010Prop51ColorRGB
 90
-16777216
102
RTVSPost2010PropOp51
 70
     0
102
RTVSPost2010Prop52
140
1.0
102
RTVSPost2010PropOp52
 70
     0
102
RTVSPost2010Prop53
 90
        2
102
RTVSPost2010PropOp53
 70
     1
102
RTVSPost2010Prop54
  1
strokes_ogs.tif
102
RTVSPost2010PropOp54
 70
     1
102
RTVSPost2010Prop55
280
     0
102
RTVSPost2010PropOp55
 70
     1
102
RTVSPost2010Prop56
140
1.0
102
RTVSPost2010PropOp56
 70
     1
102
RTVSPost2010Prop57
140
1.0
102
RTVSPost2010PropOp57
 70
     1
  0
XRECORD
  5
F167
102
{ACAD_REACTORS
330
F166
102
}
330
F166
100
AcDbXrecord
280
     1
102
RTVSPost2010Prop28
280
     0
102
RTVSPost2010PropOp28
 70
     1
102
RTVSPost2010Prop29
280
     1
102
RTVSPost2010PropOp29
 70
     1
102
RTVSPost2010Prop30
280
     1
102
RTVSPost2010PropOp30
 70
     1
102
RTVSPost2010Prop31
280
     0
102
RTVSPost2010PropOp31
 70
     1
102
RTVSPost2010Prop32
280
     0
102
RTVSPost2010PropOp32
 70
     1
102
RTVSPost2010Prop33
280
     0
102
RTVSPost2010PropOp33
 70
     1
102
RTVSPost2010Prop34
280
     0
102
RTVSPost2010PropOp34
 70
     1
102
RTVSPost2010Prop35
280
     0
102
RTVSPost2010PropOp35
 70
     1
102
RTVSPost2010Prop36
280
     0
102
RTVSPost2010PropOp36
 70
     1
102
RTVSPost2010Prop37
 90
       50
102
RTVSPost2010PropOp37
 70
     1
102
RTVSPost2010Prop38
140
0.0
102
RTVSPost2010PropOp38
 70
     1
102
RTVSPost2010Prop39
140
1.0
102
RTVSPost2010PropOp39
 70
     1
102
RTVSPost2010Prop40
 90
        0
102
RTVSPost2010PropOp40
 70
     1
102
RTVSPost2010Prop41ColorIndex
 90
       18
102
RTVSPost2010Prop41ColorRGB
 90
        0
102
RTVSPost2010PropOp41
 70
     1
102
RTVSPost2010Prop42
 90
       50
102
RTVSPost2010PropOp42
 70
     1
102
RTVSPost2010Prop43
 90
        3
102
RTVSPost2010PropOp43
 70
     1
102
RTVSPost2010Prop44ColorIndex
 90
        5
102
RTVSPost2010Prop44ColorRGB
 90
      255
102
RTVSPost2010PropOp44
 70
     1
102
RTVSPost2010Prop45
280
     0
102
RTVSPost2010PropOp45
 70
     1
102
RTVSPost2010Prop46
 90
       50
102
RTVSPost2010PropOp46
 70
     1
102
RTVSPost2010Prop47
 90
       50
102
RTVSPost2010PropOp47
 70
     1
102
RTVSPost2010Prop48
 90
       50
102
RTVSPost2010PropOp48
 70
     1
102
RTVSPost2010Prop49
280
     0
102
RTVSPost2010PropOp49
 70
     1
102
RTVSPost2010Prop50
 90
       50
102
RTVSPost2010PropOp50
 70
     1
102
RTVSPost2010Prop51ColorIndex
 90
      256
102
RTVSPost2010Prop51ColorRGB
 90
-16777216
102
RTVSPost2010PropOp51
 70
     0
102
RTVSPost2010Prop52
140
1.0
102
RTVSPost2010PropOp52
 70
     0
102
RTVSPost2010Prop53
 90
        2
102
RTVSPost2010PropOp53
 70
     1
102
RTVSPost2010Prop54
  1
strokes_ogs.tif
102
RTVSPost2010PropOp54
 70
     1
102
RTVSPost2010Prop55
280
     0
102
RTVSPost2010PropOp55
 70
     1
102
RTVSPost2010Prop56
140
1.0
102
RTVSPost2010PropOp56
 70
     1
102
RTVSPost2010Prop57
140
1.0
102
RTVSPost2010PropOp57
 70
     1
  0
XRECORD
  5
F165
102
{ACAD_REACTORS
330
F164
102
}
330
F164
100
AcDbXrecord
280
     1
102
RTVSPost2010Prop28
280
     0
102
RTVSPost2010PropOp28
 70
     1
102
RTVSPost2010Prop29
280
     1
102
RTVSPost2010PropOp29
 70
     1
102
RTVSPost2010Prop30
280
     1
102
RTVSPost2010PropOp30
 70
     1
102
RTVSPost2010Prop31
280
     0
102
RTVSPost2010PropOp31
 70
     1
102
RTVSPost2010Prop32
280
     0
102
RTVSPost2010PropOp32
 70
     1
102
RTVSPost2010Prop33
280
     0
102
RTVSPost2010PropOp33
 70
     1
102
RTVSPost2010Prop34
280
     0
102
RTVSPost2010PropOp34
 70
     1
102
RTVSPost2010Prop35
280
     0
102
RTVSPost2010PropOp35
 70
     1
102
RTVSPost2010Prop36
280
     0
102
RTVSPost2010PropOp36
 70
     1
102
RTVSPost2010Prop37
 90
       50
102
RTVSPost2010PropOp37
 70
     1
102
RTVSPost2010Prop38
140
0.0
102
RTVSPost2010PropOp38
 70
     1
102
RTVSPost2010Prop39
140
1.0
102
RTVSPost2010PropOp39
 70
     1
102
RTVSPost2010Prop40
 90
        0
102
RTVSPost2010PropOp40
 70
     1
102
RTVSPost2010Prop41ColorIndex
 90
       18
102
RTVSPost2010Prop41ColorRGB
 90
        0
102
RTVSPost2010PropOp41
 70
     1
102
RTVSPost2010Prop42
 90
       50
102
RTVSPost2010PropOp42
 70
     1
102
RTVSPost2010Prop43
 90
        3
102
RTVSPost2010PropOp43
 70
     1
102
RTVSPost2010Prop44ColorIndex
 90
        5
102
RTVSPost2010Prop44ColorRGB
 90
      255
102
RTVSPost2010PropOp44
 70
     1
102
RTVSPost2010Prop45
280
     0
102
RTVSPost2010PropOp45
 70
     1
102
RTVSPost2010Prop46
 90
       50
102
RTVSPost2010PropOp46
 70
     1
102
RTVSPost2010Prop47
 90
       50
102
RTVSPost2010PropOp47
 70
     1
102
RTVSPost2010Prop48
 90
       50
102
RTVSPost2010PropOp48
 70
     1
102
RTVSPost2010Prop49
280
     0
102
RTVSPost2010PropOp49
 70
     1
102
RTVSPost2010Prop50
 90
       50
102
RTVSPost2010PropOp50
 70
     1
102
RTVSPost2010Prop51ColorIndex
 90
      256
102
RTVSPost2010Prop51ColorRGB
 90
-16777216
102
RTVSPost2010PropOp51
 70
     0
102
RTVSPost2010Prop52
140
1.0
102
RTVSPost2010PropOp52
 70
     0
102
RTVSPost2010Prop53
 90
        2
102
RTVSPost2010PropOp53
 70
     1
102
RTVSPost2010Prop54
  1
strokes_ogs.tif
102
RTVSPost2010PropOp54
 70
     1
102
RTVSPost2010Prop55
280
     0
102
RTVSPost2010PropOp55
 70
     1
102
RTVSPost2010Prop56
140
1.0
102
RTVSPost2010PropOp56
 70
     1
102
RTVSPost2010Prop57
140
1.0
102
RTVSPost2010PropOp57
 70
     1
  0
XRECORD
  5
F15F
102
{ACAD_REACTORS
330
F15E
102
}
330
F15E
100
AcDbXrecord
280
     1
102
RTVSPost2010Prop28
280
     0
102
RTVSPost2010PropOp28
 70
     1
102
RTVSPost2010Prop29
280
     1
102
RTVSPost2010PropOp29
 70
     1
102
RTVSPost2010Prop30
280
     1
102
RTVSPost2010PropOp30
 70
     1
102
RTVSPost2010Prop31
280
     0
102
RTVSPost2010PropOp31
 70
     1
102
RTVSPost2010Prop32
280
     0
102
RTVSPost2010PropOp32
 70
     1
102
RTVSPost2010Prop33
280
     0
102
RTVSPost2010PropOp33
 70
     1
102
RTVSPost2010Prop34
280
     0
102
RTVSPost2010PropOp34
 70
     1
102
RTVSPost2010Prop35
280
     0
102
RTVSPost2010PropOp35
 70
     1
102
RTVSPost2010Prop36
280
     0
102
RTVSPost2010PropOp36
 70
     1
102
RTVSPost2010Prop37
 90
       50
102
RTVSPost2010PropOp37
 70
     1
102
RTVSPost2010Prop38
140
0.0
102
RTVSPost2010PropOp38
 70
     1
102
RTVSPost2010Prop39
140
1.0
102
RTVSPost2010PropOp39
 70
     1
102
RTVSPost2010Prop40
 90
        0
102
RTVSPost2010PropOp40
 70
     1
102
RTVSPost2010Prop41ColorIndex
 90
       18
102
RTVSPost2010Prop41ColorRGB
 90
        0
102
RTVSPost2010PropOp41
 70
     1
102
RTVSPost2010Prop42
 90
       50
102
RTVSPost2010PropOp42
 70
     1
102
RTVSPost2010Prop43
 90
        3
102
RTVSPost2010PropOp43
 70
     1
102
RTVSPost2010Prop44ColorIndex
 90
        5
102
RTVSPost2010Prop44ColorRGB
 90
      255
102
RTVSPost2010PropOp44
 70
     1
102
RTVSPost2010Prop45
280
     0
102
RTVSPost2010PropOp45
 70
     1
102
RTVSPost2010Prop46
 90
       50
102
RTVSPost2010PropOp46
 70
     1
102
RTVSPost2010Prop47
 90
       50
102
RTVSPost2010PropOp47
 70
     1
102
RTVSPost2010Prop48
 90
       50
102
RTVSPost2010PropOp48
 70
     1
102
RTVSPost2010Prop49
280
     0
102
RTVSPost2010PropOp49
 70
     1
102
RTVSPost2010Prop50
 90
       50
102
RTVSPost2010PropOp50
 70
     1
102
RTVSPost2010Prop51ColorIndex
 90
      256
102
RTVSPost2010Prop51ColorRGB
 90
-16777216
102
RTVSPost2010PropOp51
 70
     0
102
RTVSPost2010Prop52
140
1.0
102
RTVSPost2010PropOp52
 70
     0
102
RTVSPost2010Prop53
 90
        2
102
RTVSPost2010PropOp53
 70
     1
102
RTVSPost2010Prop54
  1
strokes_ogs.tif
102
RTVSPost2010PropOp54
 70
     1
102
RTVSPost2010Prop55
280
     0
102
RTVSPost2010PropOp55
 70
     1
102
RTVSPost2010Prop56
140
1.0
102
RTVSPost2010PropOp56
 70
     1
102
RTVSPost2010Prop57
140
1.0
102
RTVSPost2010PropOp57
 70
     1
  0
XRECORD
  5
F161
102
{ACAD_REACTORS
330
F160
102
}
330
F160
100
AcDbXrecord
280
     1
102
RTVSPost2010Prop28
280
     0
102
RTVSPost2010PropOp28
 70
     1
102
RTVSPost2010Prop29
280
     1
102
RTVSPost2010PropOp29
 70
     1
102
RTVSPost2010Prop30
280
     1
102
RTVSPost2010PropOp30
 70
     1
102
RTVSPost2010Prop31
280
     0
102
RTVSPost2010PropOp31
 70
     1
102
RTVSPost2010Prop32
280
     0
102
RTVSPost2010PropOp32
 70
     1
102
RTVSPost2010Prop33
280
     0
102
RTVSPost2010PropOp33
 70
     1
102
RTVSPost2010Prop34
280
     0
102
RTVSPost2010PropOp34
 70
     1
102
RTVSPost2010Prop35
280
     0
102
RTVSPost2010PropOp35
 70
     1
102
RTVSPost2010Prop36
280
     0
102
RTVSPost2010PropOp36
 70
     1
102
RTVSPost2010Prop37
 90
       50
102
RTVSPost2010PropOp37
 70
     1
102
RTVSPost2010Prop38
140
0.0
102
RTVSPost2010PropOp38
 70
     1
102
RTVSPost2010Prop39
140
1.0
102
RTVSPost2010PropOp39
 70
     1
102
RTVSPost2010Prop40
 90
        0
102
RTVSPost2010PropOp40
 70
     1
102
RTVSPost2010Prop41ColorIndex
 90
       18
102
RTVSPost2010Prop41ColorRGB
 90
        0
102
RTVSPost2010PropOp41
 70
     1
102
RTVSPost2010Prop42
 90
       50
102
RTVSPost2010PropOp42
 70
     1
102
RTVSPost2010Prop43
 90
        3
102
RTVSPost2010PropOp43
 70
     1
102
RTVSPost2010Prop44ColorIndex
 90
        5
102
RTVSPost2010Prop44ColorRGB
 90
      255
102
RTVSPost2010PropOp44
 70
     1
102
RTVSPost2010Prop45
280
     0
102
RTVSPost2010PropOp45
 70
     1
102
RTVSPost2010Prop46
 90
       50
102
RTVSPost2010PropOp46
 70
     1
102
RTVSPost2010Prop47
 90
       50
102
RTVSPost2010PropOp47
 70
     1
102
RTVSPost2010Prop48
 90
       50
102
RTVSPost2010PropOp48
 70
     1
102
RTVSPost2010Prop49
280
     0
102
RTVSPost2010PropOp49
 70
     1
102
RTVSPost2010Prop50
 90
       50
102
RTVSPost2010PropOp50
 70
     1
102
RTVSPost2010Prop51ColorIndex
 90
      256
102
RTVSPost2010Prop51ColorRGB
 90
-16777216
102
RTVSPost2010PropOp51
 70
     0
102
RTVSPost2010Prop52
140
1.0
102
RTVSPost2010PropOp52
 70
     0
102
RTVSPost2010Prop53
 90
        2
102
RTVSPost2010PropOp53
 70
     1
102
RTVSPost2010Prop54
  1
strokes_ogs.tif
102
RTVSPost2010PropOp54
 70
     1
102
RTVSPost2010Prop55
280
     0
102
RTVSPost2010PropOp55
 70
     1
102
RTVSPost2010Prop56
140
1.0
102
RTVSPost2010PropOp56
 70
     1
102
RTVSPost2010Prop57
140
1.0
102
RTVSPost2010PropOp57
 70
     1
  0
XRECORD
  5
F14D
102
{ACAD_REACTORS
330
F14C
102
}
330
F14C
100
AcDbXrecord
280
     1
102
RTVSPost2010Prop28
280
     0
102
RTVSPost2010PropOp28
 70
     1
102
RTVSPost2010Prop29
280
     1
102
RTVSPost2010PropOp29
 70
     1
102
RTVSPost2010Prop30
280
     1
102
RTVSPost2010PropOp30
 70
     1
102
RTVSPost2010Prop31
280
     0
102
RTVSPost2010PropOp31
 70
     1
102
RTVSPost2010Prop32
280
     0
102
RTVSPost2010PropOp32
 70
     1
102
RTVSPost2010Prop33
280
     0
102
RTVSPost2010PropOp33
 70
     1
102
RTVSPost2010Prop34
280
     0
102
RTVSPost2010PropOp34
 70
     1
102
RTVSPost2010Prop35
280
     0
102
RTVSPost2010PropOp35
 70
     1
102
RTVSPost2010Prop36
280
     0
102
RTVSPost2010PropOp36
 70
     1
102
RTVSPost2010Prop37
 90
       50
102
RTVSPost2010PropOp37
 70
     1
102
RTVSPost2010Prop38
140
0.0
102
RTVSPost2010PropOp38
 70
     1
102
RTVSPost2010Prop39
140
1.0
102
RTVSPost2010PropOp39
 70
     1
102
RTVSPost2010Prop40
 90
        0
102
RTVSPost2010PropOp40
 70
     1
102
RTVSPost2010Prop41ColorIndex
 90
       18
102
RTVSPost2010Prop41ColorRGB
 90
        0
102
RTVSPost2010PropOp41
 70
     1
102
RTVSPost2010Prop42
 90
       50
102
RTVSPost2010PropOp42
 70
     1
102
RTVSPost2010Prop43
 90
        3
102
RTVSPost2010PropOp43
 70
     1
102
RTVSPost2010Prop44ColorIndex
 90
        5
102
RTVSPost2010Prop44ColorRGB
 90
      255
102
RTVSPost2010PropOp44
 70
     1
102
RTVSPost2010Prop45
280
     0
102
RTVSPost2010PropOp45
 70
     1
102
RTVSPost2010Prop46
 90
       50
102
RTVSPost2010PropOp46
 70
     1
102
RTVSPost2010Prop47
 90
       50
102
RTVSPost2010PropOp47
 70
     1
102
RTVSPost2010Prop48
 90
       50
102
RTVSPost2010PropOp48
 70
     1
102
RTVSPost2010Prop49
280
     0
102
RTVSPost2010PropOp49
 70
     1
102
RTVSPost2010Prop50
 90
       50
102
RTVSPost2010PropOp50
 70
     1
102
RTVSPost2010Prop51ColorIndex
 90
      256
102
RTVSPost2010Prop51ColorRGB
 90
-16777216
102
RTVSPost2010PropOp51
 70
     0
102
RTVSPost2010Prop52
140
1.0
102
RTVSPost2010PropOp52
 70
     0
102
RTVSPost2010Prop53
 90
        2
102
RTVSPost2010PropOp53
 70
     1
102
RTVSPost2010Prop54
  1
strokes_ogs.tif
102
RTVSPost2010PropOp54
 70
     1
102
RTVSPost2010Prop55
280
     0
102
RTVSPost2010PropOp55
 70
     1
102
RTVSPost2010Prop56
140
1.0
102
RTVSPost2010PropOp56
 70
     1
102
RTVSPost2010Prop57
140
1.0
102
RTVSPost2010PropOp57
 70
     1
  0
XRECORD
  5
F15B
102
{ACAD_REACTORS
330
F15A
102
}
330
F15A
100
AcDbXrecord
280
     1
102
RTVSPost2010Prop28
280
     0
102
RTVSPost2010PropOp28
 70
     1
102
RTVSPost2010Prop29
280
     1
102
RTVSPost2010PropOp29
 70
     1
102
RTVSPost2010Prop30
280
     1
102
RTVSPost2010PropOp30
 70
     1
102
RTVSPost2010Prop31
280
     0
102
RTVSPost2010PropOp31
 70
     1
102
RTVSPost2010Prop32
280
     0
102
RTVSPost2010PropOp32
 70
     1
102
RTVSPost2010Prop33
280
     0
102
RTVSPost2010PropOp33
 70
     1
102
RTVSPost2010Prop34
280
     0
102
RTVSPost2010PropOp34
 70
     1
102
RTVSPost2010Prop35
280
     0
102
RTVSPost2010PropOp35
 70
     1
102
RTVSPost2010Prop36
280
     0
102
RTVSPost2010PropOp36
 70
     1
102
RTVSPost2010Prop37
 90
       50
102
RTVSPost2010PropOp37
 70
     1
102
RTVSPost2010Prop38
140
0.0
102
RTVSPost2010PropOp38
 70
     1
102
RTVSPost2010Prop39
140
1.0
102
RTVSPost2010PropOp39
 70
     1
102
RTVSPost2010Prop40
 90
        0
102
RTVSPost2010PropOp40
 70
     1
102
RTVSPost2010Prop41ColorIndex
 90
       18
102
RTVSPost2010Prop41ColorRGB
 90
        0
102
RTVSPost2010PropOp41
 70
     1
102
RTVSPost2010Prop42
 90
       50
102
RTVSPost2010PropOp42
 70
     1
102
RTVSPost2010Prop43
 90
        3
102
RTVSPost2010PropOp43
 70
     1
102
RTVSPost2010Prop44ColorIndex
 90
        5
102
RTVSPost2010Prop44ColorRGB
 90
      255
102
RTVSPost2010PropOp44
 70
     1
102
RTVSPost2010Prop45
280
     0
102
RTVSPost2010PropOp45
 70
     1
102
RTVSPost2010Prop46
 90
       50
102
RTVSPost2010PropOp46
 70
     1
102
RTVSPost2010Prop47
 90
       50
102
RTVSPost2010PropOp47
 70
     1
102
RTVSPost2010Prop48
 90
       50
102
RTVSPost2010PropOp48
 70
     1
102
RTVSPost2010Prop49
280
     0
102
RTVSPost2010PropOp49
 70
     1
102
RTVSPost2010Prop50
 90
       50
102
RTVSPost2010PropOp50
 70
     1
102
RTVSPost2010Prop51ColorIndex
 90
      256
102
RTVSPost2010Prop51ColorRGB
 90
-16777216
102
RTVSPost2010PropOp51
 70
     0
102
RTVSPost2010Prop52
140
1.0
102
RTVSPost2010PropOp52
 70
     0
102
RTVSPost2010Prop53
 90
        2
102
RTVSPost2010PropOp53
 70
     1
102
RTVSPost2010Prop54
  1
strokes_ogs.tif
102
RTVSPost2010PropOp54
 70
     1
102
RTVSPost2010Prop55
280
     0
102
RTVSPost2010PropOp55
 70
     1
102
RTVSPost2010Prop56
140
1.0
102
RTVSPost2010PropOp56
 70
     1
102
RTVSPost2010Prop57
140
1.0
102
RTVSPost2010PropOp57
 70
     1
  0
XRECORD
  5
F163
102
{ACAD_REACTORS
330
F162
102
}
330
F162
100
AcDbXrecord
280
     1
102
RTVSPost2010Prop28
280
     0
102
RTVSPost2010PropOp28
 70
     1
102
RTVSPost2010Prop29
280
     1
102
RTVSPost2010PropOp29
 70
     1
102
RTVSPost2010Prop30
280
     1
102
RTVSPost2010PropOp30
 70
     1
102
RTVSPost2010Prop31
280
     0
102
RTVSPost2010PropOp31
 70
     1
102
RTVSPost2010Prop32
280
     0
102
RTVSPost2010PropOp32
 70
     1
102
RTVSPost2010Prop33
280
     0
102
RTVSPost2010PropOp33
 70
     1
102
RTVSPost2010Prop34
280
     0
102
RTVSPost2010PropOp34
 70
     1
102
RTVSPost2010Prop35
280
     0
102
RTVSPost2010PropOp35
 70
     1
102
RTVSPost2010Prop36
280
     0
102
RTVSPost2010PropOp36
 70
     1
102
RTVSPost2010Prop37
 90
       50
102
RTVSPost2010PropOp37
 70
     1
102
RTVSPost2010Prop38
140
0.0
102
RTVSPost2010PropOp38
 70
     1
102
RTVSPost2010Prop39
140
1.0
102
RTVSPost2010PropOp39
 70
     1
102
RTVSPost2010Prop40
 90
        0
102
RTVSPost2010PropOp40
 70
     1
102
RTVSPost2010Prop41ColorIndex
 90
       18
102
RTVSPost2010Prop41ColorRGB
 90
        0
102
RTVSPost2010PropOp41
 70
     1
102
RTVSPost2010Prop42
 90
       50
102
RTVSPost2010PropOp42
 70
     1
102
RTVSPost2010Prop43
 90
        3
102
RTVSPost2010PropOp43
 70
     1
102
RTVSPost2010Prop44ColorIndex
 90
        5
102
RTVSPost2010Prop44ColorRGB
 90
      255
102
RTVSPost2010PropOp44
 70
     1
102
RTVSPost2010Prop45
280
     0
102
RTVSPost2010PropOp45
 70
     1
102
RTVSPost2010Prop46
 90
       50
102
RTVSPost2010PropOp46
 70
     1
102
RTVSPost2010Prop47
 90
       50
102
RTVSPost2010PropOp47
 70
     1
102
RTVSPost2010Prop48
 90
       50
102
RTVSPost2010PropOp48
 70
     1
102
RTVSPost2010Prop49
280
     0
102
RTVSPost2010PropOp49
 70
     1
102
RTVSPost2010Prop50
 90
       50
102
RTVSPost2010PropOp50
 70
     1
102
RTVSPost2010Prop51ColorIndex
 90
      256
102
RTVSPost2010Prop51ColorRGB
 90
-16777216
102
RTVSPost2010PropOp51
 70
     0
102
RTVSPost2010Prop52
140
1.0
102
RTVSPost2010PropOp52
 70
     0
102
RTVSPost2010Prop53
 90
        2
102
RTVSPost2010PropOp53
 70
     1
102
RTVSPost2010Prop54
  1
strokes_ogs.tif
102
RTVSPost2010PropOp54
 70
     1
102
RTVSPost2010Prop55
280
     0
102
RTVSPost2010PropOp55
 70
     1
102
RTVSPost2010Prop56
140
1.0
102
RTVSPost2010PropOp56
 70
     1
102
RTVSPost2010Prop57
140
1.0
102
RTVSPost2010PropOp57
 70
     1
  0
ENDSEC
  0
EOF
